  0
SECTION
  2
HEADER
  9
$ACADVER
  1
AC1015
  9
$ACADMAINTVER
 70
    20
  9
$DWGCODEPAGE
  3
ANSI_1252
  9
$INSBASE
 10
0.0
 20
0.0
 30
0.0
  9
$EXTMIN
 10
682.7067012247676
 20
1015.455404024246
 30
0.0
  9
$EXTMAX
 10
685.1399656772488
 20
1015.9255356375
 30
0.0
  9
$LIMMIN
 10
0.0
 20
0.0
  9
$LIMMAX
 10
420.0
 20
297.0
  9
$ORTHOMODE
 70
     0
  9
$REGENMODE
 70
     1
  9
$FILLMODE
 70
     1
  9
$QTEXTMODE
 70
     0
  9
$MIRRTEXT
 70
     0
  9
$LTSCALE
 40
1.0
  9
$ATTMODE
 70
     1
  9
$TEXTSIZE
 40
2.5
  9
$TRACEWID
 40
1.0
  9
$TEXTSTYLE
  7
Standard
  9
$CLAYER
  8
0
  9
$CELTYPE
  6
ByLayer
  9
$CECOLOR
 62
   256
  9
$CELTSCALE
 40
1.0
  9
$DISPSILH
 70
     0
  9
$DIMSCALE
 40
1.0
  9
$DIMASZ
 40
2.5
  9
$DIMEXO
 40
0.625
  9
$DIMDLI
 40
3.75
  9
$DIMRND
 40
0.0
  9
$DIMDLE
 40
0.0
  9
$DIMEXE
 40
1.25
  9
$DIMTP
 40
0.0
  9
$DIMTM
 40
0.0
  9
$DIMTXT
 40
2.5
  9
$DIMCEN
 40
2.5
  9
$DIMTSZ
 40
0.0
  9
$DIMTOL
 70
     0
  9
$DIMLIM
 70
     0
  9
$DIMTIH
 70
     0
  9
$DIMTOH
 70
     0
  9
$DIMSE1
 70
     0
  9
$DIMSE2
 70
     0
  9
$DIMTAD
 70
     1
  9
$DIMZIN
 70
     8
  9
$DIMBLK
  1

  9
$DIMASO
 70
     1
  9
$DIMSHO
 70
     1
  9
$DIMPOST
  1

  9
$DIMAPOST
  1

  9
$DIMALT
 70
     0
  9
$DIMALTD
 70
     3
  9
$DIMALTF
 40
0.03937007874016
  9
$DIMLFAC
 40
1.0
  9
$DIMTOFL
 70
     1
  9
$DIMTVP
 40
0.0
  9
$DIMTIX
 70
     0
  9
$DIMSOXD
 70
     0
  9
$DIMSAH
 70
     0
  9
$DIMBLK1
  1

  9
$DIMBLK2
  1

  9
$DIMSTYLE
  2
ISO-25
  9
$DIMCLRD
 70
     0
  9
$DIMCLRE
 70
     0
  9
$DIMCLRT
 70
     0
  9
$DIMTFAC
 40
1.0
  9
$DIMGAP
 40
0.625
  9
$DIMJUST
 70
     0
  9
$DIMSD1
 70
     0
  9
$DIMSD2
 70
     0
  9
$DIMTOLJ
 70
     0
  9
$DIMTZIN
 70
     8
  9
$DIMALTZ
 70
     0
  9
$DIMALTTZ
 70
     0
  9
$DIMUPT
 70
     0
  9
$DIMDEC
 70
     2
  9
$DIMTDEC
 70
     2
  9
$DIMALTU
 70
     2
  9
$DIMALTTD
 70
     3
  9
$DIMTXSTY
  7
Standard
  9
$DIMAUNIT
 70
     0
  9
$DIMADEC
 70
     0
  9
$DIMALTRND
 40
0.0
  9
$DIMAZIN
 70
     0
  9
$DIMDSEP
 70
    44
  9
$DIMATFIT
 70
     3
  9
$DIMFRAC
 70
     0
  9
$DIMLDRBLK
  1

  9
$DIMLUNIT
 70
     2
  9
$DIMLWD
 70
    -2
  9
$DIMLWE
 70
    -2
  9
$DIMTMOVE
 70
     0
  9
$LUNITS
 70
     2
  9
$LUPREC
 70
     4
  9
$SKETCHINC
 40
1.0
  9
$FILLETRAD
 40
0.0
  9
$AUNITS
 70
     0
  9
$AUPREC
 70
     0
  9
$MENU
  1
.
  9
$ELEVATION
 40
0.0
  9
$PELEVATION
 40
0.0
  9
$THICKNESS
 40
0.0
  9
$LIMCHECK
 70
     0
  9
$CHAMFERA
 40
0.0
  9
$CHAMFERB
 40
0.0
  9
$CHAMFERC
 40
0.0
  9
$CHAMFERD
 40
0.0
  9
$SKPOLY
 70
     0
  9
$TDCREATE
 40
2453797.477740880
  9
$TDUCREATE
 40
2453797.436074213
  9
$TDUPDATE
 40
2456147.429274803
  9
$TDUUPDATE
 40
2456147.387608137
  9
$TDINDWG
 40
0.0014389815
  9
$TDUSRTIMER
 40
0.0014389815
  9
$USRTIMER
 70
     1
  9
$ANGBASE
 50
0.0
  9
$ANGDIR
 70
     0
  9
$PDMODE
 70
     0
  9
$PDSIZE
 40
0.0
  9
$PLINEWID
 40
0.0
  9
$SPLFRAME
 70
     0
  9
$SPLINETYPE
 70
     6
  9
$SPLINESEGS
 70
     8
  9
$HANDSEED
  5
325
  9
$SURFTAB1
 70
     6
  9
$SURFTAB2
 70
     6
  9
$SURFTYPE
 70
     6
  9
$SURFU
 70
     6
  9
$SURFV
 70
     6
  9
$UCSBASE
  2

  9
$UCSNAME
  2

  9
$UCSORG
 10
0.0
 20
0.0
 30
0.0
  9
$UCSXDIR
 10
1.0
 20
0.0
 30
0.0
  9
$UCSYDIR
 10
0.0
 20
1.0
 30
0.0
  9
$UCSORTHOREF
  2

  9
$UCSORTHOVIEW
 70
     0
  9
$UCSORGTOP
 10
0.0
 20
0.0
 30
0.0
  9
$UCSORGBOTTOM
 10
0.0
 20
0.0
 30
0.0
  9
$UCSORGLEFT
 10
0.0
 20
0.0
 30
0.0
  9
$UCSORGRIGHT
 10
0.0
 20
0.0
 30
0.0
  9
$UCSORGFRONT
 10
0.0
 20
0.0
 30
0.0
  9
$UCSORGBACK
 10
0.0
 20
0.0
 30
0.0
  9
$PUCSBASE
  2

  9
$PUCSNAME
  2

  9
$PUCSORG
 10
0.0
 20
0.0
 30
0.0
  9
$PUCSXDIR
 10
1.0
 20
0.0
 30
0.0
  9
$PUCSYDIR
 10
0.0
 20
1.0
 30
0.0
  9
$PUCSORTHOREF
  2

  9
$PUCSORTHOVIEW
 70
     0
  9
$PUCSORGTOP
 10
0.0
 20
0.0
 30
0.0
  9
$PUCSORGBOTTOM
 10
0.0
 20
0.0
 30
0.0
  9
$PUCSORGLEFT
 10
0.0
 20
0.0
 30
0.0
  9
$PUCSORGRIGHT
 10
0.0
 20
0.0
 30
0.0
  9
$PUCSORGFRONT
 10
0.0
 20
0.0
 30
0.0
  9
$PUCSORGBACK
 10
0.0
 20
0.0
 30
0.0
  9
$USERI1
 70
     0
  9
$USERI2
 70
     0
  9
$USERI3
 70
     0
  9
$USERI4
 70
     0
  9
$USERI5
 70
     0
  9
$USERR1
 40
0.0
  9
$USERR2
 40
0.0
  9
$USERR3
 40
0.0
  9
$USERR4
 40
0.0
  9
$USERR5
 40
0.0
  9
$WORLDVIEW
 70
     1
  9
$SHADEDGE
 70
     3
  9
$SHADEDIF
 70
    70
  9
$TILEMODE
 70
     1
  9
$MAXACTVP
 70
    64
  9
$PINSBASE
 10
0.0
 20
0.0
 30
0.0
  9
$PLIMCHECK
 70
     0
  9
$PEXTMIN
 10
1.000000000000000E+20
 20
1.000000000000000E+20
 30
1.000000000000000E+20
  9
$PEXTMAX
 10
-1.000000000000000E+20
 20
-1.000000000000000E+20
 30
-1.000000000000000E+20
  9
$PLIMMIN
 10
0.0
 20
0.0
  9
$PLIMMAX
 10
420.0
 20
297.0
  9
$UNITMODE
 70
     0
  9
$VISRETAIN
 70
     1
  9
$PLINEGEN
 70
     0
  9
$PSLTSCALE
 70
     1
  9
$TREEDEPTH
 70
  3020
  9
$CMLSTYLE
  2
Standard
  9
$CMLJUST
 70
     0
  9
$CMLSCALE
 40
20.0
  9
$PROXYGRAPHICS
 70
     1
  9
$MEASUREMENT
 70
     1
  9
$CELWEIGHT
370
    -1
  9
$ENDCAPS
280
     0
  9
$JOINSTYLE
280
     0
  9
$LWDISPLAY
290
     0
  9
$INSUNITS
 70
     4
  9
$HYPERLINKBASE
  1

  9
$STYLESHEET
  1

  9
$XEDIT
290
     1
  9
$CEPSNTYPE
380
     0
  9
$PSTYLEMODE
290
     1
  9
$FINGERPRINTGUID
  2
{A2BAF22D-703C-4D10-A668-105F0D335CBF}
  9
$VERSIONGUID
  2
{0F8A5A5A-181F-47CF-895D-41AEC9A8E3AA}
  9
$EXTNAMES
290
     1
  9
$PSVPSCALE
 40
0.0
  9
$OLESTARTUP
290
     0
  0
ENDSEC
  0
SECTION
  2
CLASSES
  0
CLASS
  1
ACDBDICTIONARYWDFLT
  2
AcDbDictionaryWithDefault
  3
ObjectDBX Classes
 90
        0
280
     0
281
     0
  0
CLASS
  1
TABLESTYLE
  2
AcDbTableStyle
  3
ObjectDBX Classes
 90
     4095
280
     0
281
     0
  0
CLASS
  1
DICTIONARYVAR
  2
AcDbDictionaryVar
  3
ObjectDBX Classes
 90
        0
280
     0
281
     0
  0
CLASS
  1
ACDBPLACEHOLDER
  2
AcDbPlaceHolder
  3
ObjectDBX Classes
 90
        0
280
     0
281
     0
  0
CLASS
  1
LAYOUT
  2
AcDbLayout
  3
ObjectDBX Classes
 90
        0
280
     0
281
     0
  0
CLASS
  1
MATERIAL
  2
AcDbMaterial
  3
ObjectDBX Classes
 90
     1153
280
     0
281
     0
  0
CLASS
  1
VISUALSTYLE
  2
AcDbVisualStyle
  3
ObjectDBX Classes
 90
     4095
280
     0
281
     0
  0
CLASS
  1
SCALE
  2
AcDbScale
  3
ObjectDBX Classes
 90
     1153
280
     0
281
     0
  0
CLASS
  1
MLEADERSTYLE
  2
AcDbMLeaderStyle
  3
ACDB_MLEADERSTYLE_CLASS
 90
     4095
280
     0
281
     0
  0
CLASS
  1
CELLSTYLEMAP
  2
AcDbCellStyleMap
  3
ObjectDBX Classes
 90
     1152
280
     0
281
     0
  0
ENDSEC
  0
SECTION
  2
TABLES
  0
TABLE
  2
VPORT
  5
8
330
0
100
AcDbSymbolTable
 70
     1
  0
VPORT
  5
288
330
8
100
AcDbSymbolTableRecord
100
AcDbViewportTableRecord
  2
*Active
 70
     0
 10
0.0
 20
0.0
 11
1.0
 21
1.0
 12
683.9690959082937
 22
1015.690469830873
 13
0.0
 23
0.0
 14
10.0
 24
10.0
 15
10.0
 25
10.0
 16
0.0
 26
0.0
 36
1.0
 17
0.0
 27
0.0
 37
0.0
 40
1.540010229895212
 41
1.645464025026068
 42
50.0
 43
0.0
 44
0.0
 50
0.0
 51
0.0
 71
     0
 72
  1000
 73
     1
 74
     3
 75
     0
 76
     0
 77
     0
 78
     0
281
     0
 65
     1
110
0.0
120
0.0
130
0.0
111
1.0
121
0.0
131
0.0
112
0.0
122
1.0
132
0.0
 79
     0
146
0.0
  0
ENDTAB
  0
TABLE
  2
LTYPE
  5
5
330
0
100
AcDbSymbolTable
 70
     3
  0
LTYPE
  5
14
330
5
100
AcDbSymbolTableRecord
100
AcDbLinetypeTableRecord
  2
ByBlock
 70
     0
  3

 72
    65
 73
     0
 40
0.0
  0
LTYPE
  5
15
330
5
100
AcDbSymbolTableRecord
100
AcDbLinetypeTableRecord
  2
ByLayer
 70
     0
  3

 72
    65
 73
     0
 40
0.0
  0
LTYPE
  5
16
330
5
100
AcDbSymbolTableRecord
100
AcDbLinetypeTableRecord
  2
Continuous
 70
     0
  3
Solid line
 72
    65
 73
     0
 40
0.0
  0
LTYPE
  5
33
330
5
100
AcDbSymbolTableRecord
100
AcDbLinetypeTableRecord
  2
DASHDOT
 70
     0
  3
Dash dot __ . __ . __ . __ . __ . __ . __ . __
 72
    65
 73
     4
 40
25.4
 49
12.7
 74
     0
 49
-6.349999999999999
 74
     0
 49
0.0
 74
     0
 49
-6.349999999999999
 74
     0
  0
LTYPE
  5
34
330
5
100
AcDbSymbolTableRecord
100
AcDbLinetypeTableRecord
  2
HIDDEN
 70
     0
  3
Hidden __ __ __ __ __ __ __ __ __ __ __ __ __ _
 72
    65
 73
     2
 40
9.524999999999998
 49
6.349999999999999
 74
     0
 49
-3.174999999999999
 74
     0
  0
ENDTAB
  0
TABLE
  2
LAYER
  5
2
330
0
100
AcDbSymbolTable
 70
     9
  0
LAYER
  5
10
102
{ACAD_XDICTIONARY
360
2D9
102
}
330
2
100
AcDbSymbolTableRecord
100
AcDbLayerTableRecord
  2
0
 70
     0
 62
     7
  6
Continuous
370
    -3
390
F
  0
LAYER
  5
35
102
{ACAD_XDICTIONARY
360
2DB
102
}
330
2
100
AcDbSymbolTableRecord
100
AcDbLayerTableRecord
  2
4
 70
     0
 62
     4
  6
Continuous
370
    -3
390
F
  0
LAYER
  5
36
102
{ACAD_XDICTIONARY
360
2DD
102
}
330
2
100
AcDbSymbolTableRecord
100
AcDbLayerTableRecord
  2
cen
 70
     0
 62
     7
  6
DASHDOT
370
    -3
390
F
  0
LAYER
  5
37
102
{ACAD_XDICTIONARY
360
2DF
102
}
330
2
100
AcDbSymbolTableRecord
100
AcDbLayerTableRecord
  2
hid
 70
     0
 62
     7
  6
HIDDEN
370
    -3
390
F
  0
LAYER
  5
38
102
{ACAD_XDICTIONARY
360
2E1
102
}
330
2
100
AcDbSymbolTableRecord
100
AcDbLayerTableRecord
  2
hatch
 70
     0
 62
     9
  6
Continuous
370
    -3
390
F
  0
LAYER
  5
39
102
{ACAD_XDICTIONARY
360
2E3
102
}
330
2
100
AcDbSymbolTableRecord
100
AcDbLayerTableRecord
  2
9
 70
     0
 62
     9
  6
Continuous
370
    -3
390
F
  0
LAYER
  5
3A
102
{ACAD_XDICTIONARY
360
2E5
102
}
330
2
100
AcDbSymbolTableRecord
100
AcDbLayerTableRecord
  2
cotas
 70
     0
 62
     1
  6
Continuous
370
    -3
390
F
  0
LAYER
  5
3B
102
{ACAD_XDICTIONARY
360
2E7
102
}
330
2
100
AcDbSymbolTableRecord
100
AcDbLayerTableRecord
  2
indusa
 70
     0
 62
     3
  6
Continuous
370
    -3
390
F
  0
LAYER
  5
284
102
{ACAD_XDICTIONARY
360
2E9
102
}
330
2
100
AcDbSymbolTableRecord
100
AcDbLayerTableRecord
  2
sanindusa
 70
     0
 62
     3
  6
Continuous
370
    -3
390
F
  0
ENDTAB
  0
TABLE
  2
STYLE
  5
3
330
0
100
AcDbSymbolTable
 70
     2
  0
STYLE
  5
11
330
3
100
AcDbSymbolTableRecord
100
AcDbTextStyleTableRecord
  2
Standard
 70
     0
 40
0.0
 41
1.0
 50
0.0
 71
     0
 42
2.5
  3
txt
  4

  0
STYLE
  5
3C
330
3
100
AcDbSymbolTableRecord
100
AcDbTextStyleTableRecord
  2
SANINDUSA
 70
     0
 40
0.0
 41
1.0
 50
0.0
 71
     0
 42
2.5
  3
verdana.TTF
  4

1001
ACAD
1000
Verdana
1071
       34
  0
ENDTAB
  0
TABLE
  2
VIEW
  5
6
330
0
100
AcDbSymbolTable
 70
     0
  0
ENDTAB
  0
TABLE
  2
UCS
  5
7
330
0
100
AcDbSymbolTable
 70
     0
  0
ENDTAB
  0
TABLE
  2
APPID
  5
9
330
0
100
AcDbSymbolTable
 70
     3
  0
APPID
  5
12
330
9
100
AcDbSymbolTableRecord
100
AcDbRegAppTableRecord
  2
ACAD
 70
     0
  0
APPID
  5
3E
330
9
100
AcDbSymbolTableRecord
100
AcDbRegAppTableRecord
  2
DCO15
 70
     0
  0
APPID
  5
324
330
9
100
AcDbSymbolTableRecord
100
AcDbRegAppTableRecord
  2
ACAD_MLEADERVER
 70
     0
  0
ENDTAB
  0
TABLE
  2
DIMSTYLE
  5
A
330
0
100
AcDbSymbolTable
 70
     2
100
AcDbDimStyleTable
 71
     1
340
2B
  0
DIMSTYLE
105
2B
330
A
100
AcDbSymbolTableRecord
100
AcDbDimStyleTableRecord
  2
ISO-25
 70
     0
 41
2.5
 42
0.625
 43
3.75
 44
1.25
 73
     0
 74
     0
 77
     1
 78
     8
140
2.5
141
2.5
143
0.03937007874016
147
0.625
171
     3
172
     1
271
     2
272
     2
274
     3
278
    44
283
     0
284
     8
340
11
  0
DIMSTYLE
105
3D
330
A
100
AcDbSymbolTableRecord
100
AcDbDimStyleTableRecord
  2
SANINDUSA
 70
     0
 41
10.0
 42
4.0
 43
4.0
 44
4.0
 73
     0
 74
     0
 77
     1
 78
     8
140
10.0
141
0.0
143
0.03937007874016
147
5.0
171
     3
172
     1
176
   256
177
   256
178
   256
179
     1
271
     1
272
     1
274
     3
278
    44
283
     0
284
     8
340
3C
371
    -1
372
    -1
  0
ENDTAB
  0
TABLE
  2
BLOCK_RECORD
  5
1
330
0
100
AcDbSymbolTable
 70
     2
  0
BLOCK_RECORD
  5
23
330
1
100
AcDbSymbolTableRecord
100
AcDbBlockTableRecord
  2
*Model_Space
340
26
  0
BLOCK_RECORD
  5
1F
330
1
100
AcDbSymbolTableRecord
100
AcDbBlockTableRecord
  2
*Paper_Space
340
22
  0
BLOCK_RECORD
  5
27
330
1
100
AcDbSymbolTableRecord
100
AcDbBlockTableRecord
  2
*Paper_Space0
340
2A
  0
BLOCK_RECORD
  5
2F
330
1
100
AcDbSymbolTableRecord
100
AcDbBlockTableRecord
  2
_DotSmall
340
0
  0
ENDTAB
  0
ENDSEC
  0
SECTION
  2
BLOCKS
  0
BLOCK
  5
24
330
23
100
AcDbEntity
  8
0
100
AcDbBlockBegin
  2
*Model_Space
 70
     0
 10
0.0
 20
0.0
 30
0.0
  3
*Model_Space
  1

  0
ENDBLK
  5
25
330
23
100
AcDbEntity
  8
0
100
AcDbBlockEnd
  0
BLOCK
  5
20
330
1F
100
AcDbEntity
 67
     1
  8
0
100
AcDbBlockBegin
  2
*Paper_Space
 70
     0
 10
0.0
 20
0.0
 30
0.0
  3
*Paper_Space
  1

  0
ENDBLK
  5
21
330
1F
100
AcDbEntity
 67
     1
  8
0
100
AcDbBlockEnd
  0
BLOCK
  5
28
330
27
100
AcDbEntity
 67
     1
  8
0
100
AcDbBlockBegin
  2
*Paper_Space0
 70
     0
 10
0.0
 20
0.0
 30
0.0
  3
*Paper_Space0
  1

  0
ENDBLK
  5
29
330
27
100
AcDbEntity
 67
     1
  8
0
100
AcDbBlockEnd
  0
BLOCK
  5
30
330
2F
100
AcDbEntity
  8
0
100
AcDbBlockBegin
  2
_DotSmall
 70
     0
 10
0.0
 20
0.0
 30
0.0
  3
_DotSmall
  1

  0
LWPOLYLINE
  5
31
330
2F
100
AcDbEntity
  8
0
  6
ByBlock
 62
     0
100
AcDbPolyline
 90
        2
 70
     1
 43
0.5
 10
-0.0625
 20
0.0
 42
1.0
 10
0.0625
 20
0.0
 42
1.0
  0
ENDBLK
  5
32
330
2F
100
AcDbEntity
  8
0
100
AcDbBlockEnd
  0
ENDSEC
  0
SECTION
  2
ENTITIES
  0
ARC
  5
164
330
23
100
AcDbEntity
  8
sanindusa
  6
Continuous
100
AcDbCircle
 10
683.9286611374237
 20
1015.829133676432
 30
0.0
 40
0.5377999999999999
100
AcDbArc
 50
332.4226195157393
 51
346.7954789762377
  0
CIRCLE
  5
165
330
23
100
AcDbEntity
  8
sanindusa
  6
Continuous
100
AcDbCircle
 10
682.9417670313948
 20
1015.690469830873
 30
0.0
 40
0.0235
  0
CIRCLE
  5
168
330
23
100
AcDbEntity
  8
sanindusa
  6
Continuous
100
AcDbCircle
 10
682.9417670313948
 20
1015.690469830873
 30
0.0
 40
0.0376818707792678
  0
LWPOLYLINE
  5
16C
330
23
100
AcDbEntity
  8
sanindusa
  6
Continuous
100
AcDbPolyline
 90
       38
 70
   128
 43
0.0
 10
683.1110895050884
 20
1015.698106914181
 10
683.1116996057791
 20
1015.700021740537
 10
683.1124669626165
 20
1015.701717186004
 10
683.1133357014128
 20
1015.703057976552
 10
683.1143310437641
 20
1015.704074248876
 10
683.1153730353138
 20
1015.704681492262
 10
683.1164928134356
 20
1015.704896596184
 10
683.1175958649932
 20
1015.704701910657
 10
683.1187141459546
 20
1015.704092096474
 10
683.1197509560241
 20
1015.703119121476
 10
683.1207342296139
 20
1015.701754198843
 10
683.1215777548601
 20
1015.700111958402
 10
683.1223022952478
 20
1015.698144213819
 10
683.1228432347622
 20
1015.696016700883
 10
683.123213273939
 20
1015.693667136244
 10
683.1233790152703
 20
1015.691294909439
 10
683.1233444358513
 20
1015.688830066545
 10
683.1231127003317
 20
1015.686481008537
 10
683.1226785988427
 20
1015.684179407107
 10
683.1218849571056
 20
1015.681579869621
 10
683.121094092584
 20
1015.67982172875
 10
683.1201533327601
 20
1015.678320241305
 10
683.119144356784
 20
1015.677200094381
 10
683.1180423511142
 20
1015.676430125694
 10
683.1169419628253
 20
1015.67607442326
 10
683.1158131225667
 20
1015.676122513961
 10
683.1147506622628
 20
1015.676569964764
 10
683.1137224739683
 20
1015.677429501381
 10
683.1128119679607
 20
1015.678629636423
 10
683.1119897198071
 20
1015.680205171983
 10
683.1113208119814
 20
1015.682024626728
 10
683.1107819889023
 20
1015.684141119123
 10
683.1104155635398
 20
1015.686374008259
 10
683.1102074948205
 20
1015.688790714841
 10
683.1101737934011
 20
1015.691182564932
 10
683.1103126970003
 20
1015.693623141449
 10
683.1106142958439
 20
1015.695910845797
 10
683.1110895050884
 20
1015.698106914181
  0
CIRCLE
  5
16D
330
23
100
AcDbEntity
  8
sanindusa
  6
Continuous
100
AcDbCircle
 10
682.9417670313948
 20
1015.690469830873
 30
0.0
 40
0.1310223748467296
  0
CIRCLE
  5
170
330
23
100
AcDbEntity
  8
sanindusa
  6
Continuous
100
AcDbCircle
 10
682.9417670313948
 20
1015.690469830873
 30
0.0
 40
0.1899893879752682
  0
CIRCLE
  5
173
330
23
100
AcDbEntity
  8
sanindusa
  6
Continuous
100
AcDbCircle
 10
682.9417670313948
 20
1015.690469830873
 30
0.0
 40
0.2350658066272586
  0
LINE
  5
174
330
23
100
AcDbEntity
  8
sanindusa
  6
Continuous
100
AcDbLine
 10
684.2173350075306
 20
1015.57748062206
 30
0.0
 11
684.0337397660821
 21
1015.57748062206
 31
0.0
  0
LINE
  5
175
330
23
100
AcDbEntity
  8
sanindusa
  6
Continuous
100
AcDbLine
 10
684.4137950036167
 20
1015.719434632728
 30
0.0
 11
684.0208750114445
 21
1015.719434632728
 31
0.0
  0
LINE
  5
178
330
23
100
AcDbEntity
  8
sanindusa
  6
Continuous
100
AcDbLine
 10
683.9871565603828
 20
1015.713551763593
 30
0.0
 11
684.4475134546785
 21
1015.713551763593
 31
0.0
  0
LINE
  5
179
330
23
100
AcDbEntity
  8
sanindusa
  6
Continuous
100
AcDbLine
 10
684.4128453519225
 20
1015.71951026258
 30
0.0
 11
684.0218246631389
 21
1015.71951026258
 31
0.0
  0
ARC
  5
17A
330
23
100
AcDbEntity
  8
sanindusa
  6
Continuous
100
AcDbCircle
 10
684.5060088776375
 20
1015.829133676432
 30
0.0
 40
0.5378000000000001
100
AcDbArc
 50
193.2045210237624
 51
207.5773804842607
  0
ARC
  5
17B
330
23
100
AcDbEntity
  8
sanindusa
  6
Continuous
100
AcDbCircle
 10
684.0337397660821
 20
1015.58248062206
 30
0.0
 40
0.0050000000000001
100
AcDbArc
 50
207.6374934066167
 51
270.0
  0
ARC
  5
17C
330
23
100
AcDbEntity
  8
sanindusa
  6
Continuous
100
AcDbCircle
 10
684.2173350075306
 20
1014.493825555981
 30
0.0
 40
1.241255066079293
100
AcDbArc
 50
99.1068016023213
 51
100.6867914878213
  0
ARC
  5
17D
330
23
100
AcDbEntity
  8
sanindusa
  6
Continuous
100
AcDbCircle
 10
683.9882692009034
 20
1015.707655830158
 30
0.0
 40
0.0060000000000001
100
AcDbArc
 50
100.6867914878213
 51
193.2045210237624
  0
ARC
  5
17E
330
23
100
AcDbEntity
  8
sanindusa
  6
Continuous
100
AcDbCircle
 10
684.0218246631389
 20
1015.71351026258
 30
0.0
 40
0.006
100
AcDbArc
 50
90.0
 51
99.1068016023213
  0
LINE
  5
184
330
23
100
AcDbEntity
  8
sanindusa
  6
Continuous
100
AcDbLine
 10
684.3121718326239
 20
1015.569908788447
 30
0.0
 11
684.2469940042766
 21
1015.569908788447
 31
0.0
  0
LINE
  5
186
330
23
100
AcDbEntity
  8
sanindusa
  6
Continuous
100
AcDbLine
 10
684.4009302489792
 20
1015.57748062206
 30
0.0
 11
684.2173350075306
 21
1015.57748062206
 31
0.0
  0
LINE
  5
188
330
23
100
AcDbEntity
  8
sanindusa
  6
Continuous
100
AcDbLine
 10
684.248354722704
 20
1015.560480622061
 30
0.0
 11
684.2173350075306
 21
1015.560480622061
 31
0.0
  0
ARC
  5
18A
330
23
100
AcDbEntity
  8
sanindusa
  6
Continuous
100
AcDbCircle
 10
684.1863152923573
 20
1015.56348062206
 30
0.0
 40
0.003
100
AcDbArc
 50
182.2999999981999
 51
270.0
  0
LINE
  5
18B
330
23
100
AcDbEntity
  8
sanindusa
  6
Continuous
100
AcDbLine
 10
684.2173350075306
 20
1015.560480622061
 30
0.0
 11
684.1863152923573
 21
1015.560480622061
 31
0.0
  0
LINE
  5
18C
330
23
100
AcDbEntity
  8
sanindusa
  6
Continuous
100
AcDbLine
 10
684.1827505755085
 20
1015.57748062206
 30
0.0
 11
684.183317709172
 21
1015.563360226683
 31
0.0
  0
ARC
  5
18D
330
23
100
AcDbEntity
  8
sanindusa
  6
Continuous
100
AcDbCircle
 10
684.248354722704
 20
1015.56348062206
 30
0.0
 40
0.003
100
AcDbArc
 50
270.0
 51
357.7000000018001
  0
ARC
  5
195
330
23
100
AcDbEntity
  8
sanindusa
  6
Continuous
100
AcDbCircle
 10
684.253516525436
 20
1015.567908788447
 30
0.0
 40
0.0020000000000001
100
AcDbArc
 50
90.0
 51
177.7000000018001
  0
LINE
  5
196
330
23
100
AcDbEntity
  8
sanindusa
  6
Continuous
100
AcDbLine
 10
684.2513523058893
 20
1015.563360226683
 30
0.0
 11
684.2515181366457
 21
1015.567989052032
 31
0.0
  0
ARC
  5
197
330
23
100
AcDbEntity
  8
sanindusa
  6
Continuous
100
AcDbCircle
 10
684.3121718326239
 20
1015.619908788447
 30
0.0
 40
0.0500000000000275
100
AcDbArc
 50
270.0
 51
279.0519481075682
  0
ARC
  5
19A
330
23
100
AcDbEntity
  8
sanindusa
  6
Continuous
100
AcDbCircle
 10
684.2882397929789
 20
1015.7701281168
 30
0.0
 40
0.2021137374878769
100
AcDbArc
 50
279.0519481075682
 51
287.6050935486649
  0
ARC
  5
19D
330
23
100
AcDbEntity
  8
sanindusa
  6
Continuous
100
AcDbCircle
 10
684.4009302489792
 20
1015.58248062206
 30
0.0
 40
0.0050000000000001
100
AcDbArc
 50
270.0
 51
332.3625065933834
  0
ARC
  5
19E
330
23
100
AcDbEntity
  8
sanindusa
  6
Continuous
100
AcDbCircle
 10
684.2173350075306
 20
1014.493825555981
 30
0.0
 40
1.241255066079293
100
AcDbArc
 50
79.31320851217865
 51
80.8931983976787
  0
ARC
  5
1A0
330
23
100
AcDbEntity
  8
sanindusa
  6
Continuous
100
AcDbCircle
 10
684.446400814158
 20
1015.707655830158
 30
0.0
 40
0.0060000000000002
100
AcDbArc
 50
346.7954789762377
 51
79.31320851217865
  0
LINE
  5
1A1
330
23
100
AcDbEntity
  8
sanindusa
  6
Continuous
100
AcDbLine
 10
683.5756403427361
 20
1015.560480622061
 30
0.0
 11
683.5136009124815
 21
1015.560480622061
 31
0.0
  0
LINE
  5
1A3
330
23
100
AcDbEntity
  8
sanindusa
  6
Continuous
100
AcDbLine
 10
683.7282158690113
 20
1015.57748062206
 30
0.0
 11
683.3610253861142
 21
1015.57748062206
 31
0.0
  0
LINE
  5
1A4
330
23
100
AcDbEntity
  8
sanindusa
  6
Continuous
100
AcDbLine
 10
683.7410806236489
 20
1015.719434632728
 30
0.0
 11
683.3481606314767
 21
1015.719434632728
 31
0.0
  0
LINE
  5
1A7
330
23
100
AcDbEntity
  8
sanindusa
  6
Continuous
100
AcDbLine
 10
683.314442180415
 20
1015.713551763593
 30
0.0
 11
683.7747990747106
 21
1015.713551763593
 31
0.0
  0
LINE
  5
1A8
330
23
100
AcDbEntity
  8
sanindusa
  6
Continuous
100
AcDbLine
 10
683.7401309719547
 20
1015.71951026258
 30
0.0
 11
683.349110283171
 21
1015.71951026258
 31
0.0
  0
LINE
  5
1AB
330
23
100
AcDbEntity
  8
sanindusa
  6
Continuous
100
AcDbLine
 10
685.0287408067726
 20
1015.611729881582
 30
0.0
 11
684.7810589344704
 21
1015.611729881582
 31
0.0
  0
LINE
  5
1AC
330
23
100
AcDbEntity
  8
sanindusa
  6
Continuous
100
AcDbLine
 10
684.8672179998422
 20
1015.607239484507
 30
0.0
 11
684.9425817414007
 21
1015.607239484507
 31
0.0
  0
LINE
  5
1B0
330
23
100
AcDbEntity
  8
sanindusa
  6
Continuous
100
AcDbLine
 10
684.9293998706215
 20
1015.562182057254
 30
0.0
 11
684.8803998706215
 21
1015.562182057254
 31
0.0
  0
LINE
  5
1B2
330
23
100
AcDbEntity
  8
sanindusa
  6
Continuous
100
AcDbLine
 10
685.1004102150134
 20
1015.721211697774
 30
0.0
 11
684.7093895262297
 21
1015.721211697774
 31
0.0
  0
ARC
  5
1B3
330
23
100
AcDbEntity
  8
sanindusa
  6
Continuous
100
AcDbCircle
 10
685.1587953785381
 20
1015.906441768398
 30
0.0
 40
0.4924000000000003
100
AcDbArc
 50
203.4153771995054
 51
216.7222990511103
  0
ARC
  5
1B4
330
23
100
AcDbEntity
  8
sanindusa
  6
Continuous
100
AcDbCircle
 10
685.1935737407284
 20
1015.830835111626
 30
0.0
 40
0.5278
100
AcDbArc
 50
193.6591184629891
 51
204.1244984152839
  0
ARC
  5
1B5
330
23
100
AcDbEntity
  8
sanindusa
  6
Continuous
100
AcDbCircle
 10
685.1587953785381
 20
1015.906441768398
 30
0.0
 40
0.4824
100
AcDbArc
 50
203.0506033406147
 51
217.0678152875208
  0
ARC
  5
1B6
330
23
100
AcDbEntity
  8
sanindusa
  6
Continuous
100
AcDbCircle
 10
685.1935737407284
 20
1015.830835111626
 30
0.0
 40
0.5378000000000001
100
AcDbArc
 50
193.2045210237624
 51
207.6374934066167
  0
ARC
  5
1B8
330
23
100
AcDbEntity
  8
sanindusa
  6
Continuous
100
AcDbCircle
 10
684.9048998706215
 20
1014.495526991175
 30
0.0
 40
1.231255066079293
100
AcDbArc
 50
99.25185156255603
 51
100.4915003313089
  0
ARC
  5
1B9
330
23
100
AcDbEntity
  8
sanindusa
  6
Continuous
100
AcDbCircle
 10
684.9048998706215
 20
1014.495526991175
 30
0.0
 40
1.241255066079293
100
AcDbArc
 50
99.1068016023213
 51
100.6867914878213
  0
ARC
  5
1BA
330
23
100
AcDbEntity
  8
sanindusa
  6
Continuous
100
AcDbCircle
 10
684.6758340639943
 20
1015.709357265352
 30
0.0
 40
0.006
100
AcDbArc
 50
100.6867914878213
 51
193.2045210237624
  0
ARC
  5
1BB
330
23
100
AcDbEntity
  8
sanindusa
  6
Continuous
100
AcDbCircle
 10
684.7093895262297
 20
1015.715211697774
 30
0.0
 40
0.0060000000000001
100
AcDbArc
 50
23.05060334061475
 51
99.1068016023213
  0
LINE
  5
1BD
330
23
100
AcDbEntity
  8
sanindusa
  6
Continuous
100
AcDbLine
 10
684.870335520674
 20
1015.578682057254
 30
0.0
 11
684.7261313881688
 21
1015.578682057254
 31
0.0
  0
LINE
  5
1BF
330
23
100
AcDbEntity
  8
sanindusa
  6
Continuous
100
AcDbLine
 10
684.7397124663888
 20
1015.602017517595
 30
0.0
 11
684.7645520510361
 21
1015.602017517595
 31
0.0
  0
LINE
  5
1C0
330
23
100
AcDbEntity
  8
sanindusa
  6
Continuous
100
AcDbLine
 10
684.7587114575958
 20
1015.593682057255
 30
0.0
 11
684.7645520510361
 21
1015.593682057255
 31
0.0
  0
LINE
  5
1C1
330
23
100
AcDbEntity
  8
sanindusa
  6
Continuous
100
AcDbLine
 10
684.7587114575958
 20
1015.583682057255
 30
0.0
 11
684.7702047966341
 21
1015.583682057255
 31
0.0
  0
LINE
  5
1C5
330
23
100
AcDbEntity
  8
sanindusa
  6
Continuous
100
AcDbLine
 10
684.7566046500239
 20
1015.585682057254
 30
0.0
 11
684.7566046500239
 21
1015.591682057255
 31
0.0
  0
LINE
  5
1C6
330
23
100
AcDbEntity
  8
sanindusa
  6
Continuous
100
AcDbLine
 10
684.7481774197366
 20
1015.591682057255
 30
0.0
 11
684.7481774197366
 21
1015.585682057254
 31
0.0
  0
LINE
  5
1C8
330
23
100
AcDbEntity
  8
sanindusa
  6
Continuous
100
AcDbLine
 10
684.7312348072867
 20
1015.612017517595
 30
0.0
 11
684.7641156089284
 21
1015.612017517595
 31
0.0
  0
ARC
  5
1C9
330
23
100
AcDbEntity
  8
sanindusa
  6
Continuous
100
AcDbCircle
 10
684.720998651278
 20
1015.619199517193
 30
0.0
 40
0.01
100
AcDbArc
 50
204.1244984152839
 51
300.7843216178665
  0
ARC
  5
1CA
330
23
100
AcDbEntity
  8
sanindusa
  6
Continuous
100
AcDbCircle
 10
684.7312348072867
 20
1015.602017517595
 30
0.0
 40
0.010000000000002
100
AcDbArc
 50
90.0
 51
120.7843216178664
  0
LINE
  5
1D4
330
23
100
AcDbEntity
  8
sanindusa
  6
Continuous
100
AcDbLine
 10
684.7337421783138
 20
1015.593682057255
 30
0.0
 11
684.7460706121648
 21
1015.593682057255
 31
0.0
  0
LINE
  5
1D5
330
23
100
AcDbEntity
  8
sanindusa
  6
Continuous
100
AcDbLine
 10
684.7337421783138
 20
1015.593682057255
 30
0.0
 11
684.7348573919942
 21
1015.598212612831
 31
0.0
  0
ARC
  5
1D6
330
23
100
AcDbEntity
  8
sanindusa
  6
Continuous
100
AcDbCircle
 10
684.7397124663888
 20
1015.597017517595
 30
0.0
 40
0.005
100
AcDbArc
 50
90.0
 51
166.1713490248979
  0
ARC
  5
1D7
330
23
100
AcDbEntity
  8
sanindusa
  6
Continuous
100
AcDbCircle
 10
684.7586594074999
 20
1015.591627227486
 30
0.0
 40
0.0020554888928202
100
AcDbArc
 50
88.54897310509882
 51
178.4714648699483
  0
ARC
  5
1D8
330
23
100
AcDbEntity
  8
sanindusa
  6
Continuous
100
AcDbCircle
 10
684.7461226622606
 20
1015.591627227486
 30
0.0
 40
0.0020554888928424
100
AcDbArc
 50
1.528535130051687
 51
91.45102689490121
  0
ARC
  5
1DA
330
23
100
AcDbEntity
  8
sanindusa
  6
Continuous
100
AcDbCircle
 10
684.7261313881688
 20
1015.583682057255
 30
0.0
 40
0.0050000000000003
100
AcDbArc
 50
270.0
 51
343.3984504001383
  0
ARC
  5
1DB
330
23
100
AcDbEntity
  8
sanindusa
  6
Continuous
100
AcDbCircle
 10
684.7328395921014
 20
1015.581682057255
 30
0.0
 40
0.002
100
AcDbArc
 50
90.0
 51
163.3984504001383
  0
ARC
  5
1DC
330
23
100
AcDbEntity
  8
sanindusa
  6
Continuous
100
AcDbCircle
 10
684.7215661054988
 20
1015.583682057255
 30
0.0
 40
0.005
100
AcDbArc
 50
207.6374934066167
 51
270.0
  0
LINE
  5
1DD
330
23
100
AcDbEntity
  8
sanindusa
  6
Continuous
100
AcDbLine
 10
684.7261313881688
 20
1015.578682057254
 30
0.0
 11
684.7215661054988
 21
1015.578682057254
 31
0.0
  0
ARC
  5
1EA
330
23
100
AcDbEntity
  8
sanindusa
  6
Continuous
100
AcDbCircle
 10
684.75866582303
 20
1015.585743645166
 30
0.0
 40
0.0020620929250235
100
AcDbArc
 50
181.7114903991449
 51
271.2680716102883
  0
LINE
  5
1EB
330
23
100
AcDbEntity
  8
sanindusa
  6
Continuous
100
AcDbLine
 10
684.7328395921014
 20
1015.583682057255
 30
0.0
 11
684.7460706121648
 21
1015.583682057255
 31
0.0
  0
ARC
  5
1EC
330
23
100
AcDbEntity
  8
sanindusa
  6
Continuous
100
AcDbCircle
 10
684.7461226622607
 20
1015.585736887023
 30
0.0
 40
0.0020554888927356
100
AcDbArc
 50
268.5489731181221
 51
358.4714648699483
  0
ARC
  5
1F0
330
23
100
AcDbEntity
  8
sanindusa
  6
Continuous
100
AcDbCircle
 10
684.9048998706215
 20
1017.159086405081
 30
0.0
 40
1.56230434782609
100
AcDbArc
 50
265.3814128357997
 51
268.5333543847679
  0
ARC
  5
1F1
330
23
100
AcDbEntity
  8
sanindusa
  6
Continuous
100
AcDbCircle
 10
684.9048998706215
 20
1017.159086405081
 30
0.0
 40
1.55230434782609
100
AcDbArc
 50
265.4241502848322
 51
268.6090200324979
  0
ARC
  5
1F3
330
23
100
AcDbEntity
  8
sanindusa
  6
Continuous
100
AcDbCircle
 10
684.7705123256338
 20
1015.589029733894
 30
0.0
 40
0.0053565118808077
100
AcDbArc
 50
266.708714862476
 51
356.2784703142388
  0
ARC
  5
1F5
330
23
100
AcDbEntity
  8
sanindusa
  6
Continuous
100
AcDbCircle
 10
684.7818567222002
 20
1015.621698007521
 30
0.0
 40
0.0100000000000001
100
AcDbArc
 50
217.0678152875208
 51
265.4241502848322
  0
LINE
  5
1FE
330
23
100
AcDbEntity
  8
sanindusa
  6
Continuous
100
AcDbLine
 10
684.7645520510361
 20
1015.602017517595
 30
0.0
 11
684.7645520510361
 21
1015.593682057255
 31
0.0
  0
LINE
  5
1FF
330
23
100
AcDbEntity
  8
sanindusa
  6
Continuous
100
AcDbLine
 10
684.7758575422322
 20
1015.588682057255
 30
0.0
 11
684.7758575422322
 21
1015.599949749731
 31
0.0
  0
ARC
  5
200
330
23
100
AcDbEntity
  8
sanindusa
  6
Continuous
100
AcDbCircle
 10
684.7779278212835
 20
1015.599869463758
 30
0.0
 40
0.0020718352222644
100
AcDbArc
 50
81.17926590504747
 51
177.779167295524
  0
LINE
  5
205
330
23
100
AcDbEntity
  8
sanindusa
  6
Continuous
100
AcDbLine
 10
684.8708825722629
 20
1015.565061661877
 30
0.0
 11
684.869780688431
 21
1015.592496174001
 31
0.0
  0
LINE
  5
206
330
23
100
AcDbEntity
  8
sanindusa
  6
Continuous
100
AcDbLine
 10
684.8813998706215
 20
1015.594888880346
 30
0.0
 11
684.8813998706215
 21
1015.563182057255
 31
0.0
  0
ARC
  5
207
330
23
100
AcDbEntity
  8
sanindusa
  6
Continuous
100
AcDbCircle
 10
684.8647847164555
 20
1015.592295515038
 30
0.0
 40
0.0050000000000001
100
AcDbArc
 50
2.299999998199891
 51
88.5333543847679
  0
ARC
  5
208
330
23
100
AcDbEntity
  8
sanindusa
  6
Continuous
100
AcDbCircle
 10
684.8763998706215
 20
1015.594888880346
 30
0.0
 40
0.0050000000000001
100
AcDbArc
 50
0.0
 51
45.0
  0
LINE
  5
209
330
23
100
AcDbEntity
  8
sanindusa
  6
Continuous
100
AcDbLine
 10
684.8799354045275
 20
1015.598424414252
 30
0.0
 11
684.8740463196979
 21
1015.604313499081
 31
0.0
  0
ARC
  5
20A
330
23
100
AcDbEntity
  8
sanindusa
  6
Continuous
100
AcDbCircle
 10
684.866975251886
 20
1015.59724243127
 30
0.0
 40
0.0100000000000002
100
AcDbArc
 50
45.0
 51
88.60902003249789
  0
ARC
  5
20B
330
23
100
AcDbEntity
  8
sanindusa
  6
Continuous
100
AcDbCircle
 10
684.8738801554482
 20
1015.565182057255
 30
0.0
 40
0.0029999999999999
100
AcDbArc
 50
182.2999999981999
 51
270.0
  0
ARC
  5
20C
330
23
100
AcDbEntity
  8
sanindusa
  6
Continuous
100
AcDbCircle
 10
684.8803998706215
 20
1015.563182057255
 30
0.0
 40
0.0010000000000001
100
AcDbArc
 50
270.0
 51
0.0
  0
LINE
  5
20D
330
23
100
AcDbEntity
  8
sanindusa
  6
Continuous
100
AcDbLine
 10
684.8803998706215
 20
1015.562182057254
 30
0.0
 11
684.8738801554482
 21
1015.562182057254
 31
0.0
  0
ARC
  5
20E
330
23
100
AcDbEntity
  8
sanindusa
  6
Continuous
100
AcDbCircle
 10
684.6510043627049
 20
1015.906441768398
 30
0.0
 40
0.4924000000000003
100
AcDbArc
 50
323.2777009488898
 51
336.5846228004946
  0
ARC
  5
20F
330
23
100
AcDbEntity
  8
sanindusa
  6
Continuous
100
AcDbCircle
 10
684.6162260005146
 20
1015.830835111626
 30
0.0
 40
0.5278
100
AcDbArc
 50
335.8755015847161
 51
346.3408815370109
  0
ARC
  5
210
330
23
100
AcDbEntity
  8
sanindusa
  6
Continuous
100
AcDbCircle
 10
684.6162260005146
 20
1015.830835111626
 30
0.0
 40
0.5378000000000001
100
AcDbArc
 50
332.3625065933834
 51
346.7954789762377
  0
ARC
  5
211
330
23
100
AcDbEntity
  8
sanindusa
  6
Continuous
100
AcDbCircle
 10
684.6510043627049
 20
1015.906441768398
 30
0.0
 40
0.4824
100
AcDbArc
 50
322.9321847124792
 51
336.9493966593852
  0
ARC
  5
213
330
23
100
AcDbEntity
  8
sanindusa
  6
Continuous
100
AcDbCircle
 10
684.9048998706215
 20
1014.495526991175
 30
0.0
 40
1.231255066079294
100
AcDbArc
 50
79.5084996686911
 51
80.74814843744396
  0
ARC
  5
214
330
23
100
AcDbEntity
  8
sanindusa
  6
Continuous
100
AcDbCircle
 10
684.9048998706215
 20
1014.495526991175
 30
0.0
 40
1.241255066079293
100
AcDbArc
 50
79.31320851217865
 51
80.8931983976787
  0
ARC
  5
215
330
23
100
AcDbEntity
  8
sanindusa
  6
Continuous
100
AcDbCircle
 10
685.1004102150134
 20
1015.715211697774
 30
0.0
 40
0.0060000000000001
100
AcDbArc
 50
80.8931983976787
 51
156.9493966593852
  0
ARC
  5
216
330
23
100
AcDbEntity
  8
sanindusa
  6
Continuous
100
AcDbCircle
 10
685.1339656772488
 20
1015.709357265352
 30
0.0
 40
0.0060000000000001
100
AcDbArc
 50
346.7954789762377
 51
79.31320851217865
  0
LINE
  5
21A
330
23
100
AcDbEntity
  8
sanindusa
  6
Continuous
100
AcDbLine
 10
685.0836683530742
 20
1015.578682057254
 30
0.0
 11
684.9394642205692
 21
1015.578682057254
 31
0.0
  0
ARC
  5
21C
330
23
100
AcDbEntity
  8
sanindusa
  6
Continuous
100
AcDbCircle
 10
684.9048998706215
 20
1017.159086405081
 30
0.0
 40
1.55230434782609
100
AcDbArc
 50
271.3909799675021
 51
274.5758497151678
  0
ARC
  5
21D
330
23
100
AcDbEntity
  8
sanindusa
  6
Continuous
100
AcDbCircle
 10
684.9048998706215
 20
1017.159086405081
 30
0.0
 40
1.56230434782609
100
AcDbArc
 50
271.4666456152321
 51
274.6185871642004
  0
LINE
  5
21F
330
23
100
AcDbEntity
  8
sanindusa
  6
Continuous
100
AcDbLine
 10
684.9283998706215
 20
1015.563182057255
 30
0.0
 11
684.9283998706215
 21
1015.594888880346
 31
0.0
  0
LINE
  5
220
330
23
100
AcDbEntity
  8
sanindusa
  6
Continuous
100
AcDbLine
 10
684.9400190528119
 20
1015.592496174001
 30
0.0
 11
684.9389171689802
 21
1015.565061661877
 31
0.0
  0
ARC
  5
221
330
23
100
AcDbEntity
  8
sanindusa
  6
Continuous
100
AcDbCircle
 10
684.9333998706215
 20
1015.594888880346
 30
0.0
 40
0.005
100
AcDbArc
 50
135.0
 51
180.0
  0
ARC
  5
222
330
23
100
AcDbEntity
  8
sanindusa
  6
Continuous
100
AcDbCircle
 10
684.9428244893569
 20
1015.59724243127
 30
0.0
 40
0.0100000000000002
100
AcDbArc
 50
91.39097996750212
 51
135.0
  0
LINE
  5
223
330
23
100
AcDbEntity
  8
sanindusa
  6
Continuous
100
AcDbLine
 10
684.935753421545
 20
1015.604313499081
 30
0.0
 11
684.9298643367156
 21
1015.598424414252
 31
0.0
  0
ARC
  5
224
330
23
100
AcDbEntity
  8
sanindusa
  6
Continuous
100
AcDbCircle
 10
684.9450150247876
 20
1015.592295515038
 30
0.0
 40
0.0050000000000001
100
AcDbArc
 50
91.46664561523211
 51
177.7000000018001
  0
ARC
  5
225
330
23
100
AcDbEntity
  8
sanindusa
  6
Continuous
100
AcDbCircle
 10
684.9293998706215
 20
1015.563182057255
 30
0.0
 40
0.001
100
AcDbArc
 50
180.0
 51
270.0
  0
ARC
  5
226
330
23
100
AcDbEntity
  8
sanindusa
  6
Continuous
100
AcDbCircle
 10
684.9359195857949
 20
1015.565182057255
 30
0.0
 40
0.003
100
AcDbArc
 50
270.0
 51
357.7000000018001
  0
LINE
  5
227
330
23
100
AcDbEntity
  8
sanindusa
  6
Continuous
100
AcDbLine
 10
684.9359195857949
 20
1015.562182057254
 30
0.0
 11
684.9293998706215
 21
1015.562182057254
 31
0.0
  0
ARC
  5
230
330
23
100
AcDbEntity
  8
sanindusa
  6
Continuous
100
AcDbCircle
 10
685.088801089965
 20
1015.619199517193
 30
0.0
 40
0.0100000000000001
100
AcDbArc
 50
239.2156783821335
 51
335.8755015847161
  0
ARC
  5
231
330
23
100
AcDbEntity
  8
sanindusa
  6
Continuous
100
AcDbCircle
 10
685.0882336357442
 20
1015.583682057255
 30
0.0
 40
0.0050000000000001
100
AcDbArc
 50
270.0
 51
332.3625065933834
  0
LINE
  5
235
330
23
100
AcDbEntity
  8
sanindusa
  6
Continuous
100
AcDbLine
 10
685.0616223215064
 20
1015.585682057254
 30
0.0
 11
685.0616223215064
 21
1015.591682057255
 31
0.0
  0
ARC
  5
236
330
23
100
AcDbEntity
  8
sanindusa
  6
Continuous
100
AcDbCircle
 10
685.03932532066
 20
1015.589072587416
 30
0.0
 40
0.0053972689850047
100
AcDbArc
 50
184.1493764798235
 51
272.8634383371606
  0
LINE
  5
237
330
23
100
AcDbEntity
  8
sanindusa
  6
Continuous
100
AcDbLine
 10
685.053195091219
 20
1015.591682057255
 30
0.0
 11
685.053195091219
 21
1015.585682057254
 31
0.0
  0
LINE
  5
23C
330
23
100
AcDbEntity
  8
sanindusa
  6
Continuous
100
AcDbLine
 10
685.0456841323148
 20
1015.612017517595
 30
0.0
 11
685.0785649339562
 21
1015.612017517595
 31
0.0
  0
LINE
  5
23D
330
23
100
AcDbEntity
  8
sanindusa
  6
Continuous
100
AcDbLine
 10
685.045247690207
 20
1015.602017517595
 30
0.0
 11
685.0700872748542
 21
1015.602017517595
 31
0.0
  0
ARC
  5
23E
330
23
100
AcDbEntity
  8
sanindusa
  6
Continuous
100
AcDbCircle
 10
685.0279430190428
 20
1015.621698007521
 30
0.0
 40
0.0100000000000001
100
AcDbArc
 50
274.5758497151678
 51
322.9321847124792
  0
ARC
  5
247
330
23
100
AcDbEntity
  8
sanindusa
  6
Continuous
100
AcDbCircle
 10
685.0347262966513
 20
1015.552017517595
 30
0.0
 40
0.0500000000000002
100
AcDbArc
 50
93.63737758609929
 51
94.61858716420032
  0
ARC
  5
248
330
23
100
AcDbEntity
  8
sanindusa
  6
Continuous
100
AcDbCircle
 10
685.0318049659234
 20
1015.599788181964
 30
0.0
 40
0.0021433313820187
100
AcDbArc
 50
4.323148921720653
 51
96.71841788251237
  0
LINE
  5
249
330
23
100
AcDbEntity
  8
sanindusa
  6
Continuous
100
AcDbLine
 10
685.0339421990108
 20
1015.599949749731
 30
0.0
 11
685.0339421990108
 21
1015.588682057255
 31
0.0
  0
ARC
  5
24A
330
23
100
AcDbEntity
  8
sanindusa
  6
Continuous
100
AcDbCircle
 10
685.051133918213
 20
1015.591620469343
 30
0.0
 40
0.0020620929250813
100
AcDbArc
 50
1.711490399144884
 51
91.2680716298248
  0
LINE
  5
24B
330
23
100
AcDbEntity
  8
sanindusa
  6
Continuous
100
AcDbLine
 10
685.0510882836472
 20
1015.593682057255
 30
0.0
 11
685.045247690207
 21
1015.593682057255
 31
0.0
  0
LINE
  5
24C
330
23
100
AcDbEntity
  8
sanindusa
  6
Continuous
100
AcDbLine
 10
685.045247690207
 20
1015.593682057255
 30
0.0
 11
685.045247690207
 21
1015.602017517595
 31
0.0
  0
LINE
  5
24D
330
23
100
AcDbEntity
  8
sanindusa
  6
Continuous
100
AcDbLine
 10
685.0516057454674
 20
1015.593620792588
 30
0.0
 11
685.0531546914489
 21
1015.592071846606
 31
0.0
  0
ARC
  5
24E
330
23
100
AcDbEntity
  8
sanindusa
  6
Continuous
100
AcDbCircle
 10
685.0785649339562
 20
1015.602017517595
 30
0.0
 40
0.010000000000002
100
AcDbArc
 50
59.21567838213358
 51
90.0
  0
LINE
  5
250
330
23
100
AcDbEntity
  8
sanindusa
  6
Continuous
100
AcDbLine
 10
685.0760575629292
 20
1015.593682057255
 30
0.0
 11
685.0637291290783
 21
1015.593682057255
 31
0.0
  0
ARC
  5
251
330
23
100
AcDbEntity
  8
sanindusa
  6
Continuous
100
AcDbCircle
 10
685.0636770789825
 20
1015.591627227486
 30
0.0
 40
0.0020554888929742
100
AcDbArc
 50
88.5489731116105
 51
178.4714648699483
  0
ARC
  5
252
330
23
100
AcDbEntity
  8
sanindusa
  6
Continuous
100
AcDbCircle
 10
685.0700872748542
 20
1015.597017517595
 30
0.0
 40
0.005
100
AcDbArc
 50
13.82865097510207
 51
90.0
  0
LINE
  5
253
330
23
100
AcDbEntity
  8
sanindusa
  6
Continuous
100
AcDbLine
 10
685.0749423492488
 20
1015.598212612831
 30
0.0
 11
685.0760575629292
 21
1015.593682057255
 31
0.0
  0
LINE
  5
25F
330
23
100
AcDbEntity
  8
sanindusa
  6
Continuous
100
AcDbLine
 10
685.0510882836472
 20
1015.583682057255
 30
0.0
 11
685.039594944609
 21
1015.583682057255
 31
0.0
  0
ARC
  5
260
330
23
100
AcDbEntity
  8
sanindusa
  6
Continuous
100
AcDbCircle
 10
685.0511403337433
 20
1015.585736887023
 30
0.0
 40
0.0020554888926421
100
AcDbArc
 50
268.5489731181221
 51
358.4714648764598
  0
ARC
  5
267
330
23
100
AcDbEntity
  8
sanindusa
  6
Continuous
100
AcDbCircle
 10
685.0636834945123
 20
1015.585743645166
 30
0.0
 40
0.0020620929249498
100
AcDbArc
 50
181.711490392634
 51
271.2680716102883
  0
LINE
  5
268
330
23
100
AcDbEntity
  8
sanindusa
  6
Continuous
100
AcDbLine
 10
685.0769601491416
 20
1015.583682057255
 30
0.0
 11
685.0637291290783
 21
1015.583682057255
 31
0.0
  0
ARC
  5
269
330
23
100
AcDbEntity
  8
sanindusa
  6
Continuous
100
AcDbCircle
 10
685.0769601491416
 20
1015.581682057255
 30
0.0
 40
0.0020000000000005
100
AcDbArc
 50
16.60154959986164
 51
90.0
  0
ARC
  5
26A
330
23
100
AcDbEntity
  8
sanindusa
  6
Continuous
100
AcDbCircle
 10
685.0836683530742
 20
1015.583682057255
 30
0.0
 40
0.0050000000000002
100
AcDbArc
 50
196.6015495998616
 51
270.0
  0
LINE
  5
26B
330
23
100
AcDbEntity
  8
sanindusa
  6
Continuous
100
AcDbLine
 10
685.0882336357442
 20
1015.578682057254
 30
0.0
 11
685.0836683530742
 21
1015.578682057254
 31
0.0
  0
ARC
  5
26E
330
23
100
AcDbEntity
  8
sanindusa
  6
Continuous
100
AcDbCircle
 10
683.5446206275628
 20
1014.493825555981
 30
0.0
 40
1.241255066079293
100
AcDbArc
 50
99.1068016023213
 51
100.6867914878213
  0
ARC
  5
26F
330
23
100
AcDbEntity
  8
sanindusa
  6
Continuous
100
AcDbCircle
 10
683.8332944976697
 20
1015.829133676432
 30
0.0
 40
0.5378000000000003
100
AcDbArc
 50
193.2045210237624
 51
207.5773804842607
  0
ARC
  5
270
330
23
100
AcDbEntity
  8
sanindusa
  6
Continuous
100
AcDbCircle
 10
683.3155548209356
 20
1015.707655830158
 30
0.0
 40
0.006
100
AcDbArc
 50
100.6867914878213
 51
193.2045210237624
  0
ARC
  5
271
330
23
100
AcDbEntity
  8
sanindusa
  6
Continuous
100
AcDbCircle
 10
683.3610253861142
 20
1015.58248062206
 30
0.0
 40
0.0050000000000001
100
AcDbArc
 50
207.6374934066167
 51
270.0
  0
ARC
  5
272
330
23
100
AcDbEntity
  8
sanindusa
  6
Continuous
100
AcDbCircle
 10
683.5136009123894
 20
1015.56348062206
 30
0.0
 40
0.003
100
AcDbArc
 50
182.2999999981999
 51
270.0
  0
LINE
  5
273
330
23
100
AcDbEntity
  8
sanindusa
  6
Continuous
100
AcDbLine
 10
683.5100361955408
 20
1015.57748062206
 30
0.0
 11
683.5106033292041
 21
1015.563360226683
 31
0.0
  0
ARC
  5
274
330
23
100
AcDbEntity
  8
sanindusa
  6
Continuous
100
AcDbCircle
 10
683.349110283171
 20
1015.71351026258
 30
0.0
 40
0.006
100
AcDbArc
 50
90.0
 51
99.1068016023213
  0
ARC
  5
276
330
23
100
AcDbEntity
  8
sanindusa
  6
Continuous
100
AcDbCircle
 10
683.5756403427361
 20
1015.56348062206
 30
0.0
 40
0.003
100
AcDbArc
 50
270.0
 51
357.7000000018001
  0
LINE
  5
277
330
23
100
AcDbEntity
  8
sanindusa
  6
Continuous
100
AcDbLine
 10
683.5786379259216
 20
1015.563360226683
 30
0.0
 11
683.5792050595849
 21
1015.57748062206
 31
0.0
  0
ARC
  5
278
330
23
100
AcDbEntity
  8
sanindusa
  6
Continuous
100
AcDbCircle
 10
683.2559467574559
 20
1015.829133676432
 30
0.0
 40
0.5378000000000001
100
AcDbArc
 50
332.4226195157393
 51
346.7954789762377
  0
ARC
  5
279
330
23
100
AcDbEntity
  8
sanindusa
  6
Continuous
100
AcDbCircle
 10
683.7282158690113
 20
1015.58248062206
 30
0.0
 40
0.0050000000000001
100
AcDbArc
 50
270.0
 51
332.3625065933834
  0
ARC
  5
27A
330
23
100
AcDbEntity
  8
sanindusa
  6
Continuous
100
AcDbCircle
 10
683.5446206275628
 20
1014.493825555981
 30
0.0
 40
1.241255066079293
100
AcDbArc
 50
79.31320851217865
 51
80.8931983976787
  0
ARC
  5
27B
330
23
100
AcDbEntity
  8
sanindusa
  6
Continuous
100
AcDbCircle
 10
683.7401309719547
 20
1015.71351026258
 30
0.0
 40
0.006
100
AcDbArc
 50
80.8931983976787
 51
90.0
  0
ARC
  5
27C
330
23
100
AcDbEntity
  8
sanindusa
  6
Continuous
100
AcDbCircle
 10
683.7736864341901
 20
1015.707655830158
 30
0.0
 40
0.006
100
AcDbArc
 50
346.7954789762377
 51
79.31320851217865
  0
ENDSEC
  0
SECTION
  2
OBJECTS
  0
DICTIONARY
  5
C
330
0
100
AcDbDictionary
281
     1
  3
ACAD_COLOR
350
1C
  3
ACAD_GROUP
350
D
  3
ACAD_LAYOUT
350
1A
  3
ACAD_MATERIAL
350
1B
  3
ACAD_MLEADERSTYLE
350
2D4
  3
ACAD_MLINESTYLE
350
17
  3
ACAD_PLOTSETTINGS
350
19
  3
ACAD_PLOTSTYLENAME
350
E
  3
ACAD_SCALELIST
350
2C2
  3
ACAD_TABLESTYLE
350
1D
  3
ACAD_VISUALSTYLE
350
2AE
  3
ACDB_RECOMPOSE_DATA
350
2F2
  3
AcDbVariableDictionary
350
290
  3
ASE_INDEX_DICTIONARY
350
286
  3
DWGPROPS
350
2F3
  0
DICTIONARY
  5
2D9
330
10
100
AcDbDictionary
280
     1
281
     1
  3
ADSK_XREC_LAYER_RECONCILED
360
2DA
  0
DICTIONARY
  5
2DB
330
35
100
AcDbDictionary
280
     1
281
     1
  3
ADSK_XREC_LAYER_RECONCILED
360
2DC
  0
DICTIONARY
  5
2DD
330
36
100
AcDbDictionary
280
     1
281
     1
  3
ADSK_XREC_LAYER_RECONCILED
360
2DE
  0
DICTIONARY
  5
2DF
330
37
100
AcDbDictionary
280
     1
281
     1
  3
ADSK_XREC_LAYER_RECONCILED
360
2E0
  0
DICTIONARY
  5
2E1
330
38
100
AcDbDictionary
280
     1
281
     1
  3
ADSK_XREC_LAYER_RECONCILED
360
2E2
  0
DICTIONARY
  5
2E3
330
39
100
AcDbDictionary
280
     1
281
     1
  3
ADSK_XREC_LAYER_RECONCILED
360
2E4
  0
DICTIONARY
  5
2E5
330
3A
100
AcDbDictionary
280
     1
281
     1
  3
ADSK_XREC_LAYER_RECONCILED
360
2E6
  0
DICTIONARY
  5
2E7
330
3B
100
AcDbDictionary
280
     1
281
     1
  3
ADSK_XREC_LAYER_RECONCILED
360
2E8
  0
DICTIONARY
  5
2E9
330
284
100
AcDbDictionary
280
     1
281
     1
  3
ADSK_XREC_LAYER_RECONCILED
360
2EA
  0
DICTIONARY
  5
1C
102
{ACAD_REACTORS
330
C
102
}
330
C
100
AcDbDictionary
281
     1
  0
DICTIONARY
  5
D
102
{ACAD_REACTORS
330
C
102
}
330
C
100
AcDbDictionary
281
     1
  0
DICTIONARY
  5
1A
102
{ACAD_REACTORS
330
C
102
}
330
C
100
AcDbDictionary
281
     1
  3
Layout1
350
22
  3
Layout2
350
2A
  3
Model
350
26
  0
DICTIONARY
  5
1B
102
{ACAD_REACTORS
330
C
102
}
330
C
100
AcDbDictionary
281
     1
  3
ByBlock
350
29E
  3
ByLayer
350
296
  3
Global
350
2A6
  0
DICTIONARY
  5
2D4
102
{ACAD_REACTORS
330
C
102
}
330
C
100
AcDbDictionary
281
     1
  3
Standard
350
2D5
  0
DICTIONARY
  5
17
102
{ACAD_REACTORS
330
C
102
}
330
C
100
AcDbDictionary
281
     1
  3
Standard
350
18
  0
DICTIONARY
  5
19
102
{ACAD_REACTORS
330
C
102
}
330
C
100
AcDbDictionary
281
     1
  0
ACDBDICTIONARYWDFLT
  5
E
102
{ACAD_REACTORS
330
C
102
}
330
C
100
AcDbDictionary
281
     1
  3
Normal
350
F
100
AcDbDictionaryWithDefault
340
F
  0
DICTIONARY
  5
2C2
102
{ACAD_REACTORS
330
C
102
}
330
C
100
AcDbDictionary
281
     1
  3
A0
350
2C3
  3
A1
350
2C4
  3
A2
350
2C5
  3
A3
350
2C6
  3
A4
350
2C7
  3
A5
350
2C8
  3
A6
350
2C9
  3
A7
350
2CA
  3
A8
350
2CB
  3
A9
350
2CC
  3
B0
350
2CD
  3
B1
350
2CE
  3
B2
350
2CF
  3
B3
350
2D0
  3
B4
350
2D1
  3
B5
350
2D2
  3
B6
350
2D3
  0
DICTIONARY
  5
1D
102
{ACAD_REACTORS
330
C
102
}
330
C
100
AcDbDictionary
281
     1
  3
Standard
350
1E
  0
DICTIONARY
  5
2AE
102
{ACAD_REACTORS
330
C
102
}
330
C
100
AcDbDictionary
281
     1
  3
2dWireframe
350
2B4
  3
3D Hidden
350
2B6
  3
3dWireframe
350
2B5
  3
Basic
350
2B3
  3
Brighten
350
2BA
  3
ColorChange
350
2BE
  3
Conceptual
350
2B7
  3
Dim
350
2B9
  3
EdgeColorOff
350
2C1
  3
Facepattern
350
2BD
  3
Flat
350
2AF
  3
FlatWithEdges
350
2B0
  3
Gouraud
350
2B1
  3
GouraudWithEdges
350
2B2
  3
JitterOff
350
2BF
  3
Linepattern
350
2BC
  3
OverhangOff
350
2C0
  3
Realistic
350
2B8
  3
Thicken
350
2BB
  0
XRECORD
  5
2F2
102
{ACAD_REACTORS
330
C
102
}
330
C
100
AcDbXrecord
280
     1
 90
        1
330
1E
  0
DICTIONARY
  5
290
102
{ACAD_REACTORS
330
C
102
}
330
C
100
AcDbDictionary
281
     1
  3
CANNOSCALE
350
2EC
  3
CMLEADERSTYLE
350
2EB
  3
CTABLESTYLE
350
291
  3
DIMASSOC
350
293
  3
HIDETEXT
350
292
  3
INDEXCTL
350
2EE
  3
PROJECTNAME
350
294
  3
SORTENTS
350
2ED
  3
XCLIPFRAME
350
2EF
  0
DICTIONARY
  5
286
102
{ACAD_REACTORS
330
C
102
}
330
C
100
AcDbDictionary
281
     1
  3
ASEBlockHierarchyIndexRecord
350
287
1001
DCO15
1040
1554701085.281
  0
XRECORD
  5
2F3
102
{ACAD_REACTORS
330
C
102
}
330
C
100
AcDbXrecord
280
     1
  1
DWGPROPS COOKIE
  2

  3

  4

  6

  7

  8
Julio
  9

300
=
301
=
302
=
303
=
304
=
305
=
306
=
307
=
308
=
309
=
 40
0.0014389814814815
 41
2453797.47774088
 42
2456147.429274803
  1

 90
        0
  0
XRECORD
  5
2DA
102
{ACAD_REACTORS
330
2D9
102
}
330
2D9
100
AcDbXrecord
280
     1
290
     1
  0
XRECORD
  5
2DC
102
{ACAD_REACTORS
330
2DB
102
}
330
2DB
100
AcDbXrecord
280
     1
290
     1
  0
XRECORD
  5
2DE
102
{ACAD_REACTORS
330
2DD
102
}
330
2DD
100
AcDbXrecord
280
     1
290
     1
  0
XRECORD
  5
2E0
102
{ACAD_REACTORS
330
2DF
102
}
330
2DF
100
AcDbXrecord
280
     1
290
     1
  0
XRECORD
  5
2E2
102
{ACAD_REACTORS
330
2E1
102
}
330
2E1
100
AcDbXrecord
280
     1
290
     1
  0
XRECORD
  5
2E4
102
{ACAD_REACTORS
330
2E3
102
}
330
2E3
100
AcDbXrecord
280
     1
290
     1
  0
XRECORD
  5
2E6
102
{ACAD_REACTORS
330
2E5
102
}
330
2E5
100
AcDbXrecord
280
     1
290
     1
  0
XRECORD
  5
2E8
102
{ACAD_REACTORS
330
2E7
102
}
330
2E7
100
AcDbXrecord
280
     1
290
     1
  0
XRECORD
  5
2EA
102
{ACAD_REACTORS
330
2E9
102
}
330
2E9
100
AcDbXrecord
280
     1
290
     1
  0
LAYOUT
  5
22
102
{ACAD_XDICTIONARY
360
2F5
102
}
102
{ACAD_REACTORS
330
1A
102
}
330
1A
100
AcDbPlotSettings
  1

  2
HP DesignJet 500PS42+HPGL2 Card
  4

  6

 40
0.0
 41
0.0
 42
0.0
 43
0.0
 44
0.0
 45
0.0
 46
0.0
 47
0.0
 48
0.0
 49
0.0
140
0.0
141
0.0
142
1.0
143
1.0
 70
   688
 72
     0
 73
     0
 74
     5
  7
C:\Documents and Settings\Julio\Application Data\Autodesk\AutoCAD 2006\R16.2\enu\Plot Styles\sanindusa.ctb
 75
    16
147
1.0
148
0.0
149
0.0
100
AcDbLayout
  1
Layout1
 70
     1
 71
     1
 10
0.0
 20
0.0
 11
420.0
 21
297.0
 12
0.0
 22
0.0
 32
0.0
 14
1.000000000000000E+20
 24
1.000000000000000E+20
 34
1.000000000000000E+20
 15
-1.000000000000000E+20
 25
-1.000000000000000E+20
 35
-1.000000000000000E+20
146
0.0
 13
0.0
 23
0.0
 33
0.0
 16
1.0
 26
0.0
 36
0.0
 17
0.0
 27
1.0
 37
0.0
 76
     0
330
1F
  0
LAYOUT
  5
2A
102
{ACAD_XDICTIONARY
360
2F9
102
}
102
{ACAD_REACTORS
330
1A
102
}
330
1A
100
AcDbPlotSettings
  1

  2
HP DesignJet 500PS42+HPGL2 Card
  4

  6

 40
0.0
 41
0.0
 42
0.0
 43
0.0
 44
0.0
 45
0.0
 46
0.0
 47
0.0
 48
0.0
 49
0.0
140
0.0
141
0.0
142
1.0
143
1.0
 70
   688
 72
     0
 73
     0
 74
     5
  7
C:\Documents and Settings\Julio\Application Data\Autodesk\AutoCAD 2006\R16.2\enu\Plot Styles\sanindusa.ctb
 75
    16
147
1.0
148
0.0
149
0.0
100
AcDbLayout
  1
Layout2
 70
     1
 71
     2
 10
0.0
 20
0.0
 11
12.0
 21
9.0
 12
0.0
 22
0.0
 32
0.0
 14
0.0
 24
0.0
 34
0.0
 15
0.0
 25
0.0
 35
0.0
146
0.0
 13
0.0
 23
0.0
 33
0.0
 16
1.0
 26
0.0
 36
0.0
 17
0.0
 27
1.0
 37
0.0
 76
     0
330
27
  0
LAYOUT
  5
26
102
{ACAD_XDICTIONARY
360
2F7
102
}
102
{ACAD_REACTORS
330
1A
102
}
330
1A
100
AcDbPlotSettings
  1

  2
HP DesignJet 500PS42+HPGL2 Card
  4

  6

 40
0.0
 41
0.0
 42
0.0
 43
0.0
 44
0.0
 45
0.0
 46
0.0
 47
0.0
 48
0.0
 49
0.0
140
0.0
141
0.0
142
1.0
143
1.0
 70
  1712
 72
     0
 73
     0
 74
     0
  7
C:\Documents and Settings\Julio\Application Data\Autodesk\AutoCAD 2006\R16.2\enu\Plot Styles\sanindusa.ctb
 75
     0
147
1.0
148
0.0
149
0.0
100
AcDbLayout
  1
Model
 70
     1
 71
     0
 10
0.0
 20
0.0
 11
12.0
 21
9.0
 12
0.0
 22
0.0
 32
0.0
 14
0.0
 24
0.0
 34
0.0
 15
0.0
 25
0.0
 35
0.0
146
0.0
 13
0.0
 23
0.0
 33
0.0
 16
1.0
 26
0.0
 36
0.0
 17
0.0
 27
1.0
 37
0.0
 76
     0
330
23
331
288
  0
MATERIAL
  5
29E
102
{ACAD_XDICTIONARY
360
29F
102
}
102
{ACAD_REACTORS
330
1B
102
}
330
1B
100
AcDbMaterial
  1
ByBlock
 72
     0
 43
0.0008202099737533
 43
0.0
 43
0.0
 43
0.0
 43
0.0
 43
0.0008202099737533
 43
0.0
 43
0.0
 43
0.0
 43
0.0
 43
1.0
 43
0.0
 43
0.0
 43
0.0
 43
0.0
 43
1.0
 77
     0
 47
0.0008202099737533
 47
0.0
 47
0.0
 47
0.0
 47
0.0
 47
0.0008202099737533
 47
0.0
 47
0.0
 47
0.0
 47
0.0
 47
1.0
 47
0.0
 47
0.0
 47
0.0
 47
0.0
 47
1.0
171
     0
 49
0.0008202099737533
 49
0.0
 49
0.0
 49
0.0
 49
0.0
 49
0.0008202099737533
 49
0.0
 49
0.0
 49
0.0
 49
0.0
 49
1.0
 49
0.0
 49
0.0
 49
0.0
 49
0.0
 49
1.0
175
     0
142
0.0008202099737533
142
0.0
142
0.0
142
0.0
142
0.0
142
0.0008202099737533
142
0.0
142
0.0
142
0.0
142
0.0
142
1.0
142
0.0
142
0.0
142
0.0
142
0.0
142
1.0
179
     0
144
0.0008202099737533
144
0.0
144
0.0
144
0.0
144
0.0
144
0.0008202099737533
144
0.0
144
0.0
144
0.0
144
0.0
144
1.0
144
0.0
144
0.0
144
0.0
144
0.0
144
1.0
147
0.0008202099737533
147
0.0
147
0.0
147
0.0
147
0.0
147
0.0008202099737533
147
0.0
147
0.0
147
0.0
147
0.0
147
1.0
147
0.0
147
0.0
147
0.0
147
0.0
147
1.0
  0
MATERIAL
  5
296
102
{ACAD_XDICTIONARY
360
297
102
}
102
{ACAD_REACTORS
330
1B
102
}
330
1B
100
AcDbMaterial
  1
ByLayer
 72
     0
 43
0.0008202099737533
 43
0.0
 43
0.0
 43
0.0
 43
0.0
 43
0.0008202099737533
 43
0.0
 43
0.0
 43
0.0
 43
0.0
 43
1.0
 43
0.0
 43
0.0
 43
0.0
 43
0.0
 43
1.0
 77
     0
 47
0.0008202099737533
 47
0.0
 47
0.0
 47
0.0
 47
0.0
 47
0.0008202099737533
 47
0.0
 47
0.0
 47
0.0
 47
0.0
 47
1.0
 47
0.0
 47
0.0
 47
0.0
 47
0.0
 47
1.0
171
     0
 49
0.0008202099737533
 49
0.0
 49
0.0
 49
0.0
 49
0.0
 49
0.0008202099737533
 49
0.0
 49
0.0
 49
0.0
 49
0.0
 49
1.0
 49
0.0
 49
0.0
 49
0.0
 49
0.0
 49
1.0
175
     0
142
0.0008202099737533
142
0.0
142
0.0
142
0.0
142
0.0
142
0.0008202099737533
142
0.0
142
0.0
142
0.0
142
0.0
142
1.0
142
0.0
142
0.0
142
0.0
142
0.0
142
1.0
179
     0
144
0.0008202099737533
144
0.0
144
0.0
144
0.0
144
0.0
144
0.0008202099737533
144
0.0
144
0.0
144
0.0
144
0.0
144
1.0
144
0.0
144
0.0
144
0.0
144
0.0
144
1.0
147
0.0008202099737533
147
0.0
147
0.0
147
0.0
147
0.0
147
0.0008202099737533
147
0.0
147
0.0
147
0.0
147
0.0
147
1.0
147
0.0
147
0.0
147
0.0
147
0.0
147
1.0
  0
MATERIAL
  5
2A6
102
{ACAD_XDICTIONARY
360
2A7
102
}
102
{ACAD_REACTORS
330
1B
102
}
330
1B
100
AcDbMaterial
  1
Global
 72
     0
 43
0.0008202099737533
 43
0.0
 43
0.0
 43
0.0
 43
0.0
 43
0.0008202099737533
 43
0.0
 43
0.0
 43
0.0
 43
0.0
 43
1.0
 43
0.0
 43
0.0
 43
0.0
 43
0.0
 43
1.0
 77
     0
 47
0.0008202099737533
 47
0.0
 47
0.0
 47
0.0
 47
0.0
 47
0.0008202099737533
 47
0.0
 47
0.0
 47
0.0
 47
0.0
 47
1.0
 47
0.0
 47
0.0
 47
0.0
 47
0.0
 47
1.0
171
     0
 49
0.0008202099737533
 49
0.0
 49
0.0
 49
0.0
 49
0.0
 49
0.0008202099737533
 49
0.0
 49
0.0
 49
0.0
 49
0.0
 49
1.0
 49
0.0
 49
0.0
 49
0.0
 49
0.0
 49
1.0
175
     0
142
0.0008202099737533
142
0.0
142
0.0
142
0.0
142
0.0
142
0.0008202099737533
142
0.0
142
0.0
142
0.0
142
0.0
142
1.0
142
0.0
142
0.0
142
0.0
142
0.0
142
1.0
179
     0
144
0.0008202099737533
144
0.0
144
0.0
144
0.0
144
0.0
144
0.0008202099737533
144
0.0
144
0.0
144
0.0
144
0.0
144
1.0
144
0.0
144
0.0
144
0.0
144
0.0
144
1.0
147
0.0008202099737533
147
0.0
147
0.0
147
0.0
147
0.0
147
0.0008202099737533
147
0.0
147
0.0
147
0.0
147
0.0
147
1.0
147
0.0
147
0.0
147
0.0
147
0.0
147
1.0
  0
MLEADERSTYLE
  5
2D5
102
{ACAD_REACTORS
330
2D4
102
}
330
2D4
100
AcDbMLeaderStyle
170
     2
171
     1
172
     0
 90
        2
 40
0.0
 41
0.0
173
     1
 91
-1056964608
340
14
 92
       -2
290
     1
 42
2.0
291
     1
 43
0.36
  3
Standard
 44
4.0
300

342
11
174
     1
178
     6
175
     1
176
     0
 93
-1056964608
 45
4.0
292
     0
297
     0
 46
4.0
 94
-1056964608
 47
1.0
 49
1.0
140
1.0
293
     1
141
0.0
294
     1
177
     0
142
1.0
295
     0
296
     0
143
0.125
1001
ACAD_MLEADERVER
1070
     2
  0
MLINESTYLE
  5
18
102
{ACAD_REACTORS
330
17
102
}
330
17
100
AcDbMlineStyle
  2
STANDARD
 70
     0
  3

 62
   256
 51
90.0
 52
90.0
 71
     2
 49
0.5
 62
   256
  6
BYLAYER
 49
-0.5
 62
   256
  6
BYLAYER
  0
ACDBPLACEHOLDER
  5
F
102
{ACAD_REACTORS
330
E
102
}
330
E
  0
SCALE
  5
2C3
102
{ACAD_REACTORS
330
2C2
102
}
330
2C2
100
AcDbScale
 70
     0
300
1:1
140
1.0
141
1.0
290
     1
  0
SCALE
  5
2C4
102
{ACAD_REACTORS
330
2C2
102
}
330
2C2
100
AcDbScale
 70
     0
300
1:2
140
1.0
141
2.0
290
     0
  0
SCALE
  5
2C5
102
{ACAD_REACTORS
330
2C2
102
}
330
2C2
100
AcDbScale
 70
     0
300
1:4
140
1.0
141
4.0
290
     0
  0
SCALE
  5
2C6
102
{ACAD_REACTORS
330
2C2
102
}
330
2C2
100
AcDbScale
 70
     0
300
1:5
140
1.0
141
5.0
290
     0
  0
SCALE
  5
2C7
102
{ACAD_REACTORS
330
2C2
102
}
330
2C2
100
AcDbScale
 70
     0
300
1:8
140
1.0
141
8.0
290
     0
  0
SCALE
  5
2C8
102
{ACAD_REACTORS
330
2C2
102
}
330
2C2
100
AcDbScale
 70
     0
300
1:10
140
1.0
141
10.0
290
     0
  0
SCALE
  5
2C9
102
{ACAD_REACTORS
330
2C2
102
}
330
2C2
100
AcDbScale
 70
     0
300
1:16
140
1.0
141
16.0
290
     0
  0
SCALE
  5
2CA
102
{ACAD_REACTORS
330
2C2
102
}
330
2C2
100
AcDbScale
 70
     0
300
1:20
140
1.0
141
20.0
290
     0
  0
SCALE
  5
2CB
102
{ACAD_REACTORS
330
2C2
102
}
330
2C2
100
AcDbScale
 70
     0
300
1:30
140
1.0
141
30.0
290
     0
  0
SCALE
  5
2CC
102
{ACAD_REACTORS
330
2C2
102
}
330
2C2
100
AcDbScale
 70
     0
300
1:40
140
1.0
141
40.0
290
     0
  0
SCALE
  5
2CD
102
{ACAD_REACTORS
330
2C2
102
}
330
2C2
100
AcDbScale
 70
     0
300
1:50
140
1.0
141
50.0
290
     0
  0
SCALE
  5
2CE
102
{ACAD_REACTORS
330
2C2
102
}
330
2C2
100
AcDbScale
 70
     0
300
1:100
140
1.0
141
100.0
290
     0
  0
SCALE
  5
2CF
102
{ACAD_REACTORS
330
2C2
102
}
330
2C2
100
AcDbScale
 70
     0
300
2:1
140
2.0
141
1.0
290
     0
  0
SCALE
  5
2D0
102
{ACAD_REACTORS
330
2C2
102
}
330
2C2
100
AcDbScale
 70
     0
300
4:1
140
4.0
141
1.0
290
     0
  0
SCALE
  5
2D1
102
{ACAD_REACTORS
330
2C2
102
}
330
2C2
100
AcDbScale
 70
     0
300
8:1
140
8.0
141
1.0
290
     0
  0
SCALE
  5
2D2
102
{ACAD_REACTORS
330
2C2
102
}
330
2C2
100
AcDbScale
 70
     0
300
10:1
140
10.0
141
1.0
290
     0
  0
SCALE
  5
2D3
102
{ACAD_REACTORS
330
2C2
102
}
330
2C2
100
AcDbScale
 70
     0
300
100:1
140
100.0
141
1.0
290
     0
  0
TABLESTYLE
  5
1E
102
{ACAD_XDICTIONARY
360
2F0
102
}
102
{ACAD_REACTORS
330
1D
102
}
330
1D
100
AcDbTableStyle
  3
Standard
 70
     0
 71
     0
 40
1.5
 41
1.5
280
     0
281
     0
  7
Standard
140
4.5
170
     2
 62
     0
 63
     7
283
     0
274
    -2
284
     1
 64
     0
275
    -2
285
     1
 65
     0
276
    -2
286
     1
 66
     0
277
    -2
287
     1
 67
     0
278
    -2
288
     1
 68
     0
279
    -2
289
     1
 69
     0
  7
Standard
140
6.0
170
     5
 62
     0
 63
     7
283
     0
274
    -2
284
     1
 64
     0
275
    -2
285
     1
 65
     0
276
    -2
286
     1
 66
     0
277
    -2
287
     1
 67
     0
278
    -2
288
     1
 68
     0
279
    -2
289
     1
 69
     0
  7
Standard
140
4.5
170
     5
 62
     0
 63
     7
283
     0
274
    -2
284
     1
 64
     0
275
    -2
285
     1
 65
     0
276
    -2
286
     1
 66
     0
277
    -2
287
     1
 67
     0
278
    -2
288
     1
 68
     0
279
    -2
289
     1
 69
     0
  0
VISUALSTYLE
  5
2B4
102
{ACAD_XDICTIONARY
360
308
102
}
102
{ACAD_REACTORS
330
2AE
102
}
330
2AE
100
AcDbVisualStyle
  2
2dWireframe
 70
     4
 71
     0
 72
     2
 73
     0
 90
        0
 40
-0.6
 41
-30.0
 62
     5
 63
     7
 74
     1
 91
        4
 64
     7
 65
   257
 75
     1
175
     1
 42
1.0
 92
        0
 66
   257
 43
1.0
 76
     1
 77
     6
 78
     2
 67
     7
 79
     5
170
     0
171
     0
290
     0
174
     0
 93
        1
 44
0.0
173
     0
291
     0
 45
0.0
1001
ACAD
1000
AcDbSavedByObjectVersion
1070
     0
  0
VISUALSTYLE
  5
2B6
102
{ACAD_XDICTIONARY
360
30C
102
}
102
{ACAD_REACTORS
330
2AE
102
}
330
2AE
100
AcDbVisualStyle
  2
3D Hidden
 70
     6
 71
     1
 72
     2
 73
     2
 90
        0
 40
-0.6
 41
-30.0
 62
     5
 63
     7
 74
     2
 91
        2
 64
     7
 65
   257
 75
     2
175
     1
 42
179.0
 92
        0
 66
   257
 43
1.0
 76
     1
 77
     6
 78
     2
 67
     7
 79
     3
170
     0
171
     0
290
     0
174
     0
 93
        1
 44
0.0
173
     0
291
     0
 45
0.0
1001
ACAD
1000
AcDbSavedByObjectVersion
1070
     0
  0
VISUALSTYLE
  5
2B5
102
{ACAD_XDICTIONARY
360
30A
102
}
102
{ACAD_REACTORS
330
2AE
102
}
330
2AE
100
AcDbVisualStyle
  2
3dWireframe
 70
     5
 71
     0
 72
     2
 73
     0
 90
        0
 40
-0.6
 41
-30.0
 62
     5
 63
     7
 74
     1
 91
        4
 64
     7
 65
   257
 75
     1
175
     1
 42
1.0
 92
        0
 66
   257
 43
1.0
 76
     1
 77
     6
 78
     2
 67
     7
 79
     5
170
     0
171
     0
290
     0
174
     0
 93
        1
 44
0.0
173
     0
291
     0
 45
0.0
1001
ACAD
1000
AcDbSavedByObjectVersion
1070
     0
  0
VISUALSTYLE
  5
2B3
102
{ACAD_XDICTIONARY
360
306
102
}
102
{ACAD_REACTORS
330
2AE
102
}
330
2AE
100
AcDbVisualStyle
  2
Basic
 70
     7
 71
     1
 72
     0
 73
     1
 90
        0
 40
-0.6
 41
-30.0
 62
     5
 63
     7
 74
     0
 91
        4
 64
     7
 65
   257
 75
     1
175
     1
 42
1.0
 92
        8
 66
     7
 43
1.0
 76
     1
 77
     6
 78
     2
 67
     7
 79
     5
170
     0
171
     0
290
     0
174
     0
 93
        1
 44
0.0
173
     0
291
     1
 45
0.0
1001
ACAD
1000
AcDbSavedByObjectVersion
1070
     0
  0
VISUALSTYLE
  5
2BA
102
{ACAD_XDICTIONARY
360
314
102
}
102
{ACAD_REACTORS
330
2AE
102
}
330
2AE
100
AcDbVisualStyle
  2
Brighten
 70
    12
 71
     2
 72
     2
 73
     0
 90
        0
 40
-0.6
 41
-30.0
 62
     5
 63
     7
 74
     1
 91
        4
 64
     7
 65
   257
 75
     1
175
     1
 42
1.0
 92
        8
 66
     7
 43
1.0
 76
     1
 77
     6
 78
     2
 67
     7
 79
     5
170
     0
171
     0
290
     0
174
     0
 93
        1
 44
50.0
173
     0
291
     1
 45
0.0
1001
ACAD
1000
AcDbSavedByObjectVersion
1070
     0
  0
VISUALSTYLE
  5
2BE
102
{ACAD_XDICTIONARY
360
31C
102
}
102
{ACAD_REACTORS
330
2AE
102
}
330
2AE
100
AcDbVisualStyle
  2
ColorChange
 70
    16
 71
     2
 72
     2
 73
     3
 90
        0
 40
-0.6
 41
-30.0
 62
     5
 63
     8
 74
     1
 91
        4
 64
     7
 65
   257
 75
     1
175
     1
 42
1.0
 92
        8
 66
     8
 43
1.0
 76
     1
 77
     6
 78
     2
 67
     7
 79
     5
170
     0
171
     0
290
     0
174
     0
 93
        1
 44
0.0
173
     0
291
     1
 45
0.0
1001
ACAD
1000
AcDbSavedByObjectVersion
1070
     0
  0
VISUALSTYLE
  5
2B7
102
{ACAD_XDICTIONARY
360
30E
102
}
102
{ACAD_REACTORS
330
2AE
102
}
330
2AE
100
AcDbVisualStyle
  2
Conceptual
 70
     9
 71
     3
 72
     2
 73
     0
 90
        0
 40
-0.6
 41
-30.0
 62
     5
 63
     7
 74
     2
 91
        2
 64
     7
 65
   257
 75
     1
175
     1
 42
179.0
 92
        8
 66
     7
 43
1.0
 76
     1
 77
     6
 78
     2
 67
     7
 79
     3
170
     0
171
     0
290
     0
174
     0
 93
        1
 44
0.0
173
     0
291
     0
 45
0.0
1001
ACAD
1000
AcDbSavedByObjectVersion
1070
     0
  0
VISUALSTYLE
  5
2B9
102
{ACAD_XDICTIONARY
360
312
102
}
102
{ACAD_REACTORS
330
2AE
102
}
330
2AE
100
AcDbVisualStyle
  2
Dim
 70
    11
 71
     2
 72
     2
 73
     0
 90
        0
 40
-0.6
 41
-30.0
 62
     5
 63
     7
 74
     1
 91
        4
 64
     7
 65
   257
 75
     1
175
     1
 42
1.0
 92
        8
 66
     7
 43
1.0
 76
     1
 77
     6
 78
     2
 67
     7
 79
     5
170
     0
171
     0
290
     0
174
     0
 93
        1
 44
-50.0
173
     0
291
     1
 45
0.0
1001
ACAD
1000
AcDbSavedByObjectVersion
1070
     0
  0
VISUALSTYLE
  5
2C1
102
{ACAD_XDICTIONARY
360
322
102
}
102
{ACAD_REACTORS
330
2AE
102
}
330
2AE
100
AcDbVisualStyle
  2
EdgeColorOff
 70
    22
 71
     2
 72
     2
 73
     0
 90
        0
 40
-0.6
 41
-30.0
 62
     5
 63
     7
 74
     1
 91
        4
 64
     7
 65
   257
 75
     1
175
     1
 42
1.0
 92
        8
 66
     7
 43
1.0
 76
     1
 77
     6
 78
     2
 67
     7
 79
     5
170
     0
171
     0
290
     0
174
     0
 93
        1
 44
0.0
173
     0
291
     1
 45
0.0
1001
ACAD
1000
AcDbSavedByObjectVersion
1070
     0
  0
VISUALSTYLE
  5
2BD
102
{ACAD_XDICTIONARY
360
31A
102
}
102
{ACAD_REACTORS
330
2AE
102
}
330
2AE
100
AcDbVisualStyle
  2
Facepattern
 70
    15
 71
     2
 72
     2
 73
     0
 90
        0
 40
-0.6
 41
-30.0
 62
     5
 63
     7
 74
     1
 91
        4
 64
     7
 65
   257
 75
     1
175
     1
 42
1.0
 92
        8
 66
     7
 43
1.0
 76
     1
 77
     6
 78
     2
 67
     7
 79
     5
170
     0
171
     0
290
     0
174
     0
 93
        1
 44
0.0
173
     0
291
     1
 45
0.0
1001
ACAD
1000
AcDbSavedByObjectVersion
1070
     0
  0
VISUALSTYLE
  5
2AF
102
{ACAD_XDICTIONARY
360
2FE
102
}
102
{ACAD_REACTORS
330
2AE
102
}
330
2AE
100
AcDbVisualStyle
  2
Flat
 70
     0
 71
     2
 72
     1
 73
     1
 90
        2
 40
-0.6
 41
30.0
 62
     5
 63
     7
 74
     0
 91
        4
 64
     7
 65
   257
 75
     1
175
     1
 42
1.0
 92
        8
 66
     7
 43
1.0
 76
     1
 77
     6
 78
     2
 67
     7
 79
     5
170
     0
171
     0
290
     0
174
     0
 93
       13
 44
0.0
173
     0
291
     1
 45
0.0
1001
ACAD
1000
AcDbSavedByObjectVersion
1070
     0
  0
VISUALSTYLE
  5
2B0
102
{ACAD_XDICTIONARY
360
300
102
}
102
{ACAD_REACTORS
330
2AE
102
}
330
2AE
100
AcDbVisualStyle
  2
FlatWithEdges
 70
     1
 71
     2
 72
     1
 73
     1
 90
        2
 40
-0.6
 41
30.0
 62
     5
 63
     7
 74
     1
 91
        4
 64
     7
 65
   257
 75
     1
175
     1
 42
1.0
 92
        0
 66
   257
 43
1.0
 76
     1
 77
     6
 78
     2
 67
     7
 79
     5
170
     0
171
     0
290
     0
174
     0
 93
       13
 44
0.0
173
     0
291
     1
 45
0.0
1001
ACAD
1000
AcDbSavedByObjectVersion
1070
     0
  0
VISUALSTYLE
  5
2B1
102
{ACAD_XDICTIONARY
360
302
102
}
102
{ACAD_REACTORS
330
2AE
102
}
330
2AE
100
AcDbVisualStyle
  2
Gouraud
 70
     2
 71
     2
 72
     2
 73
     1
 90
        2
 40
-0.6
 41
30.0
 62
     5
 63
     7
 74
     0
 91
        4
 64
     7
 65
   257
 75
     1
175
     1
 42
1.0
 92
        0
 66
     7
 43
1.0
 76
     1
 77
     6
 78
     2
 67
     7
 79
     5
170
     0
171
     0
290
     0
174
     0
 93
       13
 44
0.0
173
     0
291
     1
 45
0.0
1001
ACAD
1000
AcDbSavedByObjectVersion
1070
     0
  0
VISUALSTYLE
  5
2B2
102
{ACAD_XDICTIONARY
360
304
102
}
102
{ACAD_REACTORS
330
2AE
102
}
330
2AE
100
AcDbVisualStyle
  2
GouraudWithEdges
 70
     3
 71
     2
 72
     2
 73
     1
 90
        2
 40
-0.6
 41
30.0
 62
     5
 63
     7
 74
     1
 91
        4
 64
     7
 65
   257
 75
     1
175
     1
 42
1.0
 92
        0
 66
   257
 43
1.0
 76
     1
 77
     6
 78
     2
 67
     7
 79
     5
170
     0
171
     0
290
     0
174
     0
 93
       13
 44
0.0
173
     0
291
     1
 45
0.0
1001
ACAD
1000
AcDbSavedByObjectVersion
1070
     0
  0
VISUALSTYLE
  5
2BF
102
{ACAD_XDICTIONARY
360
31E
102
}
102
{ACAD_REACTORS
330
2AE
102
}
330
2AE
100
AcDbVisualStyle
  2
JitterOff
 70
    20
 71
     2
 72
     2
 73
     0
 90
        0
 40
-0.6
 41
-30.0
 62
     5
 63
     7
 74
     1
 91
        4
 64
     7
 65
   257
 75
     1
175
     1
 42
1.0
 92
       10
 66
     7
 43
1.0
 76
     1
 77
     6
 78
     2
 67
     7
 79
     5
170
     0
171
     0
290
     0
174
     0
 93
        1
 44
0.0
173
     0
291
     1
 45
0.0
1001
ACAD
1000
AcDbSavedByObjectVersion
1070
     0
  0
VISUALSTYLE
  5
2BC
102
{ACAD_XDICTIONARY
360
318
102
}
102
{ACAD_REACTORS
330
2AE
102
}
330
2AE
100
AcDbVisualStyle
  2
Linepattern
 70
    14
 71
     2
 72
     2
 73
     0
 90
        0
 40
-0.6
 41
-30.0
 62
     5
 63
     7
 74
     1
 91
        4
 64
     7
 65
   257
 75
     7
175
     7
 42
1.0
 92
        8
 66
     7
 43
1.0
 76
     1
 77
     6
 78
     2
 67
     7
 79
     5
170
     0
171
     0
290
     0
174
     0
 93
        1
 44
0.0
173
     0
291
     1
 45
0.0
1001
ACAD
1000
AcDbSavedByObjectVersion
1070
     0
  0
VISUALSTYLE
  5
2C0
102
{ACAD_XDICTIONARY
360
320
102
}
102
{ACAD_REACTORS
330
2AE
102
}
330
2AE
100
AcDbVisualStyle
  2
OverhangOff
 70
    21
 71
     2
 72
     2
 73
     0
 90
        0
 40
-0.6
 41
-30.0
 62
     5
 63
     7
 74
     1
 91
        4
 64
     7
 65
   257
 75
     1
175
     1
 42
1.0
 92
        9
 66
     7
 43
1.0
 76
     1
 77
     6
 78
     2
 67
     7
 79
     5
170
     0
171
     0
290
     0
174
     0
 93
        1
 44
0.0
173
     0
291
     1
 45
0.0
1001
ACAD
1000
AcDbSavedByObjectVersion
1070
     0
  0
VISUALSTYLE
  5
2B8
102
{ACAD_XDICTIONARY
360
310
102
}
102
{ACAD_REACTORS
330
2AE
102
}
330
2AE
100
AcDbVisualStyle
  2
Realistic
 70
     8
 71
     2
 72
     2
 73
     0
 90
        0
 40
-0.6
 41
-30.0
 62
     5
 63
     7
 74
     1
 91
        0
 64
     7
 65
   257
 75
     1
175
     1
 42
1.0
 92
        8
 66
     8
 43
1.0
 76
     1
 77
     6
 78
     2
 67
     7
 79
     5
170
     0
171
     0
290
     0
174
     0
 93
       13
 44
0.0
173
     0
291
     0
 45
0.0
1001
ACAD
1000
AcDbSavedByObjectVersion
1070
     0
  0
VISUALSTYLE
  5
2BB
102
{ACAD_XDICTIONARY
360
316
102
}
102
{ACAD_REACTORS
330
2AE
102
}
330
2AE
100
AcDbVisualStyle
  2
Thicken
 70
    13
 71
     2
 72
     2
 73
     0
 90
        0
 40
-0.6
 41
-30.0
 62
     5
 63
     7
 74
     1
 91
        4
 64
     7
 65
   257
 75
     1
175
     1
 42
1.0
 92
       12
 66
     7
 43
1.0
 76
     1
 77
     6
 78
     2
 67
     7
 79
     5
170
     0
171
     0
290
     0
174
     0
 93
        1
 44
0.0
173
     0
291
     1
 45
0.0
1001
ACAD
1000
AcDbSavedByObjectVersion
1070
     0
  0
DICTIONARYVAR
  5
2EC
102
{ACAD_REACTORS
330
290
102
}
330
290
100
DictionaryVariables
280
     0
  1
1:1
  0
DICTIONARYVAR
  5
2EB
102
{ACAD_REACTORS
330
290
102
}
330
290
100
DictionaryVariables
280
     0
  1
STANDARD
  0
DICTIONARYVAR
  5
291
102
{ACAD_REACTORS
330
290
102
}
330
290
100
DictionaryVariables
280
     0
  1
STANDARD
  0
DICTIONARYVAR
  5
293
102
{ACAD_REACTORS
330
290
102
}
330
290
100
DictionaryVariables
280
     0
  1
2
  0
DICTIONARYVAR
  5
292
102
{ACAD_REACTORS
330
290
102
}
330
290
100
DictionaryVariables
280
     0
  1
1
  0
DICTIONARYVAR
  5
2EE
102
{ACAD_REACTORS
330
290
102
}
330
290
100
DictionaryVariables
280
     0
  1
0
  0
DICTIONARYVAR
  5
294
102
{ACAD_REACTORS
330
290
102
}
330
290
100
DictionaryVariables
280
     0
  1

  0
DICTIONARYVAR
  5
2ED
102
{ACAD_REACTORS
330
290
102
}
330
290
100
DictionaryVariables
280
     0
  1
127
  0
DICTIONARYVAR
  5
2EF
102
{ACAD_REACTORS
330
290
102
}
330
290
100
DictionaryVariables
280
     0
  1
2
  0
XRECORD
  5
287
102
{ACAD_REACTORS
330
286
102
}
330
286
100
AcDbXrecord
280
     1
  0
DICTIONARY
  5
2F5
330
22
100
AcDbDictionary
280
     1
281
     1
  3
ACAD_XREC_ROUNDTRIP
360
2F6
  0
DICTIONARY
  5
2F9
330
2A
100
AcDbDictionary
280
     1
281
     1
  3
ACAD_XREC_ROUNDTRIP
360
2FA
  0
DICTIONARY
  5
2F7
330
26
100
AcDbDictionary
280
     1
281
     1
  3
ACAD_XREC_ROUNDTRIP
360
2F8
  0
DICTIONARY
  5
29F
330
29E
100
AcDbDictionary
280
     1
281
     1
  3
ACAD_XREC_ROUNDTRIP
360
2FC
  3
BUMPTILE
360
2A1
  3
DIFFUSETILE
360
2A0
  3
OPACITYTILE
360
2A4
  3
REFLECTIONTILE
360
2A3
  3
REFRACTIONTILE
360
2A5
  3
SPECULARTILE
360
2A2
  0
DICTIONARY
  5
297
330
296
100
AcDbDictionary
280
     1
281
     1
  3
ACAD_XREC_ROUNDTRIP
360
2FB
  3
BUMPTILE
360
299
  3
DIFFUSETILE
360
298
  3
OPACITYTILE
360
29C
  3
REFLECTIONTILE
360
29B
  3
REFRACTIONTILE
360
29D
  3
SPECULARTILE
360
29A
  0
DICTIONARY
  5
2A7
330
2A6
100
AcDbDictionary
280
     1
281
     1
  3
ACAD_XREC_ROUNDTRIP
360
2FD
  3
BUMPTILE
360
2A9
  3
DIFFUSETILE
360
2A8
  3
OPACITYTILE
360
2AC
  3
REFLECTIONTILE
360
2AB
  3
REFRACTIONTILE
360
2AD
  3
SPECULARTILE
360
2AA
  0
DICTIONARY
  5
2F0
330
1E
100
AcDbDictionary
280
     1
281
     1
  3
ACAD_ROUNDTRIP_2008_TABLESTYLE_CELLSTYLEMAP
360
2F1
  3
ACAD_XREC_ROUNDTRIP
360
2F4
  0
DICTIONARY
  5
308
330
2B4
100
AcDbDictionary
280
     1
281
     1
  3
ACAD_XREC_ROUNDTRIP
360
309
  0
DICTIONARY
  5
30C
330
2B6
100
AcDbDictionary
280
     1
281
     1
  3
ACAD_XREC_ROUNDTRIP
360
30D
  0
DICTIONARY
  5
30A
330
2B5
100
AcDbDictionary
280
     1
281
     1
  3
ACAD_XREC_ROUNDTRIP
360
30B
  0
DICTIONARY
  5
306
330
2B3
100
AcDbDictionary
280
     1
281
     1
  3
ACAD_XREC_ROUNDTRIP
360
307
  0
DICTIONARY
  5
314
330
2BA
100
AcDbDictionary
280
     1
281
     1
  3
ACAD_XREC_ROUNDTRIP
360
315
  0
DICTIONARY
  5
31C
330
2BE
100
AcDbDictionary
280
     1
281
     1
  3
ACAD_XREC_ROUNDTRIP
360
31D
  0
DICTIONARY
  5
30E
330
2B7
100
AcDbDictionary
280
     1
281
     1
  3
ACAD_XREC_ROUNDTRIP
360
30F
  0
DICTIONARY
  5
312
330
2B9
100
AcDbDictionary
280
     1
281
     1
  3
ACAD_XREC_ROUNDTRIP
360
313
  0
DICTIONARY
  5
322
330
2C1
100
AcDbDictionary
280
     1
281
     1
  3
ACAD_XREC_ROUNDTRIP
360
323
  0
DICTIONARY
  5
31A
330
2BD
100
AcDbDictionary
280
     1
281
     1
  3
ACAD_XREC_ROUNDTRIP
360
31B
  0
DICTIONARY
  5
2FE
330
2AF
100
AcDbDictionary
280
     1
281
     1
  3
ACAD_XREC_ROUNDTRIP
360
2FF
  0
DICTIONARY
  5
300
330
2B0
100
AcDbDictionary
280
     1
281
     1
  3
ACAD_XREC_ROUNDTRIP
360
301
  0
DICTIONARY
  5
302
330
2B1
100
AcDbDictionary
280
     1
281
     1
  3
ACAD_XREC_ROUNDTRIP
360
303
  0
DICTIONARY
  5
304
330
2B2
100
AcDbDictionary
280
     1
281
     1
  3
ACAD_XREC_ROUNDTRIP
360
305
  0
DICTIONARY
  5
31E
330
2BF
100
AcDbDictionary
280
     1
281
     1
  3
ACAD_XREC_ROUNDTRIP
360
31F
  0
DICTIONARY
  5
318
330
2BC
100
AcDbDictionary
280
     1
281
     1
  3
ACAD_XREC_ROUNDTRIP
360
319
  0
DICTIONARY
  5
320
330
2C0
100
AcDbDictionary
280
     1
281
     1
  3
ACAD_XREC_ROUNDTRIP
360
321
  0
DICTIONARY
  5
310
330
2B8
100
AcDbDictionary
280
     1
281
     1
  3
ACAD_XREC_ROUNDTRIP
360
311
  0
DICTIONARY
  5
316
330
2BB
100
AcDbDictionary
280
     1
281
     1
  3
ACAD_XREC_ROUNDTRIP
360
317
  0
XRECORD
  5
2F6
102
{ACAD_REACTORS
330
2F5
102
}
330
2F5
100
AcDbXrecord
280
     1
102
SHADEPLOT
 70
     0
102
SHADEPLOTRESLEVEL
 70
     2
102
SHADEPLOTCUSTOMDPI
 70
   300
  0
XRECORD
  5
2FA
102
{ACAD_REACTORS
330
2F9
102
}
330
2F9
100
AcDbXrecord
280
     1
102
SHADEPLOT
 70
     0
102
SHADEPLOTRESLEVEL
 70
     2
102
SHADEPLOTCUSTOMDPI
 70
   300
  0
XRECORD
  5
2F8
102
{ACAD_REACTORS
330
2F7
102
}
330
2F7
100
AcDbXrecord
280
     1
102
SHADEPLOT
 70
     0
102
SHADEPLOTRESLEVEL
 70
     2
102
SHADEPLOTCUSTOMDPI
 70
   300
  0
XRECORD
  5
2FC
102
{ACAD_REACTORS
330
29F
102
}
330
29F
100
AcDbXrecord
280
     1
102
MATERIAL
148
0.0
149
0.0
149
0.0
 93
        0
 94
      127
282
     0
 72
     0
 77
     0
171
     0
175
     0
179
     0
273
     0
  0
XRECORD
  5
2A1
102
{ACAD_REACTORS
330
29F
102
}
330
29F
100
AcDbXrecord
280
     1
270
     1
271
     1
  0
XRECORD
  5
2A0
102
{ACAD_REACTORS
330
29F
102
}
330
29F
100
AcDbXrecord
280
     1
270
     1
271
     1
  0
XRECORD
  5
2A4
102
{ACAD_REACTORS
330
29F
102
}
330
29F
100
AcDbXrecord
280
     1
270
     1
271
     1
  0
XRECORD
  5
2A3
102
{ACAD_REACTORS
330
29F
102
}
330
29F
100
AcDbXrecord
280
     1
270
     1
271
     1
  0
XRECORD
  5
2A5
102
{ACAD_REACTORS
330
29F
102
}
330
29F
100
AcDbXrecord
280
     1
270
     1
271
     1
  0
XRECORD
  5
2A2
102
{ACAD_REACTORS
330
29F
102
}
330
29F
100
AcDbXrecord
280
     1
270
     1
271
     1
  0
XRECORD
  5
2FB
102
{ACAD_REACTORS
330
297
102
}
330
297
100
AcDbXrecord
280
     1
102
MATERIAL
148
0.0
149
0.0
149
0.0
 93
        0
 94
      127
282
     0
 72
     0
 77
     0
171
     0
175
     0
179
     0
273
     0
  0
XRECORD
  5
299
102
{ACAD_REACTORS
330
297
102
}
330
297
100
AcDbXrecord
280
     1
270
     1
271
     1
  0
XRECORD
  5
298
102
{ACAD_REACTORS
330
297
102
}
330
297
100
AcDbXrecord
280
     1
270
     1
271
     1
  0
XRECORD
  5
29C
102
{ACAD_REACTORS
330
297
102
}
330
297
100
AcDbXrecord
280
     1
270
     1
271
     1
  0
XRECORD
  5
29B
102
{ACAD_REACTORS
330
297
102
}
330
297
100
AcDbXrecord
280
     1
270
     1
271
     1
  0
XRECORD
  5
29D
102
{ACAD_REACTORS
330
297
102
}
330
297
100
AcDbXrecord
280
     1
270
     1
271
     1
  0
XRECORD
  5
29A
102
{ACAD_REACTORS
330
297
102
}
330
297
100
AcDbXrecord
280
     1
270
     1
271
     1
  0
XRECORD
  5
2FD
102
{ACAD_REACTORS
330
2A7
102
}
330
2A7
100
AcDbXrecord
280
     1
102
MATERIAL
148
0.0
149
0.0
149
0.0
 93
        0
 94
      127
282
     0
 72
     0
 77
     0
171
     0
175
     0
179
     0
273
     0
  0
XRECORD
  5
2A9
102
{ACAD_REACTORS
330
2A7
102
}
330
2A7
100
AcDbXrecord
280
     1
270
     1
271
     1
  0
XRECORD
  5
2A8
102
{ACAD_REACTORS
330
2A7
102
}
330
2A7
100
AcDbXrecord
280
     1
270
     1
271
     1
  0
XRECORD
  5
2AC
102
{ACAD_REACTORS
330
2A7
102
}
330
2A7
100
AcDbXrecord
280
     1
270
     1
271
     1
  0
XRECORD
  5
2AB
102
{ACAD_REACTORS
330
2A7
102
}
330
2A7
100
AcDbXrecord
280
     1
270
     1
271
     1
  0
XRECORD
  5
2AD
102
{ACAD_REACTORS
330
2A7
102
}
330
2A7
100
AcDbXrecord
280
     1
270
     1
271
     1
  0
XRECORD
  5
2AA
102
{ACAD_REACTORS
330
2A7
102
}
330
2A7
100
AcDbXrecord
280
     1
270
     1
271
     1
  0
CELLSTYLEMAP
  5
2F1
102
{ACAD_REACTORS
330
2F0
102
}
330
2F0
100
AcDbCellStyleMap
 90
        3
300
CELLSTYLE
  1
TABLEFORMAT_BEGIN
 90
        5
170
     1
 91
        0
 92
    32768
 62
   257
 93
        1
300
CONTENTFORMAT
  1
CONTENTFORMAT_BEGIN
 90
        0
 91
        0
 92
        4
 93
        0
300

 40
0.0
140
1.0
 94
        5
 62
     0
340
11
144
6.0
309
CONTENTFORMAT_END
171
     1
301
MARGIN
  1
CELLMARGIN_BEGIN
 40
1.5
 40
1.5
 40
1.5
 40
1.5
 40
0.18
 40
0.18
309
CELLMARGIN_END
 94
        6
 95
        1
302
GRIDFORMAT
  1
GRIDFORMAT_BEGIN
 90
        0
 91
        1
 62
     0
 92
       -2
340
0
 93
        0
 40
0.045
309
GRIDFORMAT_END
 95
        2
302
GRIDFORMAT
  1
GRIDFORMAT_BEGIN
 90
        0
 91
        1
 62
     0
 92
       -2
340
0
 93
        0
 40
0.045
309
GRIDFORMAT_END
 95
        4
302
GRIDFORMAT
  1
GRIDFORMAT_BEGIN
 90
        0
 91
        1
 62
     0
 92
       -2
340
0
 93
        0
 40
0.045
309
GRIDFORMAT_END
 95
        8
302
GRIDFORMAT
  1
GRIDFORMAT_BEGIN
 90
        0
 91
        1
 62
     0
 92
       -2
340
0
 93
        0
 40
0.045
309
GRIDFORMAT_END
 95
       16
302
GRIDFORMAT
  1
GRIDFORMAT_BEGIN
 90
        0
 91
        1
 62
     0
 92
       -2
340
0
 93
        0
 40
0.045
309
GRIDFORMAT_END
 95
       32
302
GRIDFORMAT
  1
GRIDFORMAT_BEGIN
 90
        0
 91
        1
 62
     0
 92
       -2
340
0
 93
        0
 40
0.045
309
GRIDFORMAT_END
309
TABLEFORMAT_END
  1
CELLSTYLE_BEGIN
 90
        1
 91
        1
300
_TITLE
309
CELLSTYLE_END
300
CELLSTYLE
  1
TABLEFORMAT_BEGIN
 90
        5
170
     1
 91
        0
 92
        0
 62
   257
 93
        1
300
CONTENTFORMAT
  1
CONTENTFORMAT_BEGIN
 90
        0
 91
        0
 92
        4
 93
        0
300

 40
0.0
140
1.0
 94
        5
 62
     0
340
11
144
4.5
309
CONTENTFORMAT_END
171
     1
301
MARGIN
  1
CELLMARGIN_BEGIN
 40
1.5
 40
1.5
 40
1.5
 40
1.5
 40
0.18
 40
0.18
309
CELLMARGIN_END
 94
        6
 95
        1
302
GRIDFORMAT
  1
GRIDFORMAT_BEGIN
 90
        0
 91
        1
 62
     0
 92
       -2
340
0
 93
        0
 40
0.045
309
GRIDFORMAT_END
 95
        2
302
GRIDFORMAT
  1
GRIDFORMAT_BEGIN
 90
        0
 91
        1
 62
     0
 92
       -2
340
0
 93
        0
 40
0.045
309
GRIDFORMAT_END
 95
        4
302
GRIDFORMAT
  1
GRIDFORMAT_BEGIN
 90
        0
 91
        1
 62
     0
 92
       -2
340
0
 93
        0
 40
0.045
309
GRIDFORMAT_END
 95
        8
302
GRIDFORMAT
  1
GRIDFORMAT_BEGIN
 90
        0
 91
        1
 62
     0
 92
       -2
340
0
 93
        0
 40
0.045
309
GRIDFORMAT_END
 95
       16
302
GRIDFORMAT
  1
GRIDFORMAT_BEGIN
 90
        0
 91
        1
 62
     0
 92
       -2
340
0
 93
        0
 40
0.045
309
GRIDFORMAT_END
 95
       32
302
GRIDFORMAT
  1
GRIDFORMAT_BEGIN
 90
        0
 91
        1
 62
     0
 92
       -2
340
0
 93
        0
 40
0.045
309
GRIDFORMAT_END
309
TABLEFORMAT_END
  1
CELLSTYLE_BEGIN
 90
        2
 91
        1
300
_HEADER
309
CELLSTYLE_END
300
CELLSTYLE
  1
TABLEFORMAT_BEGIN
 90
        5
170
     1
 91
        0
 92
        0
 62
   257
 93
        1
300
CONTENTFORMAT
  1
CONTENTFORMAT_BEGIN
 90
        0
 91
        0
 92
        4
 93
        0
300

 40
0.0
140
1.0
 94
        2
 62
     0
340
11
144
4.5
309
CONTENTFORMAT_END
171
     1
301
MARGIN
  1
CELLMARGIN_BEGIN
 40
1.5
 40
1.5
 40
1.5
 40
1.5
 40
0.18
 40
0.18
309
CELLMARGIN_END
 94
        6
 95
        1
302
GRIDFORMAT
  1
GRIDFORMAT_BEGIN
 90
        0
 91
        1
 62
     0
 92
       -2
340
0
 93
        0
 40
0.045
309
GRIDFORMAT_END
 95
        2
302
GRIDFORMAT
  1
GRIDFORMAT_BEGIN
 90
        0
 91
        1
 62
     0
 92
       -2
340
0
 93
        0
 40
0.045
309
GRIDFORMAT_END
 95
        4
302
GRIDFORMAT
  1
GRIDFORMAT_BEGIN
 90
        0
 91
        1
 62
     0
 92
       -2
340
0
 93
        0
 40
0.045
309
GRIDFORMAT_END
 95
        8
302
GRIDFORMAT
  1
GRIDFORMAT_BEGIN
 90
        0
 91
        1
 62
     0
 92
       -2
340
0
 93
        0
 40
0.045
309
GRIDFORMAT_END
 95
       16
302
GRIDFORMAT
  1
GRIDFORMAT_BEGIN
 90
        0
 91
        1
 62
     0
 92
       -2
340
0
 93
        0
 40
0.045
309
GRIDFORMAT_END
 95
       32
302
GRIDFORMAT
  1
GRIDFORMAT_BEGIN
 90
        0
 91
        1
 62
     0
 92
       -2
340
0
 93
        0
 40
0.045
309
GRIDFORMAT_END
309
TABLEFORMAT_END
  1
CELLSTYLE_BEGIN
 90
        3
 91
        2
300
_DATA
309
CELLSTYLE_END
  0
XRECORD
  5
2F4
102
{ACAD_REACTORS
330
2F0
102
}
330
2F0
100
AcDbXrecord
280
     1
102
ACAD_ROUNDTRIP_PRE2007_TABLESTYLE
 90
        4
 91
        0
  1

 92
        4
 93
        0
  2

 94
        4
 95
        0
  3

  0
XRECORD
  5
309
102
{ACAD_REACTORS
330
308
102
}
330
308
100
AcDbXrecord
280
     1
102
RTVSPropertyOp0
 70
     1
102
RTVSPropertyOp1
 70
     1
102
RTVSPropertyOp2
 70
     1
102
RTVSPropertyOp3
 70
     1
102
RTVSPropertyOp4
 70
     1
102
RTVSPropertyOp5
 70
     1
102
RTVSPropertyOp6
 70
     1
102
RTVSPropertyOp7
 70
     1
102
RTVSPropertyOp8
 70
     1
102
RTVSPropertyOp9
 70
     1
102
RTVSPropertyOp10
 70
     1
102
RTVSPropertyOp11
 70
     1
102
RTVSPropertyOp12
 70
     1
102
RTVSPropertyOp13
 70
     1
102
RTVSPropertyOp14
 70
     1
102
RTVSPropertyOp15
 70
     1
102
RTVSPropertyOp16
 70
     1
102
RTVSPropertyOp17
 70
     1
102
RTVSPropertyOp18
 70
     1
102
RTVSPropertyOp19
 70
     1
102
RTVSPropertyOp20
 70
     1
102
RTVSPropertyOp21
 70
     1
102
RTVSPropertyOp22
 70
     1
102
RTVSPropertyOp23
 70
     1
102
RTVSPropertyOp24
 70
     1
102
RTVSPropertyOp25
 70
     1
102
RTVSPropertyOp26
 70
     1
102
RTVSPropertyOp27
 70
     1
  0
XRECORD
  5
30D
102
{ACAD_REACTORS
330
30C
102
}
330
30C
100
AcDbXrecord
280
     1
102
RTVSPropertyOp0
 70
     1
102
RTVSPropertyOp1
 70
     1
102
RTVSPropertyOp2
 70
     1
102
RTVSPropertyOp3
 70
     1
102
RTVSPropertyOp4
 70
     1
102
RTVSPropertyOp5
 70
     1
102
RTVSPropertyOp6
 70
     1
102
RTVSPropertyOp7
 70
     1
102
RTVSPropertyOp8
 70
     1
102
RTVSPropertyOp9
 70
     1
102
RTVSPropertyOp10
 70
     1
102
RTVSPropertyOp11
 70
     1
102
RTVSPropertyOp12
 70
     1
102
RTVSPropertyOp13
 70
     1
102
RTVSPropertyOp14
 70
     1
102
RTVSPropertyOp15
 70
     1
102
RTVSPropertyOp16
 70
     1
102
RTVSPropertyOp17
 70
     1
102
RTVSPropertyOp18
 70
     1
102
RTVSPropertyOp19
 70
     1
102
RTVSPropertyOp20
 70
     1
102
RTVSPropertyOp21
 70
     1
102
RTVSPropertyOp22
 70
     1
102
RTVSPropertyOp23
 70
     1
102
RTVSPropertyOp24
 70
     1
102
RTVSPropertyOp25
 70
     1
102
RTVSPropertyOp26
 70
     1
102
RTVSPropertyOp27
 70
     1
  0
XRECORD
  5
30B
102
{ACAD_REACTORS
330
30A
102
}
330
30A
100
AcDbXrecord
280
     1
102
RTVSPropertyOp0
 70
     1
102
RTVSPropertyOp1
 70
     1
102
RTVSPropertyOp2
 70
     1
102
RTVSPropertyOp3
 70
     1
102
RTVSPropertyOp4
 70
     1
102
RTVSPropertyOp5
 70
     1
102
RTVSPropertyOp6
 70
     1
102
RTVSPropertyOp7
 70
     1
102
RTVSPropertyOp8
 70
     1
102
RTVSPropertyOp9
 70
     1
102
RTVSPropertyOp10
 70
     1
102
RTVSPropertyOp11
 70
     1
102
RTVSPropertyOp12
 70
     1
102
RTVSPropertyOp13
 70
     1
102
RTVSPropertyOp14
 70
     1
102
RTVSPropertyOp15
 70
     1
102
RTVSPropertyOp16
 70
     1
102
RTVSPropertyOp17
 70
     1
102
RTVSPropertyOp18
 70
     1
102
RTVSPropertyOp19
 70
     1
102
RTVSPropertyOp20
 70
     1
102
RTVSPropertyOp21
 70
     1
102
RTVSPropertyOp22
 70
     1
102
RTVSPropertyOp23
 70
     1
102
RTVSPropertyOp24
 70
     1
102
RTVSPropertyOp25
 70
     1
102
RTVSPropertyOp26
 70
     1
102
RTVSPropertyOp27
 70
     1
  0
XRECORD
  5
307
102
{ACAD_REACTORS
330
306
102
}
330
306
100
AcDbXrecord
280
     1
102
RTVSPropertyOp0
 70
     1
102
RTVSPropertyOp1
 70
     1
102
RTVSPropertyOp2
 70
     1
102
RTVSPropertyOp3
 70
     1
102
RTVSPropertyOp4
 70
     1
102
RTVSPropertyOp5
 70
     1
102
RTVSPropertyOp6
 70
     1
102
RTVSPropertyOp7
 70
     1
102
RTVSPropertyOp8
 70
     1
102
RTVSPropertyOp9
 70
     1
102
RTVSPropertyOp10
 70
     1
102
RTVSPropertyOp11
 70
     1
102
RTVSPropertyOp12
 70
     1
102
RTVSPropertyOp13
 70
     1
102
RTVSPropertyOp14
 70
     1
102
RTVSPropertyOp15
 70
     1
102
RTVSPropertyOp16
 70
     1
102
RTVSPropertyOp17
 70
     1
102
RTVSPropertyOp18
 70
     1
102
RTVSPropertyOp19
 70
     1
102
RTVSPropertyOp20
 70
     1
102
RTVSPropertyOp21
 70
     1
102
RTVSPropertyOp22
 70
     1
102
RTVSPropertyOp23
 70
     1
102
RTVSPropertyOp24
 70
     1
102
RTVSPropertyOp25
 70
     1
102
RTVSPropertyOp26
 70
     1
102
RTVSPropertyOp27
 70
     1
  0
XRECORD
  5
315
102
{ACAD_REACTORS
330
314
102
}
330
314
100
AcDbXrecord
280
     1
102
RTVSPropertyOp0
 70
     1
102
RTVSPropertyOp1
 70
     1
102
RTVSPropertyOp2
 70
     1
102
RTVSPropertyOp3
 70
     1
102
RTVSPropertyOp4
 70
     1
102
RTVSPropertyOp5
 70
     1
102
RTVSPropertyOp6
 70
     1
102
RTVSPropertyOp7
 70
     1
102
RTVSPropertyOp8
 70
     1
102
RTVSPropertyOp9
 70
     1
102
RTVSPropertyOp10
 70
     1
102
RTVSPropertyOp11
 70
     1
102
RTVSPropertyOp12
 70
     1
102
RTVSPropertyOp13
 70
     1
102
RTVSPropertyOp14
 70
     1
102
RTVSPropertyOp15
 70
     1
102
RTVSPropertyOp16
 70
     1
102
RTVSPropertyOp17
 70
     1
102
RTVSPropertyOp18
 70
     1
102
RTVSPropertyOp19
 70
     1
102
RTVSPropertyOp20
 70
     1
102
RTVSPropertyOp21
 70
     1
102
RTVSPropertyOp22
 70
     1
102
RTVSPropertyOp23
 70
     1
102
RTVSPropertyOp24
 70
     1
102
RTVSPropertyOp25
 70
     1
102
RTVSPropertyOp26
 70
     1
102
RTVSPropertyOp27
 70
     1
  0
XRECORD
  5
31D
102
{ACAD_REACTORS
330
31C
102
}
330
31C
100
AcDbXrecord
280
     1
102
RTVSPropertyOp0
 70
     1
102
RTVSPropertyOp1
 70
     1
102
RTVSPropertyOp2
 70
     1
102
RTVSPropertyOp3
 70
     1
102
RTVSPropertyOp4
 70
     1
102
RTVSPropertyOp5
 70
     1
102
RTVSPropertyOp6
 70
     1
102
RTVSPropertyOp7
 70
     1
102
RTVSPropertyOp8
 70
     1
102
RTVSPropertyOp9
 70
     1
102
RTVSPropertyOp10
 70
     1
102
RTVSPropertyOp11
 70
     1
102
RTVSPropertyOp12
 70
     1
102
RTVSPropertyOp13
 70
     1
102
RTVSPropertyOp14
 70
     1
102
RTVSPropertyOp15
 70
     1
102
RTVSPropertyOp16
 70
     1
102
RTVSPropertyOp17
 70
     1
102
RTVSPropertyOp18
 70
     1
102
RTVSPropertyOp19
 70
     1
102
RTVSPropertyOp20
 70
     1
102
RTVSPropertyOp21
 70
     1
102
RTVSPropertyOp22
 70
     1
102
RTVSPropertyOp23
 70
     1
102
RTVSPropertyOp24
 70
     1
102
RTVSPropertyOp25
 70
     1
102
RTVSPropertyOp26
 70
     1
102
RTVSPropertyOp27
 70
     1
  0
XRECORD
  5
30F
102
{ACAD_REACTORS
330
30E
102
}
330
30E
100
AcDbXrecord
280
     1
102
RTVSPropertyOp0
 70
     1
102
RTVSPropertyOp1
 70
     1
102
RTVSPropertyOp2
 70
     1
102
RTVSPropertyOp3
 70
     1
102
RTVSPropertyOp4
 70
     1
102
RTVSPropertyOp5
 70
     1
102
RTVSPropertyOp6
 70
     1
102
RTVSPropertyOp7
 70
     1
102
RTVSPropertyOp8
 70
     1
102
RTVSPropertyOp9
 70
     1
102
RTVSPropertyOp10
 70
     1
102
RTVSPropertyOp11
 70
     1
102
RTVSPropertyOp12
 70
     1
102
RTVSPropertyOp13
 70
     1
102
RTVSPropertyOp14
 70
     1
102
RTVSPropertyOp15
 70
     1
102
RTVSPropertyOp16
 70
     1
102
RTVSPropertyOp17
 70
     1
102
RTVSPropertyOp18
 70
     1
102
RTVSPropertyOp19
 70
     1
102
RTVSPropertyOp20
 70
     1
102
RTVSPropertyOp21
 70
     1
102
RTVSPropertyOp22
 70
     1
102
RTVSPropertyOp23
 70
     1
102
RTVSPropertyOp24
 70
     1
102
RTVSPropertyOp25
 70
     1
102
RTVSPropertyOp26
 70
     1
102
RTVSPropertyOp27
 70
     1
  0
XRECORD
  5
313
102
{ACAD_REACTORS
330
312
102
}
330
312
100
AcDbXrecord
280
     1
102
RTVSPropertyOp0
 70
     1
102
RTVSPropertyOp1
 70
     1
102
RTVSPropertyOp2
 70
     1
102
RTVSPropertyOp3
 70
     1
102
RTVSPropertyOp4
 70
     1
102
RTVSPropertyOp5
 70
     1
102
RTVSPropertyOp6
 70
     1
102
RTVSPropertyOp7
 70
     1
102
RTVSPropertyOp8
 70
     1
102
RTVSPropertyOp9
 70
     1
102
RTVSPropertyOp10
 70
     1
102
RTVSPropertyOp11
 70
     1
102
RTVSPropertyOp12
 70
     1
102
RTVSPropertyOp13
 70
     1
102
RTVSPropertyOp14
 70
     1
102
RTVSPropertyOp15
 70
     1
102
RTVSPropertyOp16
 70
     1
102
RTVSPropertyOp17
 70
     1
102
RTVSPropertyOp18
 70
     1
102
RTVSPropertyOp19
 70
     1
102
RTVSPropertyOp20
 70
     1
102
RTVSPropertyOp21
 70
     1
102
RTVSPropertyOp22
 70
     1
102
RTVSPropertyOp23
 70
     1
102
RTVSPropertyOp24
 70
     1
102
RTVSPropertyOp25
 70
     1
102
RTVSPropertyOp26
 70
     1
102
RTVSPropertyOp27
 70
     1
  0
XRECORD
  5
323
102
{ACAD_REACTORS
330
322
102
}
330
322
100
AcDbXrecord
280
     1
102
RTVSPropertyOp0
 70
     0
102
RTVSPropertyOp1
 70
     0
102
RTVSPropertyOp2
 70
     0
102
RTVSPropertyOp3
 70
     0
102
RTVSPropertyOp4
 70
     0
102
RTVSPropertyOp5
 70
     0
102
RTVSPropertyOp6
 70
     0
102
RTVSPropertyOp7
 70
     0
102
RTVSPropertyOp8
 70
     0
102
RTVSPropertyOp9
 70
     0
102
RTVSPropertyOp10
 70
     0
102
RTVSPropertyOp11
 70
     0
102
RTVSPropertyOp12
 70
     0
102
RTVSPropertyOp13
 70
     0
102
RTVSPropertyOp14
 70
     2
102
RTVSPropertyOp15
 70
     0
102
RTVSPropertyOp16
 70
     0
102
RTVSPropertyOp17
 70
     0
102
RTVSPropertyOp18
 70
     0
102
RTVSPropertyOp19
 70
     0
102
RTVSPropertyOp20
 70
     0
102
RTVSPropertyOp21
 70
     0
102
RTVSPropertyOp22
 70
     0
102
RTVSPropertyOp23
 70
     0
102
RTVSPropertyOp24
 70
     0
102
RTVSPropertyOp25
 70
     0
102
RTVSPropertyOp26
 70
     0
102
RTVSPropertyOp27
 70
     0
  0
XRECORD
  5
31B
102
{ACAD_REACTORS
330
31A
102
}
330
31A
100
AcDbXrecord
280
     1
102
RTVSPropertyOp0
 70
     1
102
RTVSPropertyOp1
 70
     1
102
RTVSPropertyOp2
 70
     1
102
RTVSPropertyOp3
 70
     1
102
RTVSPropertyOp4
 70
     1
102
RTVSPropertyOp5
 70
     1
102
RTVSPropertyOp6
 70
     1
102
RTVSPropertyOp7
 70
     1
102
RTVSPropertyOp8
 70
     1
102
RTVSPropertyOp9
 70
     1
102
RTVSPropertyOp10
 70
     1
102
RTVSPropertyOp11
 70
     1
102
RTVSPropertyOp12
 70
     1
102
RTVSPropertyOp13
 70
     1
102
RTVSPropertyOp14
 70
     1
102
RTVSPropertyOp15
 70
     1
102
RTVSPropertyOp16
 70
     1
102
RTVSPropertyOp17
 70
     1
102
RTVSPropertyOp18
 70
     1
102
RTVSPropertyOp19
 70
     1
102
RTVSPropertyOp20
 70
     1
102
RTVSPropertyOp21
 70
     1
102
RTVSPropertyOp22
 70
     1
102
RTVSPropertyOp23
 70
     1
102
RTVSPropertyOp24
 70
     1
102
RTVSPropertyOp25
 70
     1
102
RTVSPropertyOp26
 70
     1
102
RTVSPropertyOp27
 70
     1
  0
XRECORD
  5
2FF
102
{ACAD_REACTORS
330
2FE
102
}
330
2FE
100
AcDbXrecord
280
     1
102
RTVSPropertyOp0
 70
     1
102
RTVSPropertyOp1
 70
     1
102
RTVSPropertyOp2
 70
     1
102
RTVSPropertyOp3
 70
     1
102
RTVSPropertyOp4
 70
     1
102
RTVSPropertyOp5
 70
     1
102
RTVSPropertyOp6
 70
     1
102
RTVSPropertyOp7
 70
     1
102
RTVSPropertyOp8
 70
     1
102
RTVSPropertyOp9
 70
     1
102
RTVSPropertyOp10
 70
     1
102
RTVSPropertyOp11
 70
     1
102
RTVSPropertyOp12
 70
     1
102
RTVSPropertyOp13
 70
     1
102
RTVSPropertyOp14
 70
     1
102
RTVSPropertyOp15
 70
     1
102
RTVSPropertyOp16
 70
     1
102
RTVSPropertyOp17
 70
     1
102
RTVSPropertyOp18
 70
     1
102
RTVSPropertyOp19
 70
     1
102
RTVSPropertyOp20
 70
     1
102
RTVSPropertyOp21
 70
     1
102
RTVSPropertyOp22
 70
     1
102
RTVSPropertyOp23
 70
     1
102
RTVSPropertyOp24
 70
     1
102
RTVSPropertyOp25
 70
     1
102
RTVSPropertyOp26
 70
     1
102
RTVSPropertyOp27
 70
     1
  0
XRECORD
  5
301
102
{ACAD_REACTORS
330
300
102
}
330
300
100
AcDbXrecord
280
     1
102
RTVSPropertyOp0
 70
     1
102
RTVSPropertyOp1
 70
     1
102
RTVSPropertyOp2
 70
     1
102
RTVSPropertyOp3
 70
     1
102
RTVSPropertyOp4
 70
     1
102
RTVSPropertyOp5
 70
     1
102
RTVSPropertyOp6
 70
     1
102
RTVSPropertyOp7
 70
     1
102
RTVSPropertyOp8
 70
     1
102
RTVSPropertyOp9
 70
     1
102
RTVSPropertyOp10
 70
     1
102
RTVSPropertyOp11
 70
     1
102
RTVSPropertyOp12
 70
     1
102
RTVSPropertyOp13
 70
     1
102
RTVSPropertyOp14
 70
     1
102
RTVSPropertyOp15
 70
     1
102
RTVSPropertyOp16
 70
     1
102
RTVSPropertyOp17
 70
     1
102
RTVSPropertyOp18
 70
     1
102
RTVSPropertyOp19
 70
     1
102
RTVSPropertyOp20
 70
     1
102
RTVSPropertyOp21
 70
     1
102
RTVSPropertyOp22
 70
     1
102
RTVSPropertyOp23
 70
     1
102
RTVSPropertyOp24
 70
     1
102
RTVSPropertyOp25
 70
     1
102
RTVSPropertyOp26
 70
     1
102
RTVSPropertyOp27
 70
     1
  0
XRECORD
  5
303
102
{ACAD_REACTORS
330
302
102
}
330
302
100
AcDbXrecord
280
     1
102
RTVSPropertyOp0
 70
     1
102
RTVSPropertyOp1
 70
     1
102
RTVSPropertyOp2
 70
     1
102
RTVSPropertyOp3
 70
     1
102
RTVSPropertyOp4
 70
     1
102
RTVSPropertyOp5
 70
     1
102
RTVSPropertyOp6
 70
     1
102
RTVSPropertyOp7
 70
     1
102
RTVSPropertyOp8
 70
     1
102
RTVSPropertyOp9
 70
     1
102
RTVSPropertyOp10
 70
     1
102
RTVSPropertyOp11
 70
     1
102
RTVSPropertyOp12
 70
     1
102
RTVSPropertyOp13
 70
     1
102
RTVSPropertyOp14
 70
     1
102
RTVSPropertyOp15
 70
     1
102
RTVSPropertyOp16
 70
     1
102
RTVSPropertyOp17
 70
     1
102
RTVSPropertyOp18
 70
     1
102
RTVSPropertyOp19
 70
     1
102
RTVSPropertyOp20
 70
     1
102
RTVSPropertyOp21
 70
     1
102
RTVSPropertyOp22
 70
     1
102
RTVSPropertyOp23
 70
     1
102
RTVSPropertyOp24
 70
     1
102
RTVSPropertyOp25
 70
     1
102
RTVSPropertyOp26
 70
     1
102
RTVSPropertyOp27
 70
     1
  0
XRECORD
  5
305
102
{ACAD_REACTORS
330
304
102
}
330
304
100
AcDbXrecord
280
     1
102
RTVSPropertyOp0
 70
     1
102
RTVSPropertyOp1
 70
     1
102
RTVSPropertyOp2
 70
     1
102
RTVSPropertyOp3
 70
     1
102
RTVSPropertyOp4
 70
     1
102
RTVSPropertyOp5
 70
     1
102
RTVSPropertyOp6
 70
     1
102
RTVSPropertyOp7
 70
     1
102
RTVSPropertyOp8
 70
     1
102
RTVSPropertyOp9
 70
     1
102
RTVSPropertyOp10
 70
     1
102
RTVSPropertyOp11
 70
     1
102
RTVSPropertyOp12
 70
     1
102
RTVSPropertyOp13
 70
     1
102
RTVSPropertyOp14
 70
     1
102
RTVSPropertyOp15
 70
     1
102
RTVSPropertyOp16
 70
     1
102
RTVSPropertyOp17
 70
     1
102
RTVSPropertyOp18
 70
     1
102
RTVSPropertyOp19
 70
     1
102
RTVSPropertyOp20
 70
     1
102
RTVSPropertyOp21
 70
     1
102
RTVSPropertyOp22
 70
     1
102
RTVSPropertyOp23
 70
     1
102
RTVSPropertyOp24
 70
     1
102
RTVSPropertyOp25
 70
     1
102
RTVSPropertyOp26
 70
     1
102
RTVSPropertyOp27
 70
     1
  0
XRECORD
  5
31F
102
{ACAD_REACTORS
330
31E
102
}
330
31E
100
AcDbXrecord
280
     1
102
RTVSPropertyOp0
 70
     0
102
RTVSPropertyOp1
 70
     0
102
RTVSPropertyOp2
 70
     0
102
RTVSPropertyOp3
 70
     0
102
RTVSPropertyOp4
 70
     0
102
RTVSPropertyOp5
 70
     0
102
RTVSPropertyOp6
 70
     0
102
RTVSPropertyOp7
 70
     0
102
RTVSPropertyOp8
 70
     0
102
RTVSPropertyOp9
 70
     0
102
RTVSPropertyOp10
 70
     0
102
RTVSPropertyOp11
 70
     0
102
RTVSPropertyOp12
 70
     0
102
RTVSPropertyOp13
 70
     0
102
RTVSPropertyOp14
 70
     2
102
RTVSPropertyOp15
 70
     0
102
RTVSPropertyOp16
 70
     0
102
RTVSPropertyOp17
 70
     0
102
RTVSPropertyOp18
 70
     0
102
RTVSPropertyOp19
 70
     0
102
RTVSPropertyOp20
 70
     0
102
RTVSPropertyOp21
 70
     0
102
RTVSPropertyOp22
 70
     0
102
RTVSPropertyOp23
 70
     0
102
RTVSPropertyOp24
 70
     0
102
RTVSPropertyOp25
 70
     0
102
RTVSPropertyOp26
 70
     0
102
RTVSPropertyOp27
 70
     0
  0
XRECORD
  5
319
102
{ACAD_REACTORS
330
318
102
}
330
318
100
AcDbXrecord
280
     1
102
RTVSPropertyOp0
 70
     1
102
RTVSPropertyOp1
 70
     1
102
RTVSPropertyOp2
 70
     1
102
RTVSPropertyOp3
 70
     1
102
RTVSPropertyOp4
 70
     1
102
RTVSPropertyOp5
 70
     1
102
RTVSPropertyOp6
 70
     1
102
RTVSPropertyOp7
 70
     1
102
RTVSPropertyOp8
 70
     1
102
RTVSPropertyOp9
 70
     1
102
RTVSPropertyOp10
 70
     1
102
RTVSPropertyOp11
 70
     1
102
RTVSPropertyOp12
 70
     1
102
RTVSPropertyOp13
 70
     1
102
RTVSPropertyOp14
 70
     1
102
RTVSPropertyOp15
 70
     1
102
RTVSPropertyOp16
 70
     1
102
RTVSPropertyOp17
 70
     1
102
RTVSPropertyOp18
 70
     1
102
RTVSPropertyOp19
 70
     1
102
RTVSPropertyOp20
 70
     1
102
RTVSPropertyOp21
 70
     1
102
RTVSPropertyOp22
 70
     1
102
RTVSPropertyOp23
 70
     1
102
RTVSPropertyOp24
 70
     1
102
RTVSPropertyOp25
 70
     1
102
RTVSPropertyOp26
 70
     1
102
RTVSPropertyOp27
 70
     1
  0
XRECORD
  5
321
102
{ACAD_REACTORS
330
320
102
}
330
320
100
AcDbXrecord
280
     1
102
RTVSPropertyOp0
 70
     0
102
RTVSPropertyOp1
 70
     0
102
RTVSPropertyOp2
 70
     0
102
RTVSPropertyOp3
 70
     0
102
RTVSPropertyOp4
 70
     0
102
RTVSPropertyOp5
 70
     0
102
RTVSPropertyOp6
 70
     0
102
RTVSPropertyOp7
 70
     0
102
RTVSPropertyOp8
 70
     0
102
RTVSPropertyOp9
 70
     0
102
RTVSPropertyOp10
 70
     0
102
RTVSPropertyOp11
 70
     0
102
RTVSPropertyOp12
 70
     0
102
RTVSPropertyOp13
 70
     0
102
RTVSPropertyOp14
 70
     2
102
RTVSPropertyOp15
 70
     0
102
RTVSPropertyOp16
 70
     0
102
RTVSPropertyOp17
 70
     0
102
RTVSPropertyOp18
 70
     0
102
RTVSPropertyOp19
 70
     0
102
RTVSPropertyOp20
 70
     0
102
RTVSPropertyOp21
 70
     0
102
RTVSPropertyOp22
 70
     0
102
RTVSPropertyOp23
 70
     0
102
RTVSPropertyOp24
 70
     0
102
RTVSPropertyOp25
 70
     0
102
RTVSPropertyOp26
 70
     0
102
RTVSPropertyOp27
 70
     0
  0
XRECORD
  5
311
102
{ACAD_REACTORS
330
310
102
}
330
310
100
AcDbXrecord
280
     1
102
RTVSPropertyOp0
 70
     1
102
RTVSPropertyOp1
 70
     1
102
RTVSPropertyOp2
 70
     1
102
RTVSPropertyOp3
 70
     1
102
RTVSPropertyOp4
 70
     1
102
RTVSPropertyOp5
 70
     1
102
RTVSPropertyOp6
 70
     1
102
RTVSPropertyOp7
 70
     1
102
RTVSPropertyOp8
 70
     1
102
RTVSPropertyOp9
 70
     1
102
RTVSPropertyOp10
 70
     1
102
RTVSPropertyOp11
 70
     1
102
RTVSPropertyOp12
 70
     1
102
RTVSPropertyOp13
 70
     1
102
RTVSPropertyOp14
 70
     1
102
RTVSPropertyOp15
 70
     1
102
RTVSPropertyOp16
 70
     1
102
RTVSPropertyOp17
 70
     1
102
RTVSPropertyOp18
 70
     1
102
RTVSPropertyOp19
 70
     1
102
RTVSPropertyOp20
 70
     1
102
RTVSPropertyOp21
 70
     1
102
RTVSPropertyOp22
 70
     1
102
RTVSPropertyOp23
 70
     1
102
RTVSPropertyOp24
 70
     1
102
RTVSPropertyOp25
 70
     1
102
RTVSPropertyOp26
 70
     1
102
RTVSPropertyOp27
 70
     1
  0
XRECORD
  5
317
102
{ACAD_REACTORS
330
316
102
}
330
316
100
AcDbXrecord
280
     1
102
RTVSPropertyOp0
 70
     1
102
RTVSPropertyOp1
 70
     1
102
RTVSPropertyOp2
 70
     1
102
RTVSPropertyOp3
 70
     1
102
RTVSPropertyOp4
 70
     1
102
RTVSPropertyOp5
 70
     1
102
RTVSPropertyOp6
 70
     1
102
RTVSPropertyOp7
 70
     1
102
RTVSPropertyOp8
 70
     1
102
RTVSPropertyOp9
 70
     1
102
RTVSPropertyOp10
 70
     1
102
RTVSPropertyOp11
 70
     1
102
RTVSPropertyOp12
 70
     1
102
RTVSPropertyOp13
 70
     1
102
RTVSPropertyOp14
 70
     1
102
RTVSPropertyOp15
 70
     1
102
RTVSPropertyOp16
 70
     1
102
RTVSPropertyOp17
 70
     1
102
RTVSPropertyOp18
 70
     1
102
RTVSPropertyOp19
 70
     1
102
RTVSPropertyOp20
 70
     1
102
RTVSPropertyOp21
 70
     1
102
RTVSPropertyOp22
 70
     1
102
RTVSPropertyOp23
 70
     1
102
RTVSPropertyOp24
 70
     1
102
RTVSPropertyOp25
 70
     1
102
RTVSPropertyOp26
 70
     1
102
RTVSPropertyOp27
 70
     1
  0
ENDSEC
  0
EOF
