  0
SECTION
  2
HEADER
  9
$ACADVER
  1
AC1015
  9
$ACADMAINTVER
 70
     6
  9
$DWGCODEPAGE
  3
ANSI_1252
  9
$INSBASE
 10
0.0
 20
0.0
 30
0.0
  9
$EXTMIN
 10
0.0
 20
0.0
 30
0.0
  9
$EXTMAX
 10
1682.0
 20
2378.0
 30
0.0
  9
$LIMMIN
 10
0.0
 20
0.0
  9
$LIMMAX
 10
1682.0
 20
2378.0
  9
$ORTHOMODE
 70
     0
  9
$REGENMODE
 70
     1
  9
$FILLMODE
 70
     1
  9
$QTEXTMODE
 70
     0
  9
$MIRRTEXT
 70
     1
  9
$LTSCALE
 40
1.0
  9
$ATTMODE
 70
     1
  9
$TEXTSIZE
 40
2.5
  9
$TRACEWID
 40
1.0
  9
$TEXTSTYLE
  7
Standard
  9
$CLAYER
  8
0
  9
$CELTYPE
  6
ByLayer
  9
$CECOLOR
 62
   256
  9
$CELTSCALE
 40
1.0
  9
$DISPSILH
 70
     0
  9
$DIMSCALE
 40
1.0
  9
$DIMASZ
 40
2.5
  9
$DIMEXO
 40
0.625
  9
$DIMDLI
 40
3.75
  9
$DIMRND
 40
0.0
  9
$DIMDLE
 40
0.0
  9
$DIMEXE
 40
1.25
  9
$DIMTP
 40
0.0
  9
$DIMTM
 40
0.0
  9
$DIMTXT
 40
2.5
  9
$DIMCEN
 40
2.5
  9
$DIMTSZ
 40
0.0
  9
$DIMTOL
 70
     0
  9
$DIMLIM
 70
     0
  9
$DIMTIH
 70
     0
  9
$DIMTOH
 70
     0
  9
$DIMSE1
 70
     0
  9
$DIMSE2
 70
     0
  9
$DIMTAD
 70
     1
  9
$DIMZIN
 70
     8
  9
$DIMBLK
  1

  9
$DIMASO
 70
     1
  9
$DIMSHO
 70
     1
  9
$DIMPOST
  1

  9
$DIMAPOST
  1

  9
$DIMALT
 70
     0
  9
$DIMALTD
 70
     3
  9
$DIMALTF
 40
0.0393700787
  9
$DIMLFAC
 40
1.0
  9
$DIMTOFL
 70
     1
  9
$DIMTVP
 40
0.0
  9
$DIMTIX
 70
     0
  9
$DIMSOXD
 70
     0
  9
$DIMSAH
 70
     0
  9
$DIMBLK1
  1

  9
$DIMBLK2
  1

  9
$DIMSTYLE
  2
ISO-25
  9
$DIMCLRD
 70
     0
  9
$DIMCLRE
 70
     0
  9
$DIMCLRT
 70
     0
  9
$DIMTFAC
 40
1.0
  9
$DIMGAP
 40
0.625
  9
$DIMJUST
 70
     0
  9
$DIMSD1
 70
     0
  9
$DIMSD2
 70
     0
  9
$DIMTOLJ
 70
     0
  9
$DIMTZIN
 70
     8
  9
$DIMALTZ
 70
     0
  9
$DIMALTTZ
 70
     0
  9
$DIMUPT
 70
     0
  9
$DIMDEC
 70
     2
  9
$DIMTDEC
 70
     2
  9
$DIMALTU
 70
     2
  9
$DIMALTTD
 70
     3
  9
$DIMTXSTY
  7
Standard
  9
$DIMAUNIT
 70
     0
  9
$DIMADEC
 70
     0
  9
$DIMALTRND
 40
0.0
  9
$DIMAZIN
 70
     0
  9
$DIMDSEP
 70
    44
  9
$DIMATFIT
 70
     3
  9
$DIMFRAC
 70
     0
  9
$DIMLDRBLK
  1

  9
$DIMLUNIT
 70
     2
  9
$DIMLWD
 70
    -2
  9
$DIMLWE
 70
    -2
  9
$DIMTMOVE
 70
     0
  9
$LUNITS
 70
     2
  9
$LUPREC
 70
     4
  9
$SKETCHINC
 40
1.0
  9
$FILLETRAD
 40
10.0
  9
$AUNITS
 70
     0
  9
$AUPREC
 70
     0
  9
$MENU
  1
.
  9
$ELEVATION
 40
0.0
  9
$PELEVATION
 40
0.0
  9
$THICKNESS
 40
0.0
  9
$LIMCHECK
 70
     0
  9
$CHAMFERA
 40
10.0
  9
$CHAMFERB
 40
10.0
  9
$CHAMFERC
 40
20.0
  9
$CHAMFERD
 40
0.0
  9
$SKPOLY
 70
     0
  9
$TDCREATE
 40
2455636.378916944
  9
$TDUCREATE
 40
2455636.337250278
  9
$TDUPDATE
 40
2455636.378916956
  9
$TDUUPDATE
 40
2455636.33725029
  9
$TDINDWG
 40
0.0000000116
  9
$TDUSRTIMER
 40
0.0000000116
  9
$USRTIMER
 70
     1
  9
$ANGBASE
 50
0.0
  9
$ANGDIR
 70
     0
  9
$PDMODE
 70
     0
  9
$PDSIZE
 40
0.0
  9
$PLINEWID
 40
0.0
  9
$SPLFRAME
 70
     0
  9
$SPLINETYPE
 70
     6
  9
$SPLINESEGS
 70
     8
  9
$HANDSEED
  5
342
  9
$SURFTAB1
 70
     6
  9
$SURFTAB2
 70
     6
  9
$SURFTYPE
 70
     6
  9
$SURFU
 70
     6
  9
$SURFV
 70
     6
  9
$UCSBASE
  2

  9
$UCSNAME
  2

  9
$UCSORG
 10
0.0
 20
0.0
 30
0.0
  9
$UCSXDIR
 10
1.0
 20
0.0
 30
0.0
  9
$UCSYDIR
 10
0.0
 20
1.0
 30
0.0
  9
$UCSORTHOREF
  2

  9
$UCSORTHOVIEW
 70
     0
  9
$UCSORGTOP
 10
0.0
 20
0.0
 30
0.0
  9
$UCSORGBOTTOM
 10
0.0
 20
0.0
 30
0.0
  9
$UCSORGLEFT
 10
0.0
 20
0.0
 30
0.0
  9
$UCSORGRIGHT
 10
0.0
 20
0.0
 30
0.0
  9
$UCSORGFRONT
 10
0.0
 20
0.0
 30
0.0
  9
$UCSORGBACK
 10
0.0
 20
0.0
 30
0.0
  9
$PUCSBASE
  2

  9
$PUCSNAME
  2

  9
$PUCSORG
 10
0.0
 20
0.0
 30
0.0
  9
$PUCSXDIR
 10
1.0
 20
0.0
 30
0.0
  9
$PUCSYDIR
 10
0.0
 20
1.0
 30
0.0
  9
$PUCSORTHOREF
  2

  9
$PUCSORTHOVIEW
 70
     0
  9
$PUCSORGTOP
 10
0.0
 20
0.0
 30
0.0
  9
$PUCSORGBOTTOM
 10
0.0
 20
0.0
 30
0.0
  9
$PUCSORGLEFT
 10
0.0
 20
0.0
 30
0.0
  9
$PUCSORGRIGHT
 10
0.0
 20
0.0
 30
0.0
  9
$PUCSORGFRONT
 10
0.0
 20
0.0
 30
0.0
  9
$PUCSORGBACK
 10
0.0
 20
0.0
 30
0.0
  9
$USERI1
 70
     0
  9
$USERI2
 70
     0
  9
$USERI3
 70
     0
  9
$USERI4
 70
     0
  9
$USERI5
 70
     0
  9
$USERR1
 40
0.0
  9
$USERR2
 40
0.0
  9
$USERR3
 40
0.0
  9
$USERR4
 40
0.0
  9
$USERR5
 40
0.0
  9
$WORLDVIEW
 70
     1
  9
$SHADEDGE
 70
     3
  9
$SHADEDIF
 70
    70
  9
$TILEMODE
 70
     1
  9
$MAXACTVP
 70
    64
  9
$PINSBASE
 10
0.0
 20
0.0
 30
0.0
  9
$PLIMCHECK
 70
     0
  9
$PEXTMIN
 10
0.0
 20
0.0
 30
0.0
  9
$PEXTMAX
 10
1682.0
 20
2378.0
 30
0.0
  9
$PLIMMIN
 10
0.0
 20
0.0
  9
$PLIMMAX
 10
1682.0
 20
2378.0
  9
$UNITMODE
 70
     0
  9
$VISRETAIN
 70
     1
  9
$PLINEGEN
 70
     0
  9
$PSLTSCALE
 70
     1
  9
$TREEDEPTH
 70
  3020
  9
$CMLSTYLE
  2
Standard
  9
$CMLJUST
 70
     0
  9
$CMLSCALE
 40
20.0
  9
$PROXYGRAPHICS
 70
     1
  9
$MEASUREMENT
 70
     1
  9
$CELWEIGHT
370
    -1
  9
$ENDCAPS
280
     0
  9
$JOINSTYLE
280
     0
  9
$LWDISPLAY
290
     0
  9
$INSUNITS
 70
     4
  9
$HYPERLINKBASE
  1

  9
$STYLESHEET
  1

  9
$XEDIT
290
     1
  9
$CEPSNTYPE
380
     0
  9
$PSTYLEMODE
290
     1
  9
$FINGERPRINTGUID
  2
{746E17F8-F859-41CF-9F9E-749378FD52F0}
  9
$VERSIONGUID
  2
{FAEB1C32-E019-11D5-929B-00C0DF256EC4}
  9
$EXTNAMES
290
     1
  9
$PSVPSCALE
 40
0.0
  9
$OLESTARTUP
290
     0
  0
ENDSEC
  0
SECTION
  2
CLASSES
  0
CLASS
  1
ACDBDICTIONARYWDFLT
  2
AcDbDictionaryWithDefault
  3
ObjectDBX Classes
 90
        0
280
     0
281
     0
  0
CLASS
  1
VISUALSTYLE
  2
AcDbVisualStyle
  3
ObjectDBX Classes
 90
     4095
280
     0
281
     0
  0
CLASS
  1
SCALE
  2
AcDbScale
  3
ObjectDBX Classes
 90
     1153
280
     0
281
     0
  0
CLASS
  1
DICTIONARYVAR
  2
AcDbDictionaryVar
  3
ObjectDBX Classes
 90
        0
280
     0
281
     0
  0
CLASS
  1
ACDBPLACEHOLDER
  2
AcDbPlaceHolder
  3
ObjectDBX Classes
 90
        0
280
     0
281
     0
  0
CLASS
  1
LAYOUT
  2
AcDbLayout
  3
ObjectDBX Classes
 90
        0
280
     0
281
     0
  0
ENDSEC
  0
SECTION
  2
TABLES
  0
TABLE
  2
VPORT
  5
8
330
0
100
AcDbSymbolTable
 70
     1
  0
VPORT
  5
29
330
8
100
AcDbSymbolTableRecord
100
AcDbViewportTableRecord
  2
*Active
 70
     0
 10
0.0
 20
0.0
 11
1.0
 21
1.0
 12
344.1869158879
 22
148.5
 13
0.0
 23
0.0
 14
10.0
 24
10.0
 15
10.0
 25
10.0
 16
0.0
 26
0.0
 36
1.0
 17
0.0
 27
0.0
 37
0.0
 40
297.0
 41
1.9729729729
 42
50.0
 43
0.0
 44
0.0
 50
0.0
 51
0.0
 71
     0
 72
   100
 73
     1
 74
     3
 75
     0
 76
     0
 77
     0
 78
     0
281
     0
 65
     1
110
0.0
120
0.0
130
0.0
111
1.0
121
0.0
131
0.0
112
0.0
122
1.0
132
0.0
 79
     0
146
0.0
  0
ENDTAB
  0
TABLE
  2
LTYPE
  5
5
330
0
100
AcDbSymbolTable
 70
     2
  0
LTYPE
  5
14
330
5
100
AcDbSymbolTableRecord
100
AcDbLinetypeTableRecord
  2
ByBlock
 70
     0
  3

 72
    65
 73
     0
 40
0.0
  0
LTYPE
  5
15
330
5
100
AcDbSymbolTableRecord
100
AcDbLinetypeTableRecord
  2
ByLayer
 70
     0
  3

 72
    65
 73
     0
 40
0.0
  0
LTYPE
  5
16
330
5
100
AcDbSymbolTableRecord
100
AcDbLinetypeTableRecord
  2
Continuous
 70
     0
  3
Solid line
 72
    65
 73
     0
 40
0.0
  0
LTYPE
  5
60
330
5
100
AcDbSymbolTableRecord
100
AcDbLinetypeTableRecord
  2
CENTER2
 70
     0
  3
Center (.5x) ___ _ ___ _ ___ _ ___ _ ___ _ ___
 72
    65
 73
     4
 40
28.575
 49
19.05
 74
     4
 75
     0
340
0
 46
0.0
 50
0.0
 44
0.0
 45
0.0
 49
-3.175
 74
     4
 75
     0
340
0
 46
0.0
 50
0.0
 44
0.0
 45
0.0
 49
3.175
 74
     4
 75
     0
340
0
 46
0.0
 50
0.0
 44
0.0
 45
0.0
 49
-3.175
 74
     4
 75
     0
340
0
 46
0.0
 50
0.0
 44
0.0
 45
0.0
  0
ENDTAB
  0
TABLE
  2
LAYER
  5
2
330
0
100
AcDbSymbolTable
 70
    10
  0
LAYER
  5
10
330
2
100
AcDbSymbolTableRecord
100
AcDbLayerTableRecord
  2
0
 70
     0
 62
     7
  6
Continuous
370
    -3
390
F
  0
LAYER
  5
5D
330
2
100
AcDbSymbolTableRecord
100
AcDbLayerTableRecord
  2
Default
 70
     0
 62
     7
  6
Continuous
370
    -3
390
F
  0
LAYER
  5
74
330
2
100
AcDbSymbolTableRecord
100
AcDbLayerTableRecord
  2
$DDT_AUDIT_GENERATED_(74)
 70
     0
 62
     7
  6
Continuous
370
    -3
390
F
  0
LAYER
  5
87
330
2
100
AcDbSymbolTableRecord
100
AcDbLayerTableRecord
  2
$DDT_AUDIT_GENERATED_(87)
 70
     0
 62
     7
  6
Continuous
370
    -3
390
F
  0
LAYER
  5
AE
330
2
100
AcDbSymbolTableRecord
100
AcDbLayerTableRecord
  2
$DDT_AUDIT_GENERATED_(AE)
 70
     0
 62
     7
  6
Continuous
370
    -3
390
F
  0
LAYER
  5
B9
330
2
100
AcDbSymbolTableRecord
100
AcDbLayerTableRecord
  2
02636038_GEH_USE
 70
     0
 62
     7
  6
Continuous
370
    -3
390
F
  0
LAYER
  5
D1
330
2
100
AcDbSymbolTableRecord
100
AcDbLayerTableRecord
  2
64647040_EINSATZ
 70
     0
 62
     7
  6
Continuous
370
    -3
390
F
  0
LAYER
  5
260
330
2
100
AcDbSymbolTableRecord
100
AcDbLayerTableRecord
  2
$DDT_AUDIT_GENERATED_(260)
 70
     0
 62
     7
  6
Continuous
370
    -3
390
F
  0
LAYER
  5
2CC
330
2
100
AcDbSymbolTableRecord
100
AcDbLayerTableRecord
  2
$DDT_AUDIT_GENERATED_(2CC)
 70
     0
 62
     7
  6
Continuous
370
    -3
390
F
  0
LAYER
  5
2CF
330
2
100
AcDbSymbolTableRecord
100
AcDbLayerTableRecord
  2
$DDT_AUDIT_GENERATED_(2CF)
 70
     0
 62
     7
  6
Continuous
370
    -3
390
F
  0
ENDTAB
  0
TABLE
  2
STYLE
  5
3
330
0
100
AcDbSymbolTable
 70
     2
  0
STYLE
  5
11
330
3
100
AcDbSymbolTableRecord
100
AcDbTextStyleTableRecord
  2
Standard
 70
     0
 40
0.0
 41
1.0
 50
0.0
 71
     0
 42
2.5
  3
txt
  4

  0
STYLE
  5
331
330
3
100
AcDbSymbolTableRecord
100
AcDbTextStyleTableRecord
  2
SEACAD_seiso_ttf
 70
     0
 40
0.0
 41
1.0
 50
0.0
 71
     0
 42
0.2
  3
seiso.ttf
  4

  0
ENDTAB
  0
TABLE
  2
VIEW
  5
6
330
0
100
AcDbSymbolTable
 70
     0
  0
ENDTAB
  0
TABLE
  2
UCS
  5
7
330
0
100
AcDbSymbolTable
 70
     0
  0
ENDTAB
  0
TABLE
  2
APPID
  5
9
330
0
100
AcDbSymbolTable
 70
     1
  0
APPID
  5
12
330
9
100
AcDbSymbolTableRecord
100
AcDbRegAppTableRecord
  2
ACAD
 70
     0
  0
ENDTAB
  0
TABLE
  2
DIMSTYLE
  5
A
330
0
100
AcDbSymbolTable
 70
     1
100
AcDbDimStyleTable
  0
DIMSTYLE
105
27
330
A
100
AcDbSymbolTableRecord
100
AcDbDimStyleTableRecord
  2
ISO-25
 70
     0
 41
2.5
 42
0.625
 43
3.75
 44
1.25
 73
     0
 74
     0
 77
     1
 78
     8
140
2.5
141
2.5
143
0.0393700787
147
0.625
171
     3
172
     1
271
     2
272
     2
274
     3
278
    44
283
     0
284
     8
340
11
  0
ENDTAB
  0
TABLE
  2
BLOCK_RECORD
  5
1
330
0
100
AcDbSymbolTable
 70
     7
  0
BLOCK_RECORD
  5
1F
330
1
100
AcDbSymbolTableRecord
100
AcDbBlockTableRecord
  2
*Model_Space
340
22
  0
BLOCK_RECORD
  5
1B
330
1
100
AcDbSymbolTableRecord
100
AcDbBlockTableRecord
  2
*Paper_Space
340
1E
  0
BLOCK_RECORD
  5
5E
330
1
100
AcDbSymbolTableRecord
100
AcDbBlockTableRecord
  2
SEANNOT_GROUP
340
0
102
{BLKREFS
331
5F
102
}
  0
BLOCK_RECORD
  5
65
330
1
100
AcDbSymbolTableRecord
100
AcDbBlockTableRecord
  2
SEANNOT_GROUP1
340
0
102
{BLKREFS
331
66
102
}
  0
BLOCK_RECORD
  5
6C
330
1
100
AcDbSymbolTableRecord
100
AcDbBlockTableRecord
  2
SEANNOT_GROUP2
340
0
102
{BLKREFS
331
6D
102
}
  0
BLOCK_RECORD
  5
72
330
1
100
AcDbSymbolTableRecord
100
AcDbBlockTableRecord
  2
SE
340
0
102
{BLKREFS
331
73
102
}
  0
BLOCK_RECORD
  5
265
330
1
100
AcDbSymbolTableRecord
100
AcDbBlockTableRecord
  2
SE1
340
0
102
{BLKREFS
331
266
102
}
  0
BLOCK_RECORD
  5
2D9
330
1
100
AcDbSymbolTableRecord
100
AcDbBlockTableRecord
  2
SE2
340
0
102
{BLKREFS
331
2DA
102
}
  0
ENDTAB
  0
ENDSEC
  0
SECTION
  2
BLOCKS
  0
BLOCK
  5
20
330
1F
100
AcDbEntity
  8
0
100
AcDbBlockBegin
  2
*Model_Space
 70
     0
 10
0.0
 20
0.0
 30
0.0
  3
*Model_Space
  1

  0
ENDBLK
  5
21
330
1F
100
AcDbEntity
  8
0
100
AcDbBlockEnd
  0
BLOCK
  5
1C
330
1B
100
AcDbEntity
 67
     1
  8
0
100
AcDbBlockBegin
  2
*Paper_Space
 70
     0
 10
0.0
 20
0.0
 30
0.0
  3
*Paper_Space
  1

  0
ENDBLK
  5
1D
330
1B
100
AcDbEntity
 67
     1
  8
0
100
AcDbBlockEnd
  0
BLOCK
  5
63
330
5E
100
AcDbEntity
  8
0
100
AcDbBlockBegin
  2
SEANNOT_GROUP
 70
     0
 10
0.0
 20
0.0
 30
0.0
  3
SEANNOT_GROUP
  1

  0
LINE
  5
61
330
5E
100
AcDbEntity
  8
Default
  6
CENTER2
 62
     7
100
AcDbLine
 10
62.6746092525
 20
329.6467833016
 30
0.0
 11
22.6746101465
 21
329.6467833016
 31
0.0
  0
LINE
  5
62
330
5E
100
AcDbEntity
  8
Default
  6
CENTER2
 62
     7
100
AcDbLine
 10
42.6746096995
 20
349.6467828545
 30
0.0
 11
42.6746096995
 21
309.6467837486
 31
0.0
  0
ENDBLK
  5
64
330
5E
100
AcDbEntity
  8
0
100
AcDbBlockEnd
  0
BLOCK
  5
69
330
65
100
AcDbEntity
  8
0
100
AcDbBlockBegin
  2
SEANNOT_GROUP1
 70
     0
 10
0.0
 20
0.0
 30
0.0
  3
SEANNOT_GROUP1
  1

  0
LINE
  5
67
330
65
100
AcDbEntity
  8
Default
  6
CENTER2
 62
     7
100
AcDbLine
 10
193.0819514355
 20
329.6467833016
 30
0.0
 11
153.0819523296
 21
329.6467833016
 31
0.0
  0
LINE
  5
68
330
65
100
AcDbEntity
  8
Default
  6
CENTER2
 62
     7
100
AcDbLine
 10
173.0819518825
 20
349.6467828545
 30
0.0
 11
173.0819518825
 21
309.6467837486
 31
0.0
  0
ENDBLK
  5
6A
330
65
100
AcDbEntity
  8
0
100
AcDbBlockEnd
  0
BLOCK
  5
70
330
6C
100
AcDbEntity
  8
0
100
AcDbBlockBegin
  2
SEANNOT_GROUP2
 70
     0
 10
0.0
 20
0.0
 30
0.0
  3
SEANNOT_GROUP2
  1

  0
LINE
  5
6E
330
6C
100
AcDbEntity
  8
Default
  6
CENTER2
 62
     7
100
AcDbLine
 10
62.6746092525
 20
216.35
 30
0.0
 11
22.6746101465
 21
216.35
 31
0.0
  0
LINE
  5
6F
330
6C
100
AcDbEntity
  8
Default
  6
CENTER2
 62
     7
100
AcDbLine
 10
42.6746096995
 20
236.349999553
 30
0.0
 11
42.6746096995
 21
196.350000447
 31
0.0
  0
ENDBLK
  5
71
330
6C
100
AcDbEntity
  8
0
100
AcDbBlockEnd
  0
BLOCK
  5
263
330
72
100
AcDbEntity
  8
0
100
AcDbBlockBegin
  2
SE
 70
     0
 10
0.0
 20
0.0
 30
0.0
  3
SE
  1

  0
LINE
  5
75
330
72
100
AcDbEntity
  8
$DDT_AUDIT_GENERATED_(74)
  6
Continuous
 62
     7
100
AcDbLine
 10
21.6746096995
 20
425.6467833016
 30
0.0
 11
31.3020861219
 21
425.6467833016
 31
0.0
  0
LINE
  5
76
330
72
100
AcDbEntity
  8
$DDT_AUDIT_GENERATED_(74)
  6
Continuous
 62
     7
100
AcDbLine
 10
54.0471332771
 20
425.6467833016
 30
0.0
 11
63.6746096995
 21
425.6467833016
 31
0.0
  0
LINE
  5
77
330
72
100
AcDbEntity
  8
$DDT_AUDIT_GENERATED_(74)
  6
Continuous
 62
     7
100
AcDbLine
 10
21.6746096995
 20
444.6467833016
 30
0.0
 11
63.6746096995
 21
444.6467833016
 31
0.0
  0
LINE
  5
78
330
72
100
AcDbEntity
  8
$DDT_AUDIT_GENERATED_(74)
  6
Continuous
 62
     7
100
AcDbLine
 10
21.1746096995
 20
420.6467833016
 30
0.0
 11
21.1746096995
 21
426.1467833016
 31
0.0
  0
LINE
  5
79
330
72
100
AcDbEntity
  8
$DDT_AUDIT_GENERATED_(74)
  6
Continuous
 62
     7
100
AcDbLine
 10
21.1746096995
 20
433.3204467955
 30
0.0
 11
21.1746096995
 21
426.1467833016
 31
0.0
  0
LINE
  5
7A
330
72
100
AcDbEntity
  8
$DDT_AUDIT_GENERATED_(74)
  6
Continuous
 62
     7
100
AcDbLine
 10
21.1746096995
 20
433.3204467955
 30
0.0
 11
21.1746096995
 21
444.1467833016
 31
0.0
  0
LINE
  5
7B
330
72
100
AcDbEntity
  8
$DDT_AUDIT_GENERATED_(74)
  6
Continuous
 62
     7
100
AcDbLine
 10
21.1746096995
 20
420.6467833016
 30
0.0
 11
21.1746096995
 21
337.6467833016
 31
0.0
  0
LINE
  5
7C
330
72
100
AcDbEntity
  8
$DDT_AUDIT_GENERATED_(74)
  6
Continuous
 62
     7
100
AcDbLine
 10
64.1746096995
 20
444.1467833016
 30
0.0
 11
64.1746096995
 21
433.3204467955
 31
0.0
  0
LINE
  5
7D
330
72
100
AcDbEntity
  8
$DDT_AUDIT_GENERATED_(74)
  6
Continuous
 62
     7
100
AcDbLine
 10
64.1746096995
 20
426.1467833016
 30
0.0
 11
64.1746096995
 21
433.3204467955
 31
0.0
  0
LINE
  5
7E
330
72
100
AcDbEntity
  8
$DDT_AUDIT_GENERATED_(74)
  6
Continuous
 62
     7
100
AcDbLine
 10
64.1746096995
 20
426.1467833016
 30
0.0
 11
64.1746096995
 21
420.6467833015
 31
0.0
  0
LINE
  5
7F
330
72
100
AcDbEntity
  8
$DDT_AUDIT_GENERATED_(74)
  6
Continuous
 62
     7
100
AcDbLine
 10
64.1746096995
 20
337.6467833016
 30
0.0
 11
64.1746096995
 21
420.6467833015
 31
0.0
  0
ARC
  5
80
330
72
100
AcDbEntity
  8
$DDT_AUDIT_GENERATED_(74)
  6
Continuous
 62
     7
100
AcDbCircle
 10
21.6746096995
 20
444.1467833016
 30
0.0
 40
0.5000000000000664
100
AcDbArc
 50
90.0
 51
180.0
  0
ARC
  5
81
330
72
100
AcDbEntity
  8
$DDT_AUDIT_GENERATED_(74)
  6
Continuous
 62
     7
100
AcDbCircle
 10
63.6746096995
 20
444.1467833016
 30
0.0
 40
0.4999999999998894
100
AcDbArc
 50
0.0
 51
90.0
  0
ARC
  5
82
330
72
100
AcDbEntity
  8
$DDT_AUDIT_GENERATED_(74)
  6
Continuous
 62
     7
100
AcDbCircle
 10
21.6746096995
 20
426.1467833016
 30
0.0
 40
0.5000000000126015
100
AcDbArc
 50
180.0
 51
269.9999999993
  0
ARC
  5
83
330
72
100
AcDbEntity
  8
$DDT_AUDIT_GENERATED_(74)
  6
Continuous
 62
     7
100
AcDbCircle
 10
63.6746096995
 20
426.1467833016
 30
0.0
 40
0.5000000000022868
100
AcDbArc
 50
270.0
 51
0.0
  0
LINE
  5
84
330
72
100
AcDbEntity
  8
$DDT_AUDIT_GENERATED_(74)
  6
Continuous
 62
     7
100
AcDbLine
 10
63.6746096995
 20
432.8374838824
 30
0.0
 11
21.6746096995
 21
432.8374838824
 31
0.0
  0
ELLIPSE
  5
85
330
72
100
AcDbEntity
  8
$DDT_AUDIT_GENERATED_(74)
  6
Continuous
 62
     7
100
AcDbEllipse
 10
42.6746096995
 20
429.1399432448
 30
0.0
 11
12.24999999999937
 21
1.387778780781446E-14
 31
0.0
210
0.0
220
0.0
230
1.0
 40
0.260762731
 41
0.0
 42
3.413481710702404
  0
ELLIPSE
  5
86
330
72
100
AcDbEntity
  8
$DDT_AUDIT_GENERATED_(74)
  6
Continuous
 62
     7
100
AcDbEllipse
 10
42.6746096995
 20
429.1399432448
 30
0.0
 11
12.24999999999937
 21
1.387778780781446E-14
 31
0.0
210
0.0
220
0.0
230
1.0
 40
0.260762731
 41
6.01129625006693
 42
6.283185307179586
  0
LINE
  5
88
330
72
100
AcDbEntity
  8
$DDT_AUDIT_GENERATED_(87)
  6
Continuous
 62
     7
100
AcDbLine
 10
63.9017825742
 20
446.6395876288
 30
0.0
 11
63.6527338997
 21
446.6395876288
 31
0.0
  0
LINE
  5
89
330
72
100
AcDbEntity
  8
$DDT_AUDIT_GENERATED_(87)
  6
Continuous
 62
     7
100
AcDbLine
 10
63.6527338997
 20
446.6395876288
 30
0.0
 11
21.6964854993
 21
446.6395876288
 31
0.0
  0
LINE
  5
8A
330
72
100
AcDbEntity
  8
$DDT_AUDIT_GENERATED_(87)
  6
Continuous
 62
     7
100
AcDbLine
 10
21.6964854993
 20
446.6395876288
 30
0.0
 11
21.4474368248
 21
446.6395876288
 31
0.0
  0
ARC
  5
8B
330
72
100
AcDbEntity
  8
$DDT_AUDIT_GENERATED_(87)
  6
Continuous
 62
     7
100
AcDbCircle
 10
63.9017825742
 20
446.8895876288
 30
0.0
 40
0.2500000000000202
100
AcDbArc
 50
333.587104578
 51
5.0
  0
ARC
  5
8C
330
72
100
AcDbEntity
  8
$DDT_AUDIT_GENERATED_(87)
  6
Continuous
 62
     7
100
AcDbCircle
 10
63.9017825742
 20
446.8895876288
 30
0.0
 40
0.2500000000000202
100
AcDbArc
 50
270.0
 51
293.5976854981
  0
ARC
  5
8D
330
72
100
AcDbEntity
  8
$DDT_AUDIT_GENERATED_(87)
  6
Continuous
 62
     7
100
AcDbCircle
 10
21.4474368248
 20
446.8895876288
 30
0.0
 40
0.2500000000000002
100
AcDbArc
 50
247.3977471503
 51
270.0
  0
ARC
  5
8E
330
72
100
AcDbEntity
  8
$DDT_AUDIT_GENERATED_(87)
  6
Continuous
 62
     7
100
AcDbCircle
 10
21.4474368248
 20
446.8895876288
 30
0.0
 40
0.2500000000000002
100
AcDbArc
 50
175.0
 51
207.4622413315
  0
LINE
  5
8F
330
72
100
AcDbEntity
  8
$DDT_AUDIT_GENERATED_(87)
  6
Continuous
 62
     7
100
AcDbLine
 10
52.1746096995
 20
477.9148236573
 30
0.0
 11
33.1746096995
 21
477.9148236573
 31
0.0
  0
ELLIPSE
  5
90
330
72
100
AcDbEntity
  8
$DDT_AUDIT_GENERATED_(87)
  6
Continuous
 62
     7
100
AcDbEllipse
 10
33.174471741
 20
478.2194802029
 30
0.0
 11
2.49986204534795
 21
-6.938893903907228E-13
 31
0.0
210
0.0
220
0.0
230
1.0
 40
0.1218693434
 41
3.141537467103596
 42
4.712444166820432
  0
LINE
  5
91
330
72
100
AcDbEntity
  8
$DDT_AUDIT_GENERATED_(87)
  6
Continuous
 62
     7
100
AcDbLine
 10
30.6746096995
 20
478.2194970158
 30
0.0
 11
30.6746096995
 21
480.5350161849
 31
0.0
  0
LINE
  5
92
330
72
100
AcDbEntity
  8
$DDT_AUDIT_GENERATED_(87)
  6
Continuous
 62
     7
100
AcDbLine
 10
54.6746096995
 20
480.5350161849
 30
0.0
 11
54.6746096995
 21
478.2194970158
 31
0.0
  0
ELLIPSE
  5
93
330
72
100
AcDbEntity
  8
$DDT_AUDIT_GENERATED_(87)
  6
Continuous
 62
     7
100
AcDbEllipse
 10
52.174747658
 20
478.2194802029
 30
0.0
 11
-2.499862045347731
 21
2.775557561562891E-13
 31
0.0
210
0.0
220
0.0
230
1.0
 40
0.1218693434
 41
1.570741140361158
 42
3.141647840011614
  0
LINE
  5
94
330
72
100
AcDbEntity
  8
$DDT_AUDIT_GENERATED_(87)
  6
Continuous
 62
     7
100
AcDbLine
 10
24.2244140025
 20
475.2658806268
 30
0.0
 11
61.1248053965
 21
475.2658806268
 31
0.0
  0
LINE
  5
95
330
72
100
AcDbEntity
  8
$DDT_AUDIT_GENERATED_(87)
  6
Continuous
 62
     7
100
AcDbLine
 10
60.5038831226
 20
482.3630546915
 30
0.0
 11
24.8453362764
 21
482.3630546914
 31
0.0
  0
LINE
  5
96
330
72
100
AcDbEntity
  8
$DDT_AUDIT_GENERATED_(87)
  6
Continuous
 62
     7
100
AcDbLine
 10
61.0019804718
 20
482.9029056387
 30
0.0
 11
60.7414708629
 21
485.8805440937
 31
0.0
  0
LINE
  5
97
330
72
100
AcDbEntity
  8
$DDT_AUDIT_GENERATED_(87)
  6
Continuous
 62
     7
100
AcDbLine
 10
61.6229027455
 20
475.8057315748
 30
0.0
 11
61.0019804718
 21
482.9029056387
 31
0.0
  0
LINE
  5
98
330
72
100
AcDbEntity
  8
$DDT_AUDIT_GENERATED_(87)
  6
Continuous
 62
     7
100
AcDbLine
 10
24.6077485361
 20
485.8805440937
 30
0.0
 11
24.3472389272
 21
482.9029056387
 31
0.0
  0
LINE
  5
99
330
72
100
AcDbEntity
  8
$DDT_AUDIT_GENERATED_(87)
  6
Continuous
 62
     7
100
AcDbLine
 10
24.3472389272
 20
482.9029056387
 30
0.0
 11
23.7263166536
 21
475.805731575
 31
0.0
  0
LINE
  5
9A
330
72
100
AcDbEntity
  8
$DDT_AUDIT_GENERATED_(87)
  6
Continuous
 62
     7
100
AcDbLine
 10
64.1508312488
 20
446.9113765645
 30
0.0
 11
61.9535186107
 21
472.0267749435
 31
0.0
  0
ARC
  5
9B
330
72
100
AcDbEntity
  8
$DDT_AUDIT_GENERATED_(87)
  6
Continuous
 62
     7
100
AcDbCircle
 10
21.4474368248
 20
444.1494280068
 30
0.0
 40
2.773154355242849
100
AcDbArc
 50
94.9441458641
 51
95.1525040712
  0
LINE
  5
9C
330
72
100
AcDbEntity
  8
$DDT_AUDIT_GENERATED_(87)
  6
Continuous
 62
     7
100
AcDbLine
 10
23.3957007883
 20
472.0267749435
 30
0.0
 11
21.1983881502
 21
446.9113765645
 31
0.0
  0
LINE
  5
9D
330
72
100
AcDbEntity
  8
$DDT_AUDIT_GENERATED_(87)
  6
Continuous
 62
     7
100
AcDbLine
 10
61.9535186107
 20
472.0267749435
 30
0.0
 11
61.6229027455
 21
475.8057315748
 31
0.0
  0
LINE
  5
9E
330
72
100
AcDbEntity
  8
$DDT_AUDIT_GENERATED_(87)
  6
Continuous
 62
     7
100
AcDbLine
 10
23.7263166536
 20
475.805731575
 30
0.0
 11
23.3957007883
 21
472.0267749435
 31
0.0
  0
LINE
  5
9F
330
72
100
AcDbEntity
  8
$DDT_AUDIT_GENERATED_(87)
  6
Continuous
 62
     7
100
AcDbLine
 10
31.1746096995
 20
480.7062275084
 30
0.0
 11
31.1746096995
 21
478.7157700916
 31
0.0
  0
LINE
  5
A0
330
72
100
AcDbEntity
  8
$DDT_AUDIT_GENERATED_(87)
  6
Continuous
 62
     7
100
AcDbLine
 10
33.1746096995
 20
478.4720314048
 30
0.0
 11
52.1746096995
 21
478.4720314048
 31
0.0
  0
LINE
  5
A1
330
72
100
AcDbEntity
  8
$DDT_AUDIT_GENERATED_(87)
  6
Continuous
 62
     7
100
AcDbLine
 10
54.1746096995
 20
478.7157700916
 30
0.0
 11
54.1746096995
 21
480.7065999045
 31
0.0
  0
SPLINE
  5
A2
330
72
100
AcDbEntity
  8
$DDT_AUDIT_GENERATED_(87)
  6
Continuous
 62
     7
100
AcDbSpline
210
0.0
220
0.0
230
1.0
 70
    12
 71
     3
 72
     8
 73
     4
 74
     0
 42
0.000000004653303
 43
0.0000000001
 40
0.0
 40
0.0
 40
0.0
 40
0.0
 40
1.0
 40
1.0
 40
1.0
 40
1.0
 10
33.17460969950018
 20
478.4720314047814
 30
0.0
 41
1.0
 10
32.00298066154443
 20
478.4720197201436
 30
0.0
 41
0.8047099331477315
 10
31.17451382120726
 20
478.5729844300073
 30
0.0
 41
0.8047099331477315
 10
31.17460969950019
 20
478.7157700915925
 30
0.0
 41
1.0
  0
SPLINE
  5
A3
330
72
100
AcDbEntity
  8
$DDT_AUDIT_GENERATED_(87)
  6
Continuous
 62
     7
100
AcDbSpline
210
0.0
220
0.0
230
1.0
 70
    12
 71
     3
 72
     8
 73
     4
 74
     0
 42
0.000000004653303
 43
0.0000000001
 40
0.0
 40
0.0
 40
0.0
 40
0.0
 40
1.0
 40
1.0
 40
1.0
 40
1.0
 10
54.17460969950019
 20
478.7157700915925
 30
0.0
 41
1.0
 10
54.1747055777907
 20
478.5729844300093
 30
0.0
 41
0.8047099331477519
 10
53.34623873745605
 20
478.4720197201434
 30
0.0
 41
0.8047099331477519
 10
52.17460969950018
 20
478.4720314047814
 30
0.0
 41
1.0
  0
LINE
  5
A4
330
72
100
AcDbEntity
  8
$DDT_AUDIT_GENERATED_(87)
  6
Continuous
 62
     7
100
AcDbLine
 10
60.2433735139
 20
486.3369662223
 30
0.0
 11
25.1058458851
 21
486.3369662223
 31
0.0
  0
ARC
  5
A5
330
72
100
AcDbEntity
  8
$DDT_AUDIT_GENERATED_(87)
  6
Continuous
 62
     7
100
AcDbCircle
 10
60.2433735139
 20
485.8369662223
 30
0.0
 40
0.4999999999999333
100
AcDbArc
 50
5.0
 51
90.0
  0
ARC
  5
A6
330
72
100
AcDbEntity
  8
$DDT_AUDIT_GENERATED_(87)
  6
Continuous
 62
     7
100
AcDbCircle
 10
25.1058458851
 20
485.8369662223
 30
0.0
 40
0.5000000000036364
100
AcDbArc
 50
90.0
 51
175.0
  0
ARC
  5
A7
330
72
100
AcDbEntity
  8
$DDT_AUDIT_GENERATED_(87)
  6
Continuous
 62
     7
100
AcDbCircle
 10
63.909799134
 20
446.8760271035
 30
0.0
 40
0.2344190746227923
100
AcDbArc
 50
291.8378165162
 51
9.610439349
  0
ARC
  5
A8
330
72
100
AcDbEntity
  8
$DDT_AUDIT_GENERATED_(87)
  6
Continuous
 62
     7
100
AcDbCircle
 10
21.4394209383
 20
446.8760298755
 30
0.0
 40
0.2344212063594425
100
AcDbArc
 50
170.3904502198
 51
248.1446357239
  0
LINE
  5
A9
330
72
100
AcDbEntity
  8
$DDT_AUDIT_GENERATED_(87)
  6
Continuous
 62
     7
100
AcDbLine
 10
33.1721096995
 20
480.8359626193
 30
0.0
 11
52.1771096995
 21
480.8359626193
 31
0.0
  0
ARC
  5
AA
330
72
100
AcDbEntity
  8
$DDT_AUDIT_GENERATED_(87)
  6
Continuous
 62
     7
100
AcDbCircle
 10
33.1737403315
 20
461.0251485323
 30
0.0
 40
19.81081935074454
100
AcDbArc
 50
89.9978282303
 51
91.0634011383
  0
SPLINE
  5
AB
330
72
100
AcDbEntity
  8
$DDT_AUDIT_GENERATED_(87)
  6
Continuous
 62
     7
100
AcDbSpline
210
0.0
220
0.0
230
1.0
 70
     8
 71
     3
 72
    20
 73
    16
 74
     0
 42
0.0000000041327015
 43
0.0000000001
 40
0.2344121022170273
 40
0.2344121022170273
 40
0.2344121022170273
 40
0.2344121022170273
 40
0.2535457782744494
 40
0.303508686406999
 40
0.3593890890663104
 40
0.4200128232992196
 40
0.4842929240480132
 40
0.5512811313809128
 40
0.6201269406385439
 40
0.6900362103504379
 40
0.7601571706861643
 40
0.8292694927198205
 40
0.894728585937088
 40
0.9540854972200757
 40
1.0
 40
1.0
 40
1.0
 40
1.0
 10
30.9666667770776
 20
480.6549599726151
 30
0.0
 10
30.96684651017491
 20
480.6550403811988
 30
0.0
 10
30.97046718671966
 20
480.6566475681456
 30
0.0
 10
30.99433457740416
 20
480.6652491532579
 30
0.0
 10
31.05315139315135
 20
480.6815450327694
 30
0.0
 10
31.14275701631648
 20
480.7012791663038
 30
0.0
 10
31.26228551467372
 20
480.7225294591616
 30
0.0
 10
31.40992512951662
 20
480.7438814448098
 30
0.0
 10
31.58296143518215
 20
480.7642685634135
 30
0.0
 10
31.77777189098472
 20
480.7828707339155
 30
0.0
 10
31.98917712697231
 20
480.7990338370668
 30
0.0
 10
32.20994520141594
 20
480.812241159909
 30
0.0
 10
32.4271546154616
 20
480.8221029634742
 30
0.0
 10
32.62992877711553
 20
480.8288206561961
 30
0.0
 10
32.74611949022964
 20
480.8313117001798
 30
0.0
 10
32.80607558255014
 20
480.8325558835863
 30
0.0
  0
SPLINE
  5
AC
330
72
100
AcDbEntity
  8
$DDT_AUDIT_GENERATED_(87)
  6
Continuous
 62
     7
100
AcDbSpline
210
0.0
220
0.0
230
1.0
 70
     8
 71
     3
 72
    22
 73
    18
 74
     0
 42
0.0000000040554891
 43
0.0000000001
 40
0.0
 40
0.0
 40
0.0
 40
0.0
 40
0.0302639346148867
 40
0.0858051664054116
 40
0.1425759813732128
 40
0.2025022230414458
 40
0.2638399816081665
 40
0.3257790604804053
 40
0.3876005427777292
 40
0.448684871189541
 40
0.508434187032883
 40
0.5662209239836289
 40
0.6213490759614896
 40
0.6730453790919524
 40
0.7205220061383338
 40
0.7631765357689483
 40
0.7695186930705517
 40
0.7695186930705517
 40
0.7695186930705517
 40
0.7695186930705517
 10
52.49817570224135
 20
480.8333075032891
 30
0.0
 10
52.53837644604332
 20
480.8326099941744
 30
0.0
 10
52.6351244847277
 20
480.8308826737388
 30
0.0
 10
52.80908482857703
 20
480.8260930775554
 30
0.0
 10
53.0079853757826
 20
480.8184705711772
 30
0.0
 10
53.20850464454016
 20
480.8083616401446
 30
0.0
 10
53.40511160759612
 20
480.7957714550911
 30
0.0
 10
53.59246456110621
 20
480.7809219865473
 30
0.0
 10
53.76608372306877
 20
480.7641523787787
 30
0.0
 10
53.92248026448355
 20
480.7459177415258
 30
0.0
 10
54.05882157534629
 20
480.7268060594194
 30
0.0
 10
54.1729172259445
 20
480.7075678671357
 30
0.0
 10
54.26317616406514
 20
480.6891717744571
 30
0.0
 10
54.32865946903578
 20
480.6728846795192
 30
0.0
 10
54.36921252607252
 20
480.6603692927469
 30
0.0
 10
54.38160412243219
 20
480.6554077520444
 30
0.0
 10
54.38254141946362
 20
480.654979853392
 30
0.0
 10
54.38256980383038
 20
480.6549650746406
 30
0.0
  0
ARC
  5
AD
330
72
100
AcDbEntity
  8
$DDT_AUDIT_GENERATED_(87)
  6
Continuous
 62
     7
100
AcDbCircle
 10
51.9604631047
 20
435.121872372
 30
0.0
 40
45.71459763138753
100
AcDbArc
 50
89.3260495665
 51
89.7314527909
  0
LINE
  5
AF
330
72
100
AcDbEntity
  8
$DDT_AUDIT_GENERATED_(AE)
  6
Continuous
 62
     7
100
AcDbLine
 10
67.0746096995
 20
337.6467833016
 30
0.0
 11
68.1746096995
 21
337.6467833016
 31
0.0
  0
LINE
  5
B0
330
72
100
AcDbEntity
  8
$DDT_AUDIT_GENERATED_(AE)
  6
Continuous
 62
     7
100
AcDbLine
 10
17.1746096995
 20
337.6467833016
 30
0.0
 11
18.2746096995
 21
337.6467833016
 31
0.0
  0
LINE
  5
B1
330
72
100
AcDbEntity
  8
$DDT_AUDIT_GENERATED_(AE)
  6
Continuous
 62
     7
100
AcDbLine
 10
18.2746096995
 20
337.6467833016
 30
0.0
 11
67.0746096995
 21
337.6467833016
 31
0.0
  0
LINE
  5
B2
330
72
100
AcDbEntity
  8
$DDT_AUDIT_GENERATED_(AE)
  6
Continuous
 62
     7
100
AcDbLine
 10
16.6746096995
 20
337.1467833016
 30
0.0
 11
16.6746096995
 21
329.6467833016
 31
0.0
  0
LINE
  5
B3
330
72
100
AcDbEntity
  8
$DDT_AUDIT_GENERATED_(AE)
  6
Continuous
 62
     7
100
AcDbLine
 10
68.6746096995
 20
337.1467833016
 30
0.0
 11
68.6746096995
 21
329.6467833016
 31
0.0
  0
ARC
  5
B4
330
72
100
AcDbEntity
  8
$DDT_AUDIT_GENERATED_(AE)
  6
Continuous
 62
     7
100
AcDbCircle
 10
17.1746096995
 20
337.1467833016
 30
0.0
 40
0.5000000000000004
100
AcDbArc
 50
90.0
 51
180.0
  0
ARC
  5
B5
330
72
100
AcDbEntity
  8
$DDT_AUDIT_GENERATED_(AE)
  6
Continuous
 62
     7
100
AcDbCircle
 10
68.1746096995
 20
337.1467833016
 30
0.0
 40
0.499999999999997
100
AcDbArc
 50
0.0
 51
90.0
  0
LINE
  5
B6
330
72
100
AcDbEntity
  8
$DDT_AUDIT_GENERATED_(AE)
  6
Continuous
 62
     7
100
AcDbLine
 10
18.2746096995
 20
329.6467833016
 30
0.0
 11
16.6746096995
 21
329.6467833016
 31
0.0
  0
LINE
  5
B7
330
72
100
AcDbEntity
  8
$DDT_AUDIT_GENERATED_(AE)
  6
Continuous
 62
     7
100
AcDbLine
 10
68.6746096995
 20
329.6467833016
 30
0.0
 11
67.0746096995
 21
329.6467833016
 31
0.0
  0
LINE
  5
B8
330
72
100
AcDbEntity
  8
$DDT_AUDIT_GENERATED_(AE)
  6
Continuous
 62
     7
100
AcDbLine
 10
67.0746096995
 20
329.6467833016
 30
0.0
 11
18.2746096995
 21
329.6467833016
 31
0.0
  0
ELLIPSE
  5
BA
330
72
100
AcDbEntity
  8
02636038_GEH_USE
  6
Continuous
 62
     7
100
AcDbEllipse
 10
42.6746096995
 20
424.044243578
 30
0.0
 11
10.05000000000001
 21
0.0
 31
0.0
210
0.0
220
0.0
230
1.0
 40
0.3746065934
 41
5.690415244709932
 42
6.283185307179586
  0
ELLIPSE
  5
BB
330
72
100
AcDbEntity
  8
02636038_GEH_USE
  6
Continuous
 62
     7
100
AcDbEllipse
 10
42.6746096995
 20
424.044243578
 30
0.0
 11
10.05000000000001
 21
0.0
 31
0.0
210
0.0
220
0.0
230
1.0
 40
0.3746065934
 41
0.0
 42
3.734362716059448
  0
ELLIPSE
  5
BC
330
72
100
AcDbEntity
  8
02636038_GEH_USE
  6
Continuous
 62
     7
100
AcDbEllipse
 10
42.6746096995
 20
424.044243578
 30
0.0
 11
10.75
 21
0.0
 31
0.0
210
0.0
220
0.0
230
1.0
 40
0.3746065934
 41
5.540956332600992
 42
6.283185307179586
  0
ELLIPSE
  5
BD
330
72
100
AcDbEntity
  8
02636038_GEH_USE
  6
Continuous
 62
     7
100
AcDbEllipse
 10
42.6746096995
 20
424.044243578
 30
0.0
 11
10.75
 21
0.0
 31
0.0
210
0.0
220
0.0
230
1.0
 40
0.3746065934
 41
0.0
 42
3.883821628168388
  0
ELLIPSE
  5
BE
330
72
100
AcDbEntity
  8
02636038_GEH_USE
  6
Continuous
 62
     7
100
AcDbEllipse
 10
42.6746096995
 20
424.3386639944
 30
0.0
 11
11.3
 21
-2.775557561562891E-14
 31
0.0
210
0.0
220
0.0
230
1.0
 40
0.3746065934
 41
-0.7751090107149743
 42
-0.7001925476853197
  0
ELLIPSE
  5
BF
330
72
100
AcDbEntity
  8
02636038_GEH_USE
  6
Continuous
 62
     7
100
AcDbEllipse
 10
42.6746096995
 20
424.3386639944
 30
0.0
 11
11.3
 21
-2.775557561562891E-14
 31
0.0
210
0.0
220
0.0
230
1.0
 40
0.3746065934
 41
3.84941415161423
 42
3.916701664304768
  0
LINE
  5
C0
330
72
100
AcDbEntity
  8
02636038_GEH_USE
  6
Continuous
 62
     7
100
AcDbLine
 10
53.6746096995
 20
423.3697427551
 30
0.0
 11
53.6746096995
 21
425.3075852336
 31
0.0
  0
ELLIPSE
  5
C1
330
72
100
AcDbEntity
  8
02636038_GEH_USE
  6
Continuous
 62
     7
100
AcDbEllipse
 10
42.6746096995
 20
426.8257951417
 30
0.0
 11
-11.79999999999975
 21
0.0
 31
0.0
210
0.0
220
0.0
230
1.0
 40
0.3746065934
 41
2.771250021498072
 42
3.511935285681514
  0
LINE
  5
C2
330
72
100
AcDbEntity
  8
02636038_GEH_USE
  6
Continuous
 62
     7
100
AcDbLine
 10
53.6746096995
 20
423.3697427551
 30
0.0
 11
53.6746096995
 21
423.205512703
 31
0.0
  0
LINE
  5
C3
330
72
100
AcDbEntity
  8
02636038_GEH_USE
  6
Continuous
 62
     7
100
AcDbLine
 10
53.6746096995
 20
425.3075852336
 30
0.0
 11
53.6746096995
 21
426.7415103311
 31
0.0
  0
LINE
  5
C4
330
72
100
AcDbEntity
  8
02636038_GEH_USE
  6
Continuous
 62
     7
100
AcDbLine
 10
53.6746096995
 20
426.7415103311
 30
0.0
 11
53.6746096995
 21
428.4256767063
 31
0.0
  0
ELLIPSE
  5
C5
330
72
100
AcDbEntity
  8
02636038_GEH_USE
  6
Continuous
 62
     7
100
AcDbEllipse
 10
42.6746096995
 20
424.3386639944
 30
0.0
 11
-11.3
 21
-1.387778780781446E-14
 31
0.0
210
0.0
220
0.0
230
1.0
 40
0.3746065934
 41
3.372534132729941
 42
6.052243828039438
  0
LINE
  5
C6
330
72
100
AcDbEntity
  8
02636038_GEH_USE
  6
Continuous
 62
     7
100
AcDbLine
 10
31.6746096995
 20
425.3075852336
 30
0.0
 11
31.6746096995
 21
423.3697427551
 31
0.0
  0
ELLIPSE
  5
C7
330
72
100
AcDbEntity
  8
02636038_GEH_USE
  6
Continuous
 62
     7
100
AcDbEllipse
 10
42.6746096995
 20
426.8257951417
 30
0.0
 11
11.79999999999976
 21
0.0
 31
0.0
210
0.0
220
0.0
230
1.0
 40
0.3746065934
 41
2.771250021498072
 42
3.511935285681514
  0
LINE
  5
C8
330
72
100
AcDbEntity
  8
02636038_GEH_USE
  6
Continuous
 62
     7
100
AcDbLine
 10
31.6746096995
 20
428.4256767063
 30
0.0
 11
31.6746096995
 21
426.7415103311
 31
0.0
  0
LINE
  5
C9
330
72
100
AcDbEntity
  8
02636038_GEH_USE
  6
Continuous
 62
     7
100
AcDbLine
 10
31.6746096995
 20
426.7415103311
 30
0.0
 11
31.6746096995
 21
425.3075852336
 31
0.0
  0
LINE
  5
CA
330
72
100
AcDbEntity
  8
02636038_GEH_USE
  6
Continuous
 62
     7
100
AcDbLine
 10
31.6746096995
 20
423.2054671559
 30
0.0
 11
31.6746096995
 21
423.3697427551
 31
0.0
  0
LINE
  5
CB
330
72
100
AcDbEntity
  8
02636038_GEH_USE
  6
Continuous
 62
     7
100
AcDbLine
 10
34.6025139876
 20
421.3763980582
 30
0.0
 11
34.7570122638
 21
421.3173185692
 31
0.0
  0
LINE
  5
CC
330
72
100
AcDbEntity
  8
02636038_GEH_USE
  6
Continuous
 62
     7
100
AcDbLine
 10
50.5922071352
 20
421.3173185692
 30
0.0
 11
50.7467054114
 21
421.3763980582
 31
0.0
  0
ARC
  5
CD
330
72
100
AcDbEntity
  8
02636038_GEH_USE
  6
Continuous
 62
     7
100
AcDbCircle
 10
48.8878658813
 20
427.7380393857
 30
0.0
 40
6.587815752193744
100
AcDbArc
 50
291.8305839183
 51
316.6318252272
  0
ARC
  5
CE
330
72
100
AcDbEntity
  8
02636038_GEH_USE
  6
Continuous
 62
     7
100
AcDbCircle
 10
36.5461531008
 20
427.8458236181
 30
0.0
 40
6.723806670532574
100
AcDbArc
 50
223.5799133673
 51
248.3671528159
  0
LINE
  5
CF
330
72
100
AcDbEntity
  8
02636038_GEH_USE
  6
Continuous
 62
     7
100
AcDbLine
 10
30.8746096995
 20
429.99778922
 30
0.0
 11
30.8746096995
 21
426.8257951417
 31
0.0
  0
LINE
  5
D0
330
72
100
AcDbEntity
  8
02636038_GEH_USE
  6
Continuous
 62
     7
100
AcDbLine
 10
54.4746096995
 20
426.8257951417
 30
0.0
 11
54.4746096995
 21
429.99778922
 31
0.0
  0
ELLIPSE
  5
D2
330
72
100
AcDbEntity
  8
64647040_EINSATZ
  6
Continuous
 62
     7
100
AcDbEllipse
 10
42.6746096995
 20
422.4277590936
 30
0.0
 11
7.875000000000002
 21
0.0
 31
0.0
210
0.0
220
0.0
230
1.0
 40
0.3746065934
 41
3.158340003360147
 42
6.266437957408045
  0
ELLIPSE
  5
D3
330
72
100
AcDbEntity
  8
64647040_EINSATZ
  6
Continuous
 62
     7
100
AcDbEllipse
 10
42.6746096995
 20
422.7461861816
 30
0.0
 11
-8.000000000000002
 21
0.0
 31
0.0
210
0.0
220
0.0
230
1.0
 40
0.3746065934
 41
0.2003696311097714
 42
2.941223022480008
  0
ELLIPSE
  5
D4
330
72
100
AcDbEntity
  8
64647040_EINSATZ
  6
Continuous
 62
     7
100
AcDbEllipse
 10
42.6746096995
 20
422.328953447
 30
0.0
 11
7.875000000000002
 21
0.0
 31
0.0
210
0.0
220
0.0
230
1.0
 40
0.3746065934
 41
0.0
 42
6.283185307179586
  0
SPLINE
  5
D5
330
72
100
AcDbEntity
  8
64647040_EINSATZ
  6
Continuous
 62
     7
100
AcDbSpline
210
0.0
220
0.0
230
1.0
 70
     8
 71
     3
 72
    11
 73
     7
 74
     0
 42
0.0000001309405227
 43
0.0000000001
 40
0.0
 40
0.0
 40
0.0
 40
0.0
 40
0.1662420688397998
 40
0.1662420688397998
 40
0.1662420688397998
 40
0.2466610680643018
 40
0.2466610680643018
 40
0.2466610680643018
 40
0.2466610680643018
 10
43.21461381682823
 20
422.8657707103056
 30
0.0
 10
43.21678905285475
 20
422.8624769864829
 30
0.0
 10
43.2201962140733
 20
422.8604407656192
 30
0.0
 10
43.22438087398508
 20
422.8597536783174
 30
0.0
 10
43.22641271701153
 20
422.8594200661308
 30
0.0
 10
43.22864671090644
 20
422.8593914925465
 30
0.0
 10
43.23102120470509
 20
422.859638336198
 30
0.0
  0
SPLINE
  5
D6
330
72
100
AcDbEntity
  8
64647040_EINSATZ
  6
Continuous
 62
     7
100
AcDbSpline
210
0.0
220
0.0
230
1.0
 70
    12
 71
     2
 72
     6
 73
     3
 74
     0
 42
0.0000010477141042
 43
0.0000000001
 40
0.0
 40
0.0
 40
0.0
 40
1.0
 40
1.0
 40
1.0
 10
43.20906471256163
 20
422.8735286401839
 30
0.0
 41
1.0
 10
43.21203884651052
 20
422.8696697083761
 30
0.0
 41
1.0
 10
43.21461381682822
 20
422.8657707103056
 30
0.0
 41
1.0
  0
SPLINE
  5
D7
330
72
100
AcDbEntity
  8
64647040_EINSATZ
  6
Continuous
 62
     7
100
AcDbSpline
210
0.0
220
0.0
230
1.0
 70
     8
 71
     3
 72
    10
 73
     6
 74
     0
 42
0.0000000721503655
 43
0.0000000001
 40
0.0
 40
0.0
 40
0.0
 40
0.0
 40
0.5
 40
0.5
 40
1.0
 40
1.0
 40
1.0
 40
1.0
 10
43.25067464710389
 20
422.9984889675592
 30
0.0
 10
43.2362901584955
 20
422.9750864609718
 30
0.0
 10
43.22332091124063
 20
422.9504371315053
 30
0.0
 10
43.20568809360636
 20
422.9051946535878
 30
0.0
 10
43.20135845612151
 20
422.8835274897982
 30
0.0
 10
43.20906471256164
 20
422.8735286401839
 30
0.0
  0
LINE
  5
D8
330
72
100
AcDbEntity
  8
64647040_EINSATZ
  6
Continuous
 62
     7
100
AcDbLine
 10
43.3185389114
 20
423.1774047671
 30
0.0
 11
43.2506746471
 21
422.9984889676
 31
0.0
  0
SPLINE
  5
D9
330
72
100
AcDbEntity
  8
64647040_EINSATZ
  6
Continuous
 62
     7
100
AcDbSpline
210
0.0
220
0.0
230
1.0
 70
     8
 71
     3
 72
    14
 73
    10
 74
     0
 42
0.000000064139817
 43
0.0000000001
 40
0.0
 40
0.0
 40
0.0
 40
0.0
 40
0.1662420688398022
 40
0.1662420688398022
 40
0.1662420688398022
 40
0.331065087576697
 40
0.331065087576697
 40
0.331065087576697
 40
0.4361428186191413
 40
0.4361428186191413
 40
0.4361428186191413
 40
0.4361428186191413
 10
42.9619840180094
 20
422.9941526488986
 30
0.0
 10
42.96973936975083
 20
422.9923998258944
 30
0.0
 10
42.97824540952519
 20
422.9922121422563
 30
0.0
 10
42.98663365032386
 20
422.993475955893
 30
0.0
 10
42.99498122039095
 20
422.994733641877
 30
0.0
 10
43.00342812588524
 20
422.9974198705519
 30
0.0
 10
43.01141242369476
 20
423.0011100616935
 30
0.0
 10
43.01648196737255
 20
423.0034531087111
 30
0.0
 10
43.02143271532334
 20
423.0062250033976
 30
0.0
 10
43.02620300629991
 20
423.0093389390659
 30
0.0
  0
SPLINE
  5
DA
330
72
100
AcDbEntity
  8
64647040_EINSATZ
  6
Continuous
 62
     7
100
AcDbSpline
210
0.0
220
0.0
230
1.0
 70
    12
 71
     2
 72
     6
 73
     3
 74
     0
 42
0.0000005263775065
 43
0.0000000001
 40
0.0
 40
0.0
 40
0.0
 40
1.0
 40
1.0
 40
1.0
 10
42.94341635324879
 20
422.9981684489048
 30
0.0
 41
1.0
 10
42.95280349677896
 20
422.9962275810657
 30
0.0
 41
1.0
 10
42.96198401800939
 20
422.9941526488986
 30
0.0
 41
1.0
  0
SPLINE
  5
DB
330
72
100
AcDbEntity
  8
64647040_EINSATZ
  6
Continuous
 62
     7
100
AcDbSpline
210
0.0
220
0.0
230
1.0
 70
     8
 71
     3
 72
    10
 73
     6
 74
     0
 42
0.0000000656403794
 43
0.0000000001
 40
0.0
 40
0.0
 40
0.0
 40
0.0
 40
0.5
 40
0.5
 40
1.0
 40
1.0
 40
1.0
 40
1.0
 10
42.89221828738142
 20
423.1216410134455
 30
0.0
 10
42.88665307907907
 20
423.0951429696132
 30
0.0
 10
42.88724672470696
 20
423.0685733535411
 30
0.0
 10
42.90262953328183
 20
423.0229817481719
 30
0.0
 10
42.91909339520051
 20
423.0031974171812
 30
0.0
 10
42.94341635324879
 20
422.9981684489048
 30
0.0
  0
LINE
  5
DC
330
72
100
AcDbEntity
  8
64647040_EINSATZ
  6
Continuous
 62
     7
100
AcDbLine
 10
42.91260678
 20
423.3142507401
 30
0.0
 11
42.8922182874
 21
423.1216410134
 31
0.0
  0
LINE
  5
DD
330
72
100
AcDbEntity
  8
64647040_EINSATZ
  6
Continuous
 62
     7
100
AcDbLine
 10
42.6189491026
 20
423.135118074
 30
0.0
 11
42.6188184456
 21
423.3287397619
 31
0.0
  0
SPLINE
  5
DE
330
72
100
AcDbEntity
  8
64647040_EINSATZ
  6
Continuous
 62
     7
100
AcDbSpline
210
0.0
220
0.0
230
1.0
 70
     8
 71
     3
 72
    20
 73
    16
 74
     0
 42
0.0000000641306053
 43
0.0000000001
 40
0.0
 40
0.0
 40
0.0
 40
0.0
 40
0.166242068839801
 40
0.166242068839801
 40
0.166242068839801
 40
0.3310650875766957
 40
0.3310650875766957
 40
0.3310650875766957
 40
0.5632461486775338
 40
0.5632461486775338
 40
0.5632461486775338
 40
0.8533054901458648
 40
0.8533054901458648
 40
0.8533054901458648
 40
1.0
 40
1.0
 40
1.0
 40
1.0
 10
42.54101424088535
 20
423.0180140734811
 30
0.0
 10
42.54980672847255
 20
423.0188289312389
 30
0.0
 10
42.55842892406498
 20
423.0212989867512
 30
0.0
 10
42.56610702805514
 20
423.0250557690231
 30
0.0
 10
42.57374790444131
 20
423.0287943363812
 30
0.0
 10
42.5806800935711
 20
423.0338668950548
 30
0.0
 10
42.58663967145055
 20
423.0397207173896
 30
0.0
 10
42.5950007777782
 20
423.0479334519077
 30
0.0
 10
42.60172124696351
 20
423.0578954158167
 30
0.0
 10
42.60676208304108
 20
423.0685608526106
 30
0.0
 10
42.61304518398159
 20
423.0818546822293
 30
0.0
 10
42.61694120492629
 20
423.0966678732185
 30
0.0
 10
42.61845957744643
 20
423.1117337062125
 30
0.0
 10
42.61923531785558
 20
423.1194308788733
 30
0.0
 10
42.61940198625449
 20
423.1272776653249
 30
0.0
 10
42.61894910257876
 20
423.1351180740352
 30
0.0
  0
SPLINE
  5
DF
330
72
100
AcDbEntity
  8
64647040_EINSATZ
  6
Continuous
 62
     7
100
AcDbSpline
210
0.0
220
0.0
230
1.0
 70
    12
 71
     2
 72
     6
 73
     3
 74
     0
 42
0.0000004804408833
 43
0.0000000001
 40
0.0
 40
0.0
 40
0.0
 40
1.0
 40
1.0
 40
1.0
 10
42.52030470182591
 20
423.0159353424353
 30
0.0
 41
1.0
 10
42.53060599356932
 20
423.0170494726223
 30
0.0
 41
1.0
 10
42.54101424088536
 20
423.0180140734811
 30
0.0
 41
1.0
  0
SPLINE
  5
E0
330
72
100
AcDbEntity
  8
64647040_EINSATZ
  6
Continuous
 62
     7
100
AcDbSpline
210
0.0
220
0.0
230
1.0
 70
     8
 71
     3
 72
    10
 73
     6
 74
     0
 42
0.0000000598218303
 43
0.0000000001
 40
0.3356875718561703
 40
0.3356875718561703
 40
0.3356875718561703
 40
0.3356875718561703
 40
0.5
 40
0.5
 40
1.0
 40
1.0
 40
1.0
 40
1.0
 10
42.42884747689306
 20
423.0645660934654
 30
0.0
 10
42.43399820951277
 20
423.0573549132042
 30
0.0
 10
42.43983451137296
 20
423.0506349577736
 30
0.0
 10
42.46600004681783
 20
423.025993570296
 30
0.0
 10
42.49361310111711
 20
423.0130485279623
 30
0.0
 10
42.52030470182591
 20
423.0159353424353
 30
0.0
  0
LINE
  5
E1
330
72
100
AcDbEntity
  8
64647040_EINSATZ
  6
Continuous
 62
     7
100
AcDbLine
 10
42.1876199974
 20
423.0509165837
 30
0.0
 11
42.1321700097
 21
423.2359139824
 31
0.0
  0
SPLINE
  5
E2
330
72
100
AcDbEntity
  8
64647040_EINSATZ
  6
Continuous
 62
     7
100
AcDbSpline
210
0.0
220
0.0
230
1.0
 70
     8
 71
     3
 72
    20
 73
    16
 74
     0
 42
0.0000000728576669
 43
0.0000000001
 40
0.0
 40
0.0
 40
0.0
 40
0.0
 40
0.1662420688398013
 40
0.1662420688398013
 40
0.1662420688398013
 40
0.3310650875766956
 40
0.3310650875766956
 40
0.3310650875766956
 40
0.5632461486775328
 40
0.5632461486775328
 40
0.5632461486775328
 40
0.8533054901458635
 40
0.8533054901458635
 40
0.8533054901458635
 40
1.0
 40
1.0
 40
1.0
 40
1.0
 10
42.19830287154619
 20
422.9233772851503
 30
0.0
 10
42.20298197499758
 20
422.9262824910469
 30
0.0
 10
42.20666956116745
 20
422.9306626200852
 30
0.0
 10
42.20913979916497
 20
422.9359940914733
 30
0.0
 10
42.21159806011165
 20
422.9412997130024
 30
0.0
 10
42.21295475050163
 20
422.9476584333348
 30
0.0
 10
42.21339856855523
 20
422.9545058522487
 30
0.0
 10
42.21402123177256
 20
422.9641125725176
 30
0.0
 10
42.21290369041854
 20
422.9749439266665
 30
0.0
 10
42.21065600870556
 20
422.9860427692111
 30
0.0
 10
42.20785440776724
 20
422.9998768131986
 30
0.0
 10
42.20322126348197
 20
423.0145756268734
 30
0.0
 10
42.19743392837998
 20
423.0289790571889
 30
0.0
 10
42.19447716405477
 20
423.0363378066249
 30
0.0
 10
42.1911850719873
 20
423.0436996300509
 30
0.0
 10
42.18761999740219
 20
423.0509165837033
 30
0.0
  0
SPLINE
  5
E3
330
72
100
AcDbEntity
  8
64647040_EINSATZ
  6
Continuous
 62
     7
100
AcDbSpline
210
0.0
220
0.0
230
1.0
 70
    12
 71
     2
 72
     6
 73
     3
 74
     0
 42
0.0000007823805836
 43
0.0000000001
 40
0.0
 40
0.0
 40
0.0
 40
1.0
 40
1.0
 40
1.0
 10
42.18758282529843
 20
422.9164217155067
 30
0.0
 41
1.0
 10
42.19276390826175
 20
422.9199382013664
 30
0.0
 41
1.0
 10
42.19830287154618
 20
422.9233772851503
 30
0.0
 41
1.0
  0
SPLINE
  5
E4
330
72
100
AcDbEntity
  8
64647040_EINSATZ
  6
Continuous
 62
     7
100
AcDbSpline
210
0.0
220
0.0
230
1.0
 70
     8
 71
     3
 72
     8
 73
     4
 74
     0
 42
0.0000000907028849
 43
0.0000000001
 40
0.7275562210217619
 40
0.7275562210217619
 40
0.7275562210217619
 40
0.7275562210217619
 40
1.0
 40
1.0
 40
1.0
 40
1.0
 10
42.15935208183502
 20
422.9130931228734
 30
0.0
 10
42.17023267067025
 20
422.9107281523374
 30
0.0
 10
42.18026789200211
 20
422.9114569504782
 30
0.0
 10
42.18758282529843
 20
422.9164217155067
 30
0.0
  0
ELLIPSE
  5
E5
330
72
100
AcDbEntity
  8
64647040_EINSATZ
  6
Continuous
 62
     7
100
AcDbEllipse
 10
42.6746096995
 20
422.3931673744
 30
0.0
 11
8.422375322854238
 21
0.0
 31
0.0
210
0.0
220
0.0
230
1.0
 40
0.3746065934
 41
5.884452435778529
 42
6.283185307179586
  0
ELLIPSE
  5
E6
330
72
100
AcDbEntity
  8
64647040_EINSATZ
  6
Continuous
 62
     7
100
AcDbEllipse
 10
42.6746096995
 20
422.3931673744
 30
0.0
 11
8.422375322854238
 21
0.0
 31
0.0
210
0.0
220
0.0
230
1.0
 40
0.3746065934
 41
3.125286460862233
 42
3.567351874868312
  0
ELLIPSE
  5
E7
330
72
100
AcDbEntity
  8
64647040_EINSATZ
  6
Continuous
 62
     7
100
AcDbEllipse
 10
42.6746096995
 20
422.328953447
 30
0.0
 11
8.327218268566535
 21
0.0
 31
0.0
210
0.0
220
0.0
230
1.0
 40
0.3746065934
 41
0.6476522160148186
 42
2.48533973896844
  0
ELLIPSE
  5
E8
330
72
100
AcDbEntity
  8
64647040_EINSATZ
  6
Continuous
 62
     7
100
AcDbEllipse
 10
42.6746096995
 20
422.328953447
 30
0.0
 11
8.327218268566535
 21
0.0
 31
0.0
210
0.0
220
0.0
230
1.0
 40
0.3746065934
 41
4.240125372674751
 42
5.234812214744028
  0
ELLIPSE
  5
E9
330
72
100
AcDbEntity
  8
64647040_EINSATZ
  6
Continuous
 62
     7
100
AcDbEllipse
 10
42.6746096995
 20
422.4048390433
 30
0.0
 11
6.390109892686961
 21
0.0
 31
0.0
210
0.0
220
0.0
230
1.0
 40
0.3746065934
 41
5.985476597220116
 42
6.283185307179586
  0
ELLIPSE
  5
EA
330
72
100
AcDbEntity
  8
64647040_EINSATZ
  6
Continuous
 62
     7
100
AcDbEllipse
 10
42.6746096995
 20
422.4048390433
 30
0.0
 11
6.390109892686961
 21
0.0
 31
0.0
210
0.0
220
0.0
230
1.0
 40
0.3746065934
 41
3.044585758322539
 42
3.449618699293485
  0
ELLIPSE
  5
EB
330
72
100
AcDbEntity
  8
64647040_EINSATZ
  6
Continuous
 62
     7
100
AcDbEllipse
 10
42.6746096995
 20
422.328953447
 30
0.0
 11
-6.29177167464824
 21
0.0
 31
0.0
210
0.0
220
0.0
230
1.0
 40
0.3746065934
 41
1.237537979127368
 42
2.068535364564085
  0
ELLIPSE
  5
EC
330
72
100
AcDbEntity
  8
64647040_EINSATZ
  6
Continuous
 62
     7
100
AcDbEllipse
 10
42.6746096995
 20
422.328953447
 30
0.0
 11
-6.29177167464824
 21
0.0
 31
0.0
210
0.0
220
0.0
230
1.0
 40
0.3746065934
 41
3.847658421863587
 42
5.660437411635352
  0
ELLIPSE
  5
ED
330
72
100
AcDbEntity
  8
64647040_EINSATZ
  6
Continuous
 62
     7
100
AcDbEllipse
 10
42.6746096995
 20
422.328953447
 30
0.0
 11
6.275000000000003
 21
0.0
 31
0.0
210
0.0
220
0.0
230
1.0
 40
0.3746065934
 41
4.161664196624069
 42
5.307767555918747
  0
ELLIPSE
  5
EE
330
72
100
AcDbEntity
  8
64647040_EINSATZ
  6
Continuous
 62
     7
100
AcDbEllipse
 10
42.6746096995
 20
422.328953447
 30
0.0
 11
6.275000000000003
 21
0.0
 31
0.0
210
0.0
220
0.0
230
1.0
 40
0.3746065934
 41
0.6445374743713836
 42
2.46520957421416
  0
ELLIPSE
  5
EF
330
72
100
AcDbEntity
  8
64647040_EINSATZ
  6
Continuous
 62
     7
100
AcDbEllipse
 10
42.6746096995
 20
422.4216718325
 30
0.0
 11
6.175
 21
0.0
 31
0.0
210
0.0
220
0.0
230
1.0
 40
0.3746065934
 41
0.0
 42
0.1260265359509241
  0
ELLIPSE
  5
F0
330
72
100
AcDbEntity
  8
64647040_EINSATZ
  6
Continuous
 62
     7
100
AcDbEllipse
 10
42.6746096995
 20
422.4216718325
 30
0.0
 11
6.175
 21
0.0
 31
0.0
210
0.0
220
0.0
230
1.0
 40
0.3746065934
 41
2.955648274463698
 42
3.310825748772888
  0
ELLIPSE
  5
F1
330
72
100
AcDbEntity
  8
64647040_EINSATZ
  6
Continuous
 62
     7
100
AcDbEllipse
 10
42.6746096995
 20
422.4075733358
 30
0.0
 11
4.650545274088402
 21
0.0
 31
0.0
210
0.0
220
0.0
230
1.0
 40
0.3746065934
 41
6.155735230448212
 42
6.283185307179586
  0
ELLIPSE
  5
F2
330
72
100
AcDbEntity
  8
64647040_EINSATZ
  6
Continuous
 62
     7
100
AcDbEllipse
 10
42.6746096995
 20
422.4075733358
 30
0.0
 11
4.650545274088402
 21
0.0
 31
0.0
210
0.0
220
0.0
230
1.0
 40
0.3746065934
 41
3.034682638256895
 42
3.203790629791021
  0
ELLIPSE
  5
F3
330
72
100
AcDbEntity
  8
64647040_EINSATZ
  6
Continuous
 62
     7
100
AcDbEllipse
 10
42.6746096995
 20
422.328953447
 30
0.0
 11
-4.551708104323339
 21
0.0
 31
0.0
210
0.0
220
0.0
230
1.0
 40
0.3746065934
 41
1.063660121376787
 42
2.028168069841616
  0
ELLIPSE
  5
F4
330
72
100
AcDbEntity
  8
64647040_EINSATZ
  6
Continuous
 62
     7
100
AcDbEllipse
 10
42.6746096995
 20
422.328953447
 30
0.0
 11
-4.551708104323339
 21
0.0
 31
0.0
210
0.0
220
0.0
230
1.0
 40
0.3746065934
 41
3.793611697315866
 42
5.567279673423993
  0
ELLIPSE
  5
F5
330
72
100
AcDbEntity
  8
64647040_EINSATZ
  6
Continuous
 62
     7
100
AcDbEllipse
 10
42.6746096995
 20
422.328953447
 30
0.0
 11
-4.537499999999998
 21
0.0
 31
0.0
210
0.0
220
0.0
230
1.0
 40
0.3746065934
 41
3.785541293656267
 42
5.545435896196476
  0
ELLIPSE
  5
F6
330
72
100
AcDbEntity
  8
64647040_EINSATZ
  6
Continuous
 62
     7
100
AcDbEllipse
 10
42.6746096995
 20
422.328953447
 30
0.0
 11
-4.537499999999998
 21
0.0
 31
0.0
210
0.0
220
0.0
230
1.0
 40
0.3746065934
 41
1.031494016578322
 42
2.184677120403506
  0
ELLIPSE
  5
F7
330
72
100
AcDbEntity
  8
64647040_EINSATZ
  6
Continuous
 62
     7
100
AcDbEllipse
 10
42.6746096995
 20
422.4216718325
 30
0.0
 11
4.437499999999999
 21
0.0
 31
0.0
210
0.0
220
0.0
230
1.0
 40
0.3746065934
 41
3.113415383364313
 42
3.141592653589793
  0
ELLIPSE
  5
F8
330
72
100
AcDbEntity
  8
64647040_EINSATZ
  6
Continuous
 62
     7
100
AcDbEllipse
 10
42.6746096995
 20
422.4048390433
 30
0.0
 11
-2.877609892686964
 21
0.0
 31
0.0
210
0.0
220
0.0
230
1.0
 40
0.3746065934
 41
3.066933858619582
 42
3.141592653589793
  0
ELLIPSE
  5
F9
330
72
100
AcDbEntity
  8
64647040_EINSATZ
  6
Continuous
 62
     7
100
AcDbEllipse
 10
42.6746096995
 20
422.4048390433
 30
0.0
 11
-2.877609892686964
 21
0.0
 31
0.0
210
0.0
220
0.0
230
1.0
 40
0.3746065934
 41
0.0746587949701766
 42
0.1466002259783847
  0
ELLIPSE
  5
FA
330
72
100
AcDbEntity
  8
64647040_EINSATZ
  6
Continuous
 62
     7
100
AcDbEllipse
 10
42.6746096995
 20
422.328953447
 30
0.0
 11
-2.779271674648244
 21
0.0
 31
0.0
210
0.0
220
0.0
230
1.0
 40
0.3746065934
 41
1.020688301223429
 42
2.244888582050849
  0
ELLIPSE
  5
FB
330
72
100
AcDbEntity
  8
64647040_EINSATZ
  6
Continuous
 62
     7
100
AcDbEllipse
 10
42.6746096995
 20
422.328953447
 30
0.0
 11
-2.779271674648244
 21
0.0
 31
0.0
210
0.0
220
0.0
230
1.0
 40
0.3746065934
 41
3.786533589149461
 42
5.541450407596636
  0
ELLIPSE
  5
FC
330
72
100
AcDbEntity
  8
64647040_EINSATZ
  6
Continuous
 62
     7
100
AcDbEllipse
 10
42.6746096995
 20
422.328953447
 30
0.0
 11
2.7625
 21
0.0
 31
0.0
210
0.0
220
0.0
230
1.0
 40
0.3746065934
 41
4.315606209292129
 42
5.303606424425916
  0
ELLIPSE
  5
FD
330
72
100
AcDbEntity
  8
64647040_EINSATZ
  6
Continuous
 62
     7
100
AcDbEllipse
 10
42.6746096995
 20
422.328953447
 30
0.0
 11
2.7625
 21
0.0
 31
0.0
210
0.0
220
0.0
230
1.0
 40
0.3746065934
 41
0.7138880455872253
 42
2.506278854342616
  0
ELLIPSE
  5
FE
330
72
100
AcDbEntity
  8
64647040_EINSATZ
  6
Continuous
 62
     7
100
AcDbEllipse
 10
42.6746096995
 20
422.4216718325
 30
0.0
 11
-2.6625
 21
0.0
 31
0.0
210
0.0
220
0.0
230
1.0
 40
0.3746065934
 41
0.0
 42
0.010031505379578
  0
ELLIPSE
  5
FF
330
72
100
AcDbEntity
  8
64647040_EINSATZ
  6
Continuous
 62
     7
100
AcDbEllipse
 10
42.6746096995
 20
423.8356272107
 30
0.0
 11
-8.924999999999999
 21
0.0
 31
0.0
210
0.0
220
0.0
230
1.0
 40
0.3746065934
 41
0.0
 42
0.1309050977977032
  0
ELLIPSE
  5
100
330
72
100
AcDbEntity
  8
64647040_EINSATZ
  6
Continuous
 62
     7
100
AcDbEllipse
 10
42.6746096995
 20
423.8356272107
 30
0.0
 11
-8.924999999999999
 21
0.0
 31
0.0
210
0.0
220
0.0
230
1.0
 40
0.3746065934
 41
3.01068755579207
 42
3.264388349770041
  0
ELLIPSE
  5
101
330
72
100
AcDbEntity
  8
64647040_EINSATZ
  6
Continuous
 62
     7
100
AcDbEllipse
 10
42.6746096995
 20
423.8356272107
 30
0.0
 11
-8.924999999999999
 21
0.0
 31
0.0
210
0.0
220
0.0
230
1.0
 40
0.3746065934
 41
6.160268327657205
 42
6.283185307179586
  0
ELLIPSE
  5
102
330
72
100
AcDbEntity
  8
64647040_EINSATZ
  6
Continuous
 62
     7
100
AcDbEllipse
 10
42.6746096995
 20
423.8356272107
 30
0.0
 11
-4.437499999999924
 21
-4.163336342344337E-14
 31
0.0
210
0.0
220
0.0
230
1.0
 40
0.3746065934
 41
-3.614465452590718
 42
-3.593488558254863
  0
SPLINE
  5
103
330
72
100
AcDbEntity
  8
64647040_EINSATZ
  6
Continuous
 62
     7
100
AcDbSpline
210
0.0
220
0.0
230
1.0
 70
    12
 71
     2
 72
     6
 73
     3
 74
     0
 42
0.0000000102330537
 43
0.0000000001
 40
0.0
 40
0.0
 40
0.0
 40
1.0
 40
1.0
 40
1.0
 10
46.62515424555434
 20
423.078532175266
 30
0.0
 41
1.0
 10
46.59895061985951
 20
422.5905215478316
 30
0.0
 41
1.0
 10
46.57145508040588
 20
422.1027841620865
 30
0.0
 41
1.0
  0
SPLINE
  5
104
330
72
100
AcDbEntity
  8
64647040_EINSATZ
  6
Continuous
 62
     7
100
AcDbSpline
210
0.0
220
0.0
230
1.0
 70
     8
 71
     3
 72
    20
 73
    16
 74
     0
 42
0.0000000778858822
 43
0.0000000001
 40
0.0
 40
0.0
 40
0.0
 40
0.0
 40
0.2315617253407084
 40
0.2315617253407084
 40
0.2315617253407084
 40
0.4631201962701202
 40
0.4631201962701202
 40
0.4631201962701202
 40
0.6947246953612264
 40
0.6947246953612264
 40
0.6947246953612264
 40
0.9263410357669383
 40
0.9263410357669383
 40
0.9263410357669383
 40
1.0
 40
1.0
 40
1.0
 40
1.0
 10
46.57145507997981
 20
422.1027841618998
 30
0.0
 10
46.5708504337427
 20
422.0920583401456
 30
0.0
 10
46.56931925142829
 20
422.0807552311944
 30
0.0
 10
46.56697885565077
 20
422.0698130155719
 30
0.0
 10
46.56463847929868
 20
422.0588708907706
 30
0.0
 10
46.56142371387886
 20
422.0479880156174
 30
0.0
 10
46.5575837099744
 20
422.0380686566503
 30
0.0
 10
46.5537429615817
 20
422.0281473745481
 30
0.0
 10
46.54916992456683
 20
422.0189165126986
 30
0.0
 10
46.54422621034092
 20
422.0111439652714
 30
0.0
 10
46.53928227303701
 20
422.0033710671191
 30
0.0
 10
46.53383053709379
 20
421.9968423631198
 30
0.0
 10
46.52831314257562
 20
421.9921009507664
 30
0.0
 10
46.52653582203065
 20
421.9905735976726
 30
0.0
 10
46.5247416361685
 20
421.9892182500301
 30
0.0
 10
46.52294623802892
 20
421.9880468016696
 30
0.0
  0
LINE
  5
105
330
72
100
AcDbEntity
  8
64647040_EINSATZ
  6
Continuous
 62
     7
100
AcDbLine
 10
46.522946238
 20
421.9880468017
 30
0.0
 11
46.5122261918
 21
421.981091232
 31
0.0
  0
SPLINE
  5
106
330
72
100
AcDbEntity
  8
64647040_EINSATZ
  6
Continuous
 62
     7
100
AcDbSpline
210
0.0
220
0.0
230
1.0
 70
     8
 71
     3
 72
    11
 73
     7
 74
     0
 42
0.0000001313671053
 43
0.0000000001
 40
0.0
 40
0.0
 40
0.0
 40
0.0
 40
0.2315601448090092
 40
0.2315601448090092
 40
0.2315601448090092
 40
0.2991849979699772
 40
0.2991849979699772
 40
0.2991849979699772
 40
0.2991849979699772
 10
46.51222619178112
 20
421.9810912320258
 30
0.0
 10
46.50660717437707
 20
421.9774656574148
 30
0.0
 10
46.50087204781873
 20
421.9755898040741
 30
0.0
 10
46.4955017061881
 20
421.9756175262521
 30
0.0
 10
46.49393334280282
 20
421.9756256222824
 30
0.0
 10
46.49238350467814
 20
421.975796120134
 30
0.0
 10
46.49086319267868
 20
421.9761249501033
 30
0.0
  0
SPLINE
  5
107
330
72
100
AcDbEntity
  8
64647040_EINSATZ
  6
Continuous
 62
     7
100
AcDbSpline
210
0.0
220
0.0
230
1.0
 70
    12
 71
     2
 72
     6
 73
     3
 74
     0
 42
0.0000000104573887
 43
0.0000000001
 40
0.8961709860271786
 40
0.8961709860271786
 40
0.8961709860271786
 40
1.0
 40
1.0
 40
1.0
 10
43.94054012798056
 20
421.4020927863151
 30
0.0
 41
1.0
 10
43.93481986784666
 20
421.3527769605997
 30
0.0
 41
1.0
 10
43.92909543905849
 20
421.3034668884741
 30
0.0
 41
1.0
  0
ARC
  5
108
330
72
100
AcDbEntity
  8
64647040_EINSATZ
  6
Continuous
 62
     7
100
AcDbCircle
 10
43.8221234058
 20
421.3185231324
 30
0.0
 40
0.1080264151892949
100
AcDbArc
 50
276.0295403736
 51
351.9882848328
  0
LINE
  5
109
330
72
100
AcDbEntity
  8
64647040_EINSATZ
  6
Continuous
 62
     7
100
AcDbLine
 10
43.8334706303
 20
421.2110943333
 30
0.0
 11
43.8127610912
 21
421.2090156022
 31
0.0
  0
ARC
  5
10A
330
72
100
AcDbEntity
  8
64647040_EINSATZ
  6
Continuous
 62
     7
100
AcDbCircle
 10
43.8010205653
 20
421.293558525
 30
0.0
 40
0.0853542367994091
100
AcDbArc
 50
215.3813519241
 51
277.906134343
  0
ARC
  5
10B
330
72
100
AcDbEntity
  8
64647040_EINSATZ
  6
Continuous
 62
     7
100
AcDbCircle
 10
40.4818423856
 20
421.4422479077
 30
0.0
 40
0.070150110590204
100
AcDbArc
 50
256.2342857781
 51
302.8118529549
  0
LINE
  5
10C
330
72
100
AcDbEntity
  8
64647040_EINSATZ
  6
Continuous
 62
     7
100
AcDbLine
 10
40.4465823415
 20
421.3781285296
 30
0.0
 11
40.4651500062
 21
421.3741127296
 31
0.0
  0
ARC
  5
10D
330
72
100
AcDbEntity
  8
64647040_EINSATZ
  6
Continuous
 62
     7
100
AcDbCircle
 10
40.4773676843
 20
421.4906981346
 30
0.0
 40
0.1167032702473809
100
AcDbArc
 50
185.5419919945
 51
254.7048379211
  0
SPLINE
  5
10E
330
72
100
AcDbEntity
  8
64647040_EINSATZ
  6
Continuous
 62
     7
100
AcDbSpline
210
0.0
220
0.0
230
1.0
 70
    12
 71
     2
 72
     6
 73
     3
 74
     0
 42
0.0000000103603476
 43
0.0000000001
 40
0.7205408485004691
 40
0.7205408485004691
 40
0.7205408485004691
 40
1.0
 40
1.0
 40
1.0
 10
40.33385374094672
 20
421.7477758672882
 30
0.0
 41
1.0
 10
40.34750268942435
 20
421.6135830185056
 30
0.0
 41
1.0
 10
40.36120992212426
 20
421.4794274869033
 30
0.0
 41
1.0
  0
SPLINE
  5
10F
330
72
100
AcDbEntity
  8
64647040_EINSATZ
  6
Continuous
 62
     7
100
AcDbSpline
210
0.0
220
0.0
230
1.0
 70
     8
 71
     3
 72
    11
 73
     7
 74
     0
 42
0.0000002072590423
 43
0.0000000001
 40
0.7282014890303099
 40
0.7282014890303099
 40
0.7282014890303099
 40
0.7282014890303099
 40
0.9263410358271561
 40
0.9263410358271561
 40
0.9263410358271561
 40
1.0
 40
1.0
 40
1.0
 40
1.0
 10
38.40136124417003
 20
422.3748563029288
 30
0.0
 10
38.39897197675562
 20
422.3746164264132
 30
0.0
 10
38.39644303031248
 20
422.3757646318488
 30
0.0
 10
38.39393451562541
 20
422.3782457896486
 30
0.0
 10
38.39298991897777
 20
422.379180084892
 30
0.0
 10
38.39204259071543
 20
422.3803041086663
 30
0.0
 10
38.39110090494243
 20
422.381608025126
 30
0.0
  0
SPLINE
  5
110
330
72
100
AcDbEntity
  8
64647040_EINSATZ
  6
Continuous
 62
     7
100
AcDbSpline
210
0.0
220
0.0
230
1.0
 70
    12
 71
     2
 72
     6
 73
     3
 74
     0
 42
0.0000010484004189
 43
0.0000000001
 40
0.0
 40
0.0
 40
0.0
 40
1.0
 40
1.0
 40
1.0
 10
38.39110090494241
 20
422.3816080251261
 30
0.0
 41
1.0
 10
38.38830133783846
 20
422.3854844791742
 30
0.0
 41
1.0
 10
38.38555180067579
 20
422.3893659550044
 30
0.0
 41
1.0
  0
ARC
  5
111
330
72
100
AcDbEntity
  8
64647040_EINSATZ
  6
Continuous
 62
     7
100
AcDbCircle
 10
38.6242112956
 20
422.5002810468
 30
0.0
 40
0.2631739198469191
100
AcDbArc
 50
178.3847068454
 51
204.9262723606
  0
SPLINE
  5
112
330
72
100
AcDbEntity
  8
64647040_EINSATZ
  6
Continuous
 62
     7
100
AcDbSpline
210
0.0
220
0.0
230
1.0
 70
    12
 71
     2
 72
     6
 73
     3
 74
     0
 42
0.0000000102049537
 43
0.0000000001
 40
0.0
 40
0.0
 40
0.0
 40
0.2677576428739766
 40
0.2677576428739766
 40
0.2677576428739766
 10
38.36114195400668
 20
422.5076995115587
 30
0.0
 41
1.0
 10
38.35752860248184
 20
422.638836212473
 30
0.0
 41
1.0
 10
38.35401854272403
 20
422.7699828411318
 30
0.0
 41
1.0
  0
ELLIPSE
  5
113
330
72
100
AcDbEntity
  8
64647040_EINSATZ
  6
Continuous
 62
     7
100
AcDbEllipse
 10
-134.7773219811
 20
460.384652167
 30
0.0
 11
83.29424773800066
 21
-190.1211824126733
 31
0.0
210
0.0
220
0.0
230
1.0
 40
0.8401263723
 41
1.029683067159299
 42
1.031637187642427
  0
SPLINE
  5
114
330
72
100
AcDbEntity
  8
64647040_EINSATZ
  6
Continuous
 62
     7
100
AcDbSpline
210
0.0
220
0.0
230
1.0
 70
     8
 71
     3
 72
    20
 73
    16
 74
     0
 42
0.0000000779808214
 43
0.0000000001
 40
0.0
 40
0.0
 40
0.0
 40
0.0
 40
0.2315031754664697
 40
0.2315031754664697
 40
0.2315031754664697
 40
0.4629973077209971
 40
0.4629973077209971
 40
0.4629973077209971
 40
0.6946193130915668
 40
0.6946193130915668
 40
0.6946193130915668
 40
0.9262742376843552
 40
0.9262742376843552
 40
0.9262742376843552
 40
1.0
 40
1.0
 40
1.0
 40
1.0
 10
45.03347102626178
 20
422.4354181499465
 30
0.0
 10
45.03288461073453
 20
422.4246902944421
 30
0.0
 10
45.03140001021359
 20
422.4133795215176
 30
0.0
 10
45.02912448983464
 20
422.4024261924742
 30
0.0
 10
45.02684902194091
 20
422.391473116071
 30
0.0
 10
45.02371888559084
 20
422.3805756487719
 30
0.0
 10
45.01996476030931
 20
422.3706406074103
 30
0.0
 10
45.01620861240012
 20
422.3607002133
 30
0.0
 10
45.01172273464258
 20
422.3514493829911
 30
0.0
 10
45.00684994967316
 20
422.3436597888793
 30
0.0
 10
45.00197655346129
 20
422.3358692176404
 30
0.0
 10
44.99658046333585
 20
422.3293255868218
 30
0.0
 10
44.9910931221164
 20
422.3245753242767
 30
0.0
 10
44.98932415644371
 20
422.3230439721988
 30
0.0
 10
44.98753580562627
 20
422.3216854632773
 30
0.0
 10
44.98574367033761
 20
422.320511770224
 30
0.0
  0
SPLINE
  5
115
330
72
100
AcDbEntity
  8
64647040_EINSATZ
  6
Continuous
 62
     7
100
AcDbSpline
210
0.0
220
0.0
230
1.0
 70
    12
 71
     2
 72
     6
 73
     3
 74
     0
 42
0.0000007825351782
 43
0.0000000001
 40
0.0
 40
0.0
 40
0.0
 40
1.0
 40
1.0
 40
1.0
 10
44.98574367033762
 20
422.320511770224
 30
0.0
 41
1.0
 10
44.98042102708946
 20
422.3170259009118
 30
0.0
 41
1.0
 10
44.97502362408981
 20
422.3135562005803
 30
0.0
 41
1.0
  0
SPLINE
  5
116
330
72
100
AcDbEntity
  8
64647040_EINSATZ
  6
Continuous
 62
     7
100
AcDbSpline
210
0.0
220
0.0
230
1.0
 70
     8
 71
     3
 72
    11
 73
     7
 74
     0
 42
0.0000001304087947
 43
0.0000000001
 40
0.0
 40
0.0
 40
0.0
 40
0.0
 40
0.231498784958019
 40
0.231498784958019
 40
0.231498784958019
 40
0.2991763776892606
 40
0.2991763776892606
 40
0.2991763776892606
 40
0.2991763776892606
 10
44.97502362408981
 20
422.3135562005803
 30
0.0
 10
44.96939004572848
 20
422.3099346758007
 30
0.0
 10
44.96361450188476
 20
422.3080679355814
 30
0.0
 10
44.95818522890052
 20
422.3081078678643
 30
0.0
 10
44.95659798329547
 20
422.3081195420498
 30
0.0
 10
44.95502761210007
 20
422.3082942365053
 30
0.0
 10
44.95348555362555
 20
422.3086277767243
 30
0.0
  0
ELLIPSE
  5
117
330
72
100
AcDbEntity
  8
64647040_EINSATZ
  6
Continuous
 62
     7
100
AcDbEllipse
 10
-10.3578842349
 20
496.1482806897
 30
0.0
 11
-1.806423326538346
 21
-207.5590497628934
 31
0.0
210
0.0
220
0.0
230
1.0
 40
0.280734833
 41
1.207651894114825
 42
1.211090261140647
  0
ARC
  5
118
330
72
100
AcDbEntity
  8
64647040_EINSATZ
  6
Continuous
 62
     7
100
AcDbCircle
 10
43.362363373
 20
421.9608387267
 30
0.0
 40
0.1081065175450382
100
AcDbArc
 50
276.2137458293
 51
352.1461913256
  0
LINE
  5
119
330
72
100
AcDbEntity
  8
64647040_EINSATZ
  6
Continuous
 62
     7
100
AcDbLine
 10
43.374064591
 20
421.8533673322
 30
0.0
 11
43.3533550519
 21
421.8512886011
 31
0.0
  0
ARC
  5
11A
330
72
100
AcDbEntity
  8
64647040_EINSATZ
  6
Continuous
 62
     7
100
AcDbCircle
 10
43.3418080268
 20
421.9363052309
 30
0.0
 40
0.0857972093142023
100
AcDbArc
 50
215.366074798
 51
277.7346283309
  0
ARC
  5
11B
330
72
100
AcDbEntity
  8
64647040_EINSATZ
  6
Continuous
 62
     7
100
AcDbCircle
 10
41.3692542535
 20
422.0186940008
 30
0.0
 40
0.070711140135713
100
AcDbArc
 50
256.4227042548
 51
302.8040487959
  0
LINE
  5
11C
330
72
100
AcDbEntity
  8
64647040_EINSATZ
  6
Continuous
 62
     7
100
AcDbLine
 10
41.3526543225
 20
421.9499589469
 30
0.0
 11
41.3340866577
 21
421.9539747469
 31
0.0
  0
ARC
  5
11D
330
72
100
AcDbEntity
  8
64647040_EINSATZ
  6
Continuous
 62
     7
100
AcDbCircle
 10
41.3652314558
 20
422.0662978859
 30
0.0
 40
0.1165610827438073
100
AcDbArc
 50
185.2825325551
 51
254.5024466234
  0
ELLIPSE
  5
11E
330
72
100
AcDbEntity
  8
64647040_EINSATZ
  6
Continuous
 62
     7
100
AcDbEllipse
 10
145.1260083757
 20
488.480023675
 30
0.0
 11
-19.55204980029646
 21
-206.643793906684
 31
0.0
210
0.0
220
0.0
230
1.0
 40
0.5029235065
 41
-1.199432657824833
 42
-1.196376373539437
  0
SPLINE
  5
11F
330
72
100
AcDbEntity
  8
64647040_EINSATZ
  6
Continuous
 62
     7
100
AcDbSpline
210
0.0
220
0.0
230
1.0
 70
     8
 71
     3
 72
    11
 73
     7
 74
     0
 42
0.0000002050420542
 43
0.0000000001
 40
0.7282099511796818
 40
0.7282099511796818
 40
0.7282099511796818
 40
0.7282099511796818
 40
0.9262742376864965
 40
0.9262742376864965
 40
0.9262742376864965
 40
1.0
 40
1.0
 40
1.0
 40
1.0
 10
40.11605673319462
 20
422.5469697956074
 30
0.0
 10
40.11360506607723
 20
422.5467236407853
 30
0.0
 10
40.11102670991801
 20
422.5478657243077
 30
0.0
 10
40.10848928099549
 20
422.5503421100968
 30
0.0
 10
40.10753255695379
 20
422.5512758181506
 30
0.0
 10
40.10657581500629
 20
422.5523999170978
 30
0.0
 10
40.10562758497097
 20
422.5537045565086
 30
0.0
  0
SPLINE
  5
120
330
72
100
AcDbEntity
  8
64647040_EINSATZ
  6
Continuous
 62
     7
100
AcDbSpline
210
0.0
220
0.0
230
1.0
 70
    12
 71
     2
 72
     6
 73
     3
 74
     0
 42
0.000001048380935
 43
0.0000000001
 40
0.0
 40
0.0
 40
0.0
 40
1.0
 40
1.0
 40
1.0
 10
40.10562758497096
 20
422.5537045565086
 30
0.0
 41
1.0
 10
40.10281134100366
 20
422.5575793366077
 30
0.0
 41
1.0
 10
40.10007848070434
 20
422.5614624863869
 30
0.0
 41
1.0
  0
ARC
  5
121
330
72
100
AcDbEntity
  8
64647040_EINSATZ
  6
Continuous
 62
     7
100
AcDbCircle
 10
40.3405879539
 20
422.6708176993
 30
0.0
 40
0.2642032726714002
100
AcDbArc
 50
191.4723552591
 51
204.4504155208
  0
SPLINE
  5
122
330
72
100
AcDbEntity
  8
64647040_EINSATZ
  6
Continuous
 62
     7
100
AcDbSpline
210
0.0
220
0.0
230
1.0
 70
     8
 71
     3
 72
    11
 73
     7
 74
     0
 42
0.0000001953289537
 43
0.0000000001
 40
0.7298018939319403
 40
0.7298018939319403
 40
0.7298018939319403
 40
0.7298018939319403
 40
0.9322077561190306
 40
0.9322077561190306
 40
0.9322077561190306
 40
1.0
 40
1.0
 40
1.0
 40
1.0
 10
45.54696307175779
 20
423.0920992530001
 30
0.0
 10
45.54407679221404
 20
423.0918093368122
 30
0.0
 10
45.54122231792758
 20
423.0930038549415
 30
0.0
 10
45.538577894356
 20
423.0956231749552
 30
0.0
 10
45.53768037863914
 20
423.0965121705401
 30
0.0
 10
45.53680174713568
 20
423.0975657858866
 30
0.0
 10
45.53594867822262
 20
423.0987759370407
 30
0.0
  0
SPLINE
  5
123
330
72
100
AcDbEntity
  8
64647040_EINSATZ
  6
Continuous
 62
     7
100
AcDbSpline
210
0.0
220
0.0
230
1.0
 70
    12
 71
     2
 72
     6
 73
     3
 74
     0
 42
0.0000010483867374
 43
0.0000000001
 40
0.0
 40
0.0
 40
0.0
 40
1.0
 40
1.0
 40
1.0
 10
45.53594867822262
 20
423.0987759370407
 30
0.0
 41
1.0
 10
45.53321163486505
 20
423.1026586669432
 30
0.0
 41
1.0
 10
45.530399573956
 20
423.106533866919
 30
0.0
 41
1.0
  0
SPLINE
  5
124
330
72
100
AcDbEntity
  8
64647040_EINSATZ
  6
Continuous
 62
     7
100
AcDbSpline
210
0.0
220
0.0
230
1.0
 70
     8
 71
     3
 72
    20
 73
    16
 74
     0
 42
0.0000000817534634
 43
0.0000000001
 40
0.0
 40
0.0
 40
0.0
 40
0.0
 40
0.2280395246138482
 40
0.2280395246138482
 40
0.2280395246138482
 40
0.4560243241927631
 40
0.4560243241927631
 40
0.4560243241927631
 40
0.6848913991840037
 40
0.6848913991840037
 40
0.6848913991840037
 40
0.9162090720228627
 40
0.9162090720228627
 40
0.9162090720228627
 40
1.0
 40
1.0
 40
1.0
 40
1.0
 10
45.530399573956
 20
423.106533866919
 30
0.0
 10
45.52749067953493
 20
423.1105425096741
 30
0.0
 10
45.52481635503212
 20
423.1163943442608
 30
0.0
 10
45.52260726177041
 20
423.1235994028315
 30
0.0
 10
45.52039845944736
 20
423.1308035124925
 30
0.0
 10
45.51859488124342
 20
423.1395572202803
 30
0.0
 10
45.51736468438509
 20
423.1491309279584
 30
0.0
 10
45.51612961150948
 20
423.1587425820543
 30
0.0
 10
45.51543976946233
 20
423.1694409163744
 30
0.0
 10
45.51537168557071
 20
423.1803491460484
 30
0.0
 10
45.51530287522178
 20
423.1913737668833
 30
0.0
 10
45.51586787417428
 20
423.2029104908211
 30
0.0
 10
45.5170330123972
 20
423.2140281245177
 30
0.0
 10
45.51746016426296
 20
423.2181039653775
 30
0.0
 10
45.51796881653839
 20
423.2221519839698
 30
0.0
 10
45.51855360661911
 20
423.2261285295926
 30
0.0
  0
SPLINE
  5
125
330
72
100
AcDbEntity
  8
64647040_EINSATZ
  6
Continuous
 62
     7
100
AcDbSpline
210
0.0
220
0.0
230
1.0
 70
    12
 71
     2
 72
     6
 73
     3
 74
     0
 42
0.0000000099276033
 43
0.0000000001
 40
0.0
 40
0.0
 40
0.0
 40
0.4103225934209971
 40
0.4103225934209971
 40
0.4103225934209971
 10
45.51855360661909
 20
423.2261285295926
 30
0.0
 41
1.0
 10
45.54861374695145
 20
423.4305980552362
 30
0.0
 41
1.0
 10
45.57838794575235
 20
423.6350893342721
 30
0.0
 41
1.0
  0
SPLINE
  5
126
330
72
100
AcDbEntity
  8
64647040_EINSATZ
  6
Continuous
 62
     7
100
AcDbSpline
210
0.0
220
0.0
230
1.0
 70
     8
 71
     3
 72
    14
 73
    10
 74
     0
 42
0.0000000789889645
 43
0.0000000001
 40
0.5357265208560155
 40
0.5357265208560155
 40
0.5357265208560155
 40
0.5357265208560155
 40
0.702546017013065
 40
0.702546017013065
 40
0.702546017013065
 40
0.9322077561171234
 40
0.9322077561171234
 40
0.9322077561171234
 40
1.0
 40
1.0
 40
1.0
 40
1.0
 10
44.21969917341156
 20
423.7837271004032
 30
0.0
 10
44.21383593678616
 20
423.7799216122546
 30
0.0
 10
44.20746958485724
 20
423.7769616190349
 30
0.0
 10
44.20086562731906
 20
423.7749979840501
 30
0.0
 10
44.19177185453245
 20
423.7722940220266
 30
0.0
 10
44.18197347843825
 20
423.7714037641136
 30
0.0
 10
44.17228484216469
 20
423.7724068604705
 30
0.0
 10
44.16938677709501
 20
423.7727069066721
 30
0.0
 10
44.16648285250195
 20
423.7731735936393
 30
0.0
 10
44.16359536238801
 20
423.7738033329787
 30
0.0
  0
LINE
  5
127
330
72
100
AcDbEntity
  8
64647040_EINSATZ
  6
Continuous
 62
     7
100
AcDbLine
 10
44.1635953624
 20
423.773803333
 30
0.0
 11
44.1450276976
 21
423.777819133
 31
0.0
  0
ARC
  5
128
330
72
100
AcDbEntity
  8
64647040_EINSATZ
  6
Continuous
 62
     7
100
AcDbCircle
 10
44.1735330128
 20
423.8813593592
 30
0.0
 40
0.1073924179436599
100
AcDbArc
 50
178.9443887859
 51
254.6074143873
  0
SPLINE
  5
129
330
72
100
AcDbEntity
  8
64647040_EINSATZ
  6
Continuous
 62
     7
100
AcDbSpline
210
0.0
220
0.0
230
1.0
 70
    12
 71
     2
 72
     6
 73
     3
 74
     0
 42
0.00000000982223
 43
0.0000000001
 40
0.0
 40
0.0
 40
0.0
 40
0.0624227002218602
 40
0.0624227002218602
 40
0.0624227002218602
 10
44.0661588209207
 20
423.8833378334867
 30
0.0
 41
1.0
 10
44.06590110585623
 20
423.9151135456145
 30
0.0
 41
1.0
 10
44.06563986516884
 20
423.9468881872772
 30
0.0
 41
1.0
  0
SPLINE
  5
12A
330
72
100
AcDbEntity
  8
64647040_EINSATZ
  6
Continuous
 62
     7
100
AcDbSpline
210
0.0
220
0.0
230
1.0
 70
    12
 71
     2
 72
     6
 73
     3
 74
     0
 42
0.0000000098374499
 43
0.0000000001
 40
0.9744908612483058
 40
0.9744908612483058
 40
0.9744908612483058
 40
1.0
 40
1.0
 40
1.0
 10
42.01289910506373
 20
424.0105600757473
 30
0.0
 41
1.0
 10
42.01208577766265
 20
423.9976203922507
 30
0.0
 41
1.0
 10
42.01127276683915
 20
423.9846804853409
 30
0.0
 41
1.0
  0
ARC
  5
12B
330
72
100
AcDbEntity
  8
64647040_EINSATZ
  6
Continuous
 62
     7
100
AcDbCircle
 10
41.9072126143
 20
423.991195211
 30
0.0
 40
0.1042638816169381
100
AcDbArc
 50
276.4993466247
 51
356.4176511773
  0
LINE
  5
12C
330
72
100
AcDbEntity
  8
64647040_EINSATZ
  6
Continuous
 62
     7
100
AcDbLine
 10
41.9190144394
 20
423.8876014181
 30
0.0
 11
41.8983049004
 21
423.885522687
 31
0.0
  0
ARC
  5
12D
330
72
100
AcDbEntity
  8
64647040_EINSATZ
  6
Continuous
 62
     7
100
AcDbCircle
 10
41.8885895075
 20
423.9758430265
 30
0.0
 40
0.0908413594229846
100
AcDbArc
 50
215.9459452554
 51
276.139468606
  0
SPLINE
  5
12E
330
72
100
AcDbEntity
  8
64647040_EINSATZ
  6
Continuous
 62
     7
100
AcDbSpline
210
0.0
220
0.0
230
1.0
 70
    12
 71
     2
 72
     6
 73
     3
 74
     0
 42
0.0000000098641471
 43
0.0000000001
 40
0.7565601418685295
 40
0.7565601418685295
 40
0.7565601418685295
 40
1.0
 40
1.0
 40
1.0
 10
40.12990031640982
 20
423.7362663755342
 30
0.0
 41
1.0
 10
40.14205243430374
 20
423.6134753039993
 30
0.0
 41
1.0
 10
40.15429534844771
 20
423.4906824478006
 30
0.0
 41
1.0
  0
SPLINE
  5
12F
330
72
100
AcDbEntity
  8
64647040_EINSATZ
  6
Continuous
 62
     7
100
AcDbSpline
210
0.0
220
0.0
230
1.0
 70
     8
 71
     3
 72
    20
 73
    16
 74
     0
 42
0.000000077933225
 43
0.0000000001
 40
0.0
 40
0.0
 40
0.0
 40
0.0
 40
0.2348909762855377
 40
0.2348909762855377
 40
0.2348909762855377
 40
0.4699467598198088
 40
0.4699467598198088
 40
0.4699467598198088
 40
0.7025460169960478
 40
0.7025460169960478
 40
0.7025460169960478
 40
0.9322077561132641
 40
0.9322077561132641
 40
0.9322077561132641
 40
1.0
 40
1.0
 40
1.0
 40
1.0
 10
40.15429534848823
 20
423.4906824478182
 30
0.0
 10
40.15540740045869
 20
423.4795332737648
 30
0.0
 10
40.15547018983624
 20
423.4678067143702
 30
0.0
 10
40.15447908165299
 20
423.4564655147537
 30
0.0
 10
40.15348756471229
 20
423.4451196377468
 30
0.0
 10
40.15141281791568
 20
423.4338442992293
 30
0.0
 10
40.1484421632045
 20
423.4235998638777
 30
0.0
 10
40.14550236974623
 20
423.413461854934
 30
0.0
 10
40.14160342674789
 20
423.4040499778524
 30
0.0
 10
40.13709373494725
 20
423.3961733066318
 30
0.0
 10
40.13263999176051
 20
423.3883943558004
 30
0.0
 10
40.12746743843898
 20
423.3818958890186
 30
0.0
 10
40.12202217879384
 20
423.3772297281803
 30
0.0
 10
40.12039339262339
 20
423.3758339860599
 30
0.0
 10
40.11873204061885
 20
423.3745904903129
 30
0.0
 10
40.1170509721314
 20
423.3735088174778
 30
0.0
  0
SPLINE
  5
130
330
72
100
AcDbEntity
  8
64647040_EINSATZ
  6
Continuous
 62
     7
100
AcDbSpline
210
0.0
220
0.0
230
1.0
 70
    12
 71
     2
 72
     6
 73
     3
 74
     0
 42
0.0000007825365226
 43
0.0000000001
 40
0.0
 40
0.0
 40
0.0
 40
1.0
 40
1.0
 40
1.0
 10
40.11705097213139
 20
423.3735088174778
 30
0.0
 41
1.0
 10
40.11165731955918
 20
423.3700383060067
 30
0.0
 41
1.0
 10
40.1063309258836
 20
423.3665532478341
 30
0.0
 41
1.0
  0
SPLINE
  5
131
330
72
100
AcDbEntity
  8
64647040_EINSATZ
  6
Continuous
 62
     7
100
AcDbSpline
210
0.0
220
0.0
230
1.0
 70
     8
 71
     3
 72
    11
 73
     7
 74
     0
 42
0.0000001259966942
 43
0.0000000001
 40
0.0
 40
0.0
 40
0.0
 40
0.0
 40
0.2280395246138006
 40
0.2280395246138006
 40
0.2280395246138006
 40
0.2976203304513039
 40
0.2976203304513039
 40
0.2976203304513039
 40
0.2976203304513039
 10
40.1063309258836
 20
423.3665532478341
 30
0.0
 10
40.10082111747317
 20
423.3629481814422
 30
0.0
 10
40.09498829972322
 20
423.3611063240098
 30
0.0
 10
40.0893083626198
 20
423.3611766987872
 30
0.0
 10
40.08757507798182
 20
423.3611981742928
 30
0.0
 10
40.08584144753241
 20
423.3613978129583
 30
0.0
 10
40.08412007527527
 20
423.3617705956885
 30
0.0
  0
SPLINE
  5
132
330
72
100
AcDbEntity
  8
64647040_EINSATZ
  6
Continuous
 62
     7
100
AcDbSpline
210
0.0
220
0.0
230
1.0
 70
    12
 71
     2
 72
     6
 73
     3
 74
     0
 42
0.0000000102054906
 43
0.0000000001
 40
0.525030990021649
 40
0.525030990021649
 40
0.525030990021649
 40
1.0
 40
1.0
 40
1.0
 10
48.67969877497816
 20
422.8044273753677
 30
0.0
 41
1.0
 10
48.67333843731911
 20
422.5718035255995
 30
0.0
 41
1.0
 10
48.66674479042364
 20
422.3392023800571
 30
0.0
 41
1.0
  0
ARC
  5
133
330
72
100
AcDbEntity
  8
64647040_EINSATZ
  6
Continuous
 62
     7
100
AcDbCircle
 10
48.3937481527
 20
422.3346390709
 30
0.0
 40
0.2730347745162859
100
AcDbArc
 50
335.3828722141
 51
0.9576455673
  0
LINE
  5
134
330
72
100
AcDbEntity
  8
64647040_EINSATZ
  6
Continuous
 62
     7
100
AcDbLine
 10
48.6419672408
 20
422.2209057319
 30
0.0
 11
48.6364181365
 21
422.213147802
 31
0.0
  0
SPLINE
  5
135
330
72
100
AcDbEntity
  8
64647040_EINSATZ
  6
Continuous
 62
     7
100
AcDbSpline
210
0.0
220
0.0
230
1.0
 70
     8
 71
     3
 72
    11
 73
     7
 74
     0
 42
0.0000002081589837
 43
0.0000000001
 40
0.0
 40
0.0
 40
0.0
 40
0.0
 40
0.231576835486446
 40
0.231576835486446
 40
0.231576835486446
 40
0.2714423156741267
 40
0.2714423156741267
 40
0.2714423156741267
 40
0.2714423156741267
 10
48.63641813654827
 20
422.2131478019882
 30
0.0
 10
48.63350272489695
 20
422.2091000297812
 30
0.0
 10
48.63051611857117
 20
422.2067910589828
 30
0.0
 10
48.6277104098458
 20
422.2064115154834
 30
0.0
 10
48.62722741151056
 20
422.2063461776682
 30
0.0
 10
48.62674749363093
 20
422.2063377059624
 30
0.0
 10
48.62627185947142
 20
422.206385443423
 30
0.0
  0
SPLINE
  5
136
330
72
100
AcDbEntity
  8
64647040_EINSATZ
  6
Continuous
 62
     7
100
AcDbSpline
210
0.0
220
0.0
230
1.0
 70
    12
 71
     2
 72
     6
 73
     3
 74
     0
 42
0.0000000102356099
 43
0.0000000001
 40
0.5063091198772884
 40
0.5063091198772884
 40
0.5063091198772884
 40
1.0
 40
1.0
 40
1.0
 10
48.10377253593909
 20
422.2588281652674
 30
0.0
 41
1.0
 10
48.09025280158419
 20
422.0180263789651
 30
0.0
 41
1.0
 10
48.07650704823628
 20
421.7772727001138
 30
0.0
 41
1.0
  0
SPLINE
  5
137
330
72
100
AcDbEntity
  8
64647040_EINSATZ
  6
Continuous
 62
     7
100
AcDbSpline
210
0.0
220
0.0
230
1.0
 70
     8
 71
     3
 72
    20
 73
    16
 74
     0
 42
0.0000000778449563
 43
0.0000000001
 40
0.0
 40
0.0
 40
0.0
 40
0.0
 40
0.2315776513680541
 40
0.2315776513680541
 40
0.2315776513680541
 40
0.4631536226836963
 40
0.4631536226836963
 40
0.4631536226836963
 40
0.6947533629860224
 40
0.6947533629860224
 40
0.6947533629860224
 40
0.9263592170253135
 40
0.9263592170253135
 40
0.9263592170253135
 40
1.0
 40
1.0
 40
1.0
 40
1.0
 10
48.07650704777441
 20
421.7772726999115
 30
0.0
 10
48.0758947286389
 20
421.7665480182376
 30
0.0
 10
48.07434396218239
 20
421.755248489217
 30
0.0
 10
48.07197633600734
 20
421.7443113693775
 30
0.0
 10
48.06960871997957
 20
421.7333742964129
 30
0.0
 10
48.06635848302254
 20
421.7224980835549
 30
0.0
 10
48.06248253189965
 20
421.7125857129031
 30
0.0
 10
48.05860619275381
 20
421.7026723499201
 30
0.0
 10
48.0539964731982
 20
421.6934497257838
 30
0.0
 10
48.04902286267805
 20
421.6856841083528
 30
0.0
 10
48.04404913628375
 20
421.6779183099999
 30
0.0
 10
48.03857380855152
 20
421.6713954946657
 30
0.0
 10
48.0330435717897
 20
421.6666574988981
 30
0.0
 10
48.03126247834662
 20
421.6651315582271
 30
0.0
 10
48.02946557063992
 20
421.6637773160493
 30
0.0
 10
48.02766853243487
 20
421.6626066412071
 30
0.0
  0
LINE
  5
138
330
72
100
AcDbEntity
  8
64647040_EINSATZ
  6
Continuous
 62
     7
100
AcDbLine
 10
48.0276685324
 20
421.6626066412
 30
0.0
 11
48.0169484862
 21
421.6556510716
 31
0.0
  0
SPLINE
  5
139
330
72
100
AcDbEntity
  8
64647040_EINSATZ
  6
Continuous
 62
     7
100
AcDbSpline
210
0.0
220
0.0
230
1.0
 70
     8
 71
     3
 72
    11
 73
     7
 74
     0
 42
0.000000131774897
 43
0.0000000001
 40
0.0
 40
0.0
 40
0.0
 40
0.0
 40
0.2315768356817537
 40
0.2315768356817537
 40
0.2315768356817537
 40
0.2991873400862314
 40
0.2991873400862314
 40
0.2991873400862314
 40
0.2991873400862314
 10
48.01694848618708
 20
421.6556510715635
 30
0.0
 10
48.01133577276602
 20
421.6520238885216
 30
0.0
 10
48.00561788878726
 20
421.6501442048502
 30
0.0
 10
48.00027261802007
 20
421.6501666504905
 30
0.0
 10
47.99871202400666
 20
421.6501732036724
 30
0.0
 10
47.99717065775724
 20
421.6503419356644
 30
0.0
 10
47.99565933876598
 20
421.650668818752
 30
0.0
  0
SPLINE
  5
13A
330
72
100
AcDbEntity
  8
64647040_EINSATZ
  6
Continuous
 62
     7
100
AcDbSpline
210
0.0
220
0.0
230
1.0
 70
    12
 71
     2
 72
     6
 73
     3
 74
     0
 42
0.0000000102876131
 43
0.0000000001
 40
0.4434559684346368
 40
0.4434559684346368
 40
0.4434559684346368
 40
1.0
 40
1.0
 40
1.0
 10
47.16232321527678
 20
421.8308941801122
 30
0.0
 41
1.0
 10
47.14034835141346
 20
421.5612621546152
 30
0.0
 41
1.0
 10
47.11813892878978
 20
421.2917169993386
 30
0.0
 41
1.0
  0
ARC
  5
13B
330
72
100
AcDbEntity
  8
64647040_EINSATZ
  6
Continuous
 62
     7
100
AcDbCircle
 10
46.9882530835
 20
421.2981001331
 30
0.0
 40
0.1300425976019748
100
AcDbArc
 50
297.6330207132
 51
357.1865092494
  0
LINE
  5
13C
330
72
100
AcDbEntity
  8
64647040_EINSATZ
  6
Continuous
 62
     7
100
AcDbLine
 10
47.0485677109
 20
421.1828906591
 30
0.0
 11
47.0334072761
 21
421.1772114602
 31
0.0
  0
SPLINE
  5
13D
330
72
100
AcDbEntity
  8
64647040_EINSATZ
  6
Continuous
 62
     7
100
AcDbSpline
210
0.0
220
0.0
230
1.0
 70
     8
 71
     3
 72
    11
 73
     7
 74
     0
 42
0.0000000981597769
 43
0.0000000001
 40
0.0
 40
0.0
 40
0.0
 40
0.0
 40
0.2315768356270573
 40
0.2315768356270573
 40
0.2315768356270573
 40
0.3564567641995949
 40
0.3564567641995949
 40
0.3564567641995949
 40
0.3564567641995949
 10
47.03340727614541
 20
421.1772114602492
 30
0.0
 10
47.02547975809883
 20
421.1742520529027
 30
0.0
 10
47.01742026081099
 20
421.1730518406551
 30
0.0
 10
47.00989969937127
 20
421.1737088020398
 30
0.0
 10
47.00584415687565
 20
421.1740630754321
 30
0.0
 10
47.00188511078046
 20
421.1749626424388
 30
0.0
 10
46.99811728338305
 20
421.1763740890318
 30
0.0
  0
SPLINE
  5
13E
330
72
100
AcDbEntity
  8
64647040_EINSATZ
  6
Continuous
 62
     7
100
AcDbSpline
210
0.0
220
0.0
230
1.0
 70
    12
 71
     2
 72
     6
 73
     3
 74
     0
 42
0.0000000103633097
 43
0.0000000001
 40
0.8027210423815123
 40
0.8027210423815123
 40
0.8027210423815123
 40
1.0
 40
1.0
 40
1.0
 10
45.87636259252962
 20
421.1049957491078
 30
0.0
 41
1.0
 10
45.86666753676068
 20
421.0103037243123
 30
0.0
 41
1.0
 10
45.85695163564653
 20
420.9156250963205
 30
0.0
 41
1.0
  0
ARC
  5
13F
330
72
100
AcDbEntity
  8
64647040_EINSATZ
  6
Continuous
 62
     7
100
AcDbCircle
 10
45.7403180056
 20
420.9274932474
 30
0.0
 40
0.1172359034968292
100
AcDbArc
 50
285.3686553884
 51
354.1898192011
  0
LINE
  5
140
330
72
100
AcDbEntity
  8
64647040_EINSATZ
  6
Continuous
 62
     7
100
AcDbLine
 10
45.7713888793
 20
420.8144496369
 30
0.0
 11
45.7528212145
 21
420.8104338369
 31
0.0
  0
ARC
  5
141
330
72
100
AcDbEntity
  8
64647040_EINSATZ
  6
Continuous
 62
     7
100
AcDbCircle
 10
45.7360171721
 20
420.8782177375
 30
0.0
 40
0.0698357574726587
100
AcDbArc
 50
237.2522971808
 51
283.9232734671
  0
SPLINE
  5
142
330
72
100
AcDbEntity
  8
64647040_EINSATZ
  6
Continuous
 62
     7
100
AcDbSpline
210
0.0
220
0.0
230
1.0
 70
    12
 71
     2
 72
     6
 73
     3
 74
     0
 42
0.0000000104605634
 43
0.0000000001
 40
0.921462693066185
 40
0.921462693066185
 40
0.921462693066185
 40
1.0
 40
1.0
 40
1.0
 10
44.38756759873199
 20
420.7492036450542
 30
0.0
 41
1.0
 10
44.38323115432759
 20
420.7119141536253
 30
0.0
 41
1.0
 10
44.37889299862346
 20
420.6746270327288
 30
0.0
 41
1.0
  0
ARC
  5
143
330
72
100
AcDbEntity
  8
64647040_EINSATZ
  6
Continuous
 62
     7
100
AcDbCircle
 10
44.271971599
 20
420.6898031281
 30
0.0
 40
0.1079930531437706
100
AcDbArc
 50
275.9518387334
 51
351.9215740258
  0
LINE
  5
144
330
72
100
AcDbEntity
  8
64647040_EINSATZ
  6
Continuous
 62
     7
100
AcDbLine
 10
44.2831696642
 20
420.5823922215
 30
0.0
 11
44.2624601251
 21
420.5803134904
 31
0.0
  0
ARC
  5
145
330
72
100
AcDbEntity
  8
64647040_EINSATZ
  6
Continuous
 62
     7
100
AcDbCircle
 10
44.2506383372
 20
420.6646568252
 30
0.0
 40
0.0851677919550604
100
AcDbArc
 50
215.3878882532
 51
277.9787519634
  0
SPLINE
  5
146
330
72
100
AcDbEntity
  8
64647040_EINSATZ
  6
Continuous
 62
     7
100
AcDbSpline
210
0.0
220
0.0
230
1.0
 70
    12
 71
     2
 72
     6
 73
     3
 74
     0
 42
0.0000000105769734
 43
0.0000000001
 40
0.0
 40
0.0
 40
0.0
 40
0.0418236917032617
 40
0.0418236917032617
 40
0.0418236917032617
 10
42.78469027119802
 20
420.5851464283325
 30
0.0
 41
1.0
 10
42.78709345631437
 20
420.6047705883736
 30
0.0
 41
1.0
 10
42.78949664078271
 20
420.6243954446434
 30
0.0
 41
1.0
  0
ARC
  5
147
330
72
100
AcDbEntity
  8
64647040_EINSATZ
  6
Continuous
 62
     7
100
AcDbCircle
 10
42.6881536909
 20
420.600194271
 30
0.0
 40
0.0977023484869713
100
AcDbArc
 50
268.3437176283
 51
351.1401981305
  0
LINE
  5
148
330
72
100
AcDbEntity
  8
64647040_EINSATZ
  6
Continuous
 62
     7
100
AcDbLine
 10
42.6638896533
 20
420.5025327421
 30
0.0
 11
42.6853297457
 21
420.5025327421
 31
0.0
  0
ARC
  5
149
330
72
100
AcDbEntity
  8
64647040_EINSATZ
  6
Continuous
 62
     7
100
AcDbCircle
 10
42.6613793628
 20
420.6005715076
 30
0.0
 40
0.0980708982685811
100
AcDbArc
 50
189.0493416957
 51
271.4667425617
  0
SPLINE
  5
14A
330
72
100
AcDbEntity
  8
64647040_EINSATZ
  6
Continuous
 62
     7
100
AcDbSpline
210
0.0
220
0.0
230
1.0
 70
    12
 71
     2
 72
     6
 73
     3
 74
     0
 42
0.0000000105769734
 43
0.0000000001
 40
0.9581763082891912
 40
0.9581763082891912
 40
0.9581763082891912
 40
1.0
 40
1.0
 40
1.0
 10
42.55972275818726
 20
420.6243954446491
 30
0.0
 41
1.0
 10
42.56212594265613
 20
420.6047705883751
 30
0.0
 41
1.0
 10
42.56452912777303
 20
420.5851464283294
 30
0.0
 41
1.0
  0
ARC
  5
14B
330
72
100
AcDbEntity
  8
64647040_EINSATZ
  6
Continuous
 62
     7
100
AcDbCircle
 10
41.0987968369
 20
420.6643722694
 30
0.0
 40
0.0849163190557776
100
AcDbArc
 50
261.8504162032
 51
324.7058533646
  0
LINE
  5
14C
330
72
100
AcDbEntity
  8
64647040_EINSATZ
  6
Continuous
 62
     7
100
AcDbLine
 10
41.0867592739
 20
420.5803134904
 30
0.0
 11
41.0660497348
 21
420.5823922215
 31
0.0
  0
ARC
  5
14D
330
72
100
AcDbEntity
  8
64647040_EINSATZ
  6
Continuous
 62
     7
100
AcDbCircle
 10
41.0773848903
 20
420.689945404
 30
0.0
 40
0.1081488457181232
100
AcDbArc
 50
188.1428474399
 51
263.9837401277
  0
SPLINE
  5
14E
330
72
100
AcDbEntity
  8
64647040_EINSATZ
  6
Continuous
 62
     7
100
AcDbSpline
210
0.0
220
0.0
230
1.0
 70
    12
 71
     2
 72
     6
 73
     3
 74
     0
 42
0.0000000104605634
 43
0.0000000001
 40
0.0
 40
0.0
 40
0.0
 40
0.0785373069072943
 40
0.0785373069072943
 40
0.0785373069072943
 10
40.97032640003713
 20
420.6746270327259
 30
0.0
 41
1.0
 10
40.9659882443345
 20
420.7119141536094
 30
0.0
 41
1.0
 10
40.9616517999316
 20
420.7492036450254
 30
0.0
 41
1.0
  0
ARC
  5
14F
330
72
100
AcDbEntity
  8
64647040_EINSATZ
  6
Continuous
 62
     7
100
AcDbCircle
 10
39.6131291275
 20
420.8783166473
 30
0.0
 40
0.0699142360168168
100
AcDbArc
 50
256.154376942
 51
302.815152396
  0
LINE
  5
150
330
72
100
AcDbEntity
  8
64647040_EINSATZ
  6
Continuous
 62
     7
100
AcDbLine
 10
39.5778305197
 20
420.8144496369
 30
0.0
 11
39.5963981845
 21
420.8104338369
 31
0.0
  0
ARC
  5
151
330
72
100
AcDbEntity
  8
64647040_EINSATZ
  6
Continuous
 62
     7
100
AcDbCircle
 10
39.608464273
 20
420.9271235783
 30
0.0
 40
0.1167640523011975
100
AcDbArc
 50
185.6514309477
 51
254.7900932849
  0
SPLINE
  5
152
330
72
100
AcDbEntity
  8
64647040_EINSATZ
  6
Continuous
 62
     7
100
AcDbSpline
210
0.0
220
0.0
230
1.0
 70
    12
 71
     2
 72
     6
 73
     3
 74
     0
 42
0.0000000103633089
 43
0.0000000001
 40
0.802474492872303
 40
0.802474492872303
 40
0.802474492872303
 40
1.0
 40
1.0
 40
1.0
 10
39.47283257369767
 20
421.1052324319707
 30
0.0
 41
1.0
 10
39.48253971978497
 20
421.0104220489906
 30
0.0
 41
1.0
 10
39.49226776335301
 20
420.9156250963205
 30
0.0
 41
1.0
  0
SPLINE
  5
153
330
72
100
AcDbEntity
  8
64647040_EINSATZ
  6
Continuous
 62
     7
100
AcDbSpline
210
0.0
220
0.0
230
1.0
 70
     8
 71
     3
 72
    14
 73
    10
 74
     0
 42
0.000000098030916
 43
0.0000000001
 40
0.6448051798054288
 40
0.6448051798054288
 40
0.6448051798054288
 40
0.6448051798054288
 40
0.6947533630130645
 40
0.6947533630130645
 40
0.6947533630130645
 40
0.9263592170319837
 40
0.9263592170319837
 40
0.9263592170319837
 40
1.0
 40
1.0
 40
1.0
 40
1.0
 10
38.35103547316259
 20
421.1763434615196
 30
0.0
 10
38.34953188133559
 20
421.1757802048415
 30
0.0
 10
38.3480004344195
 20
421.175300700779
 30
0.0
 10
38.34644681884207
 20
421.1749080502505
 30
0.0
 10
38.33924284616347
 20
421.1730873658279
 30
0.0
 10
38.33136388535569
 20
421.1730840716572
 30
0.0
 10
38.32346803541624
 20
421.174900648687
 30
0.0
 10
38.32092506173167
 20
421.1754857038258
 30
0.0
 10
38.31836560873884
 20
421.1762582230768
 30
0.0
 10
38.3158121228541
 20
421.1772114602492
 30
0.0
  0
LINE
  5
154
330
72
100
AcDbEntity
  8
64647040_EINSATZ
  6
Continuous
 62
     7
100
AcDbLine
 10
38.3158121229
 20
421.1772114602
 30
0.0
 11
38.3006516881
 21
421.1828906591
 31
0.0
  0
ARC
  5
155
330
72
100
AcDbEntity
  8
64647040_EINSATZ
  6
Continuous
 62
     7
100
AcDbCircle
 10
38.3593496282
 20
421.2970666069
 30
0.0
 40
0.1283806654013221
100
AcDbArc
 50
182.3882000155
 51
242.7922701554
  0
SPLINE
  5
156
330
72
100
AcDbEntity
  8
64647040_EINSATZ
  6
Continuous
 62
     7
100
AcDbSpline
210
0.0
220
0.0
230
1.0
 70
    12
 71
     2
 72
     6
 73
     3
 74
     0
 42
0.0000000102876131
 43
0.0000000001
 40
0.0
 40
0.0
 40
0.0
 40
0.5565440315177325
 40
0.5565440315177325
 40
0.5565440315177325
 10
38.23108047003308
 20
421.2917169993784
 30
0.0
 41
1.0
 10
38.20887104741204
 20
421.5612621546232
 30
0.0
 41
1.0
 10
38.1868961835505
 20
421.8308941800981
 30
0.0
 41
1.0
  0
SPLINE
  5
157
330
72
100
AcDbEntity
  8
64647040_EINSATZ
  6
Continuous
 62
     7
100
AcDbSpline
210
0.0
220
0.0
230
1.0
 70
     8
 71
     3
 72
    11
 73
     7
 74
     0
 42
0.0000001313462317
 43
0.0000000001
 40
0.700846419875794
 40
0.700846419875794
 40
0.700846419875794
 40
0.700846419875794
 40
0.926359217104709
 40
0.926359217104709
 40
0.926359217104709
 40
1.0
 40
1.0
 40
1.0
 40
1.0
 10
37.35360980723853
 20
421.6506726209735
 30
0.0
 10
37.34859466586782
 20
421.6495879019917
 30
0.0
 10
37.34314492594668
 20
421.6502784541111
 30
0.0
 10
37.33769477877833
 20
421.652695192875
 30
0.0
 10
37.3358920534961
 20
421.6534945687333
 30
0.0
 10
37.33407879068945
 20
421.654482741117
 30
0.0
 10
37.33227091281246
 20
421.6556510715635
 30
0.0
  0
LINE
  5
158
330
72
100
AcDbEntity
  8
64647040_EINSATZ
  6
Continuous
 62
     7
100
AcDbLine
 10
37.3322709128
 20
421.6556510716
 30
0.0
 11
37.3215508666
 21
421.6626066412
 31
0.0
  0
SPLINE
  5
159
330
72
100
AcDbEntity
  8
64647040_EINSATZ
  6
Continuous
 62
     7
100
AcDbSpline
210
0.0
220
0.0
230
1.0
 70
     8
 71
     3
 72
    20
 73
    16
 74
     0
 42
0.0000000778261939
 43
0.0000000001
 40
0.0
 40
0.0
 40
0.0
 40
0.0
 40
0.2315768354864464
 40
0.2315768354864464
 40
0.2315768354864464
 40
0.4631521973025191
 40
0.4631521973025191
 40
0.4631521973025191
 40
0.6947491985089959
 40
0.6947491985089959
 40
0.6947491985089959
 40
0.9263566104963636
 40
0.9263566104963636
 40
0.9263566104963636
 40
1.0
 40
1.0
 40
1.0
 40
1.0
 10
37.32155086656466
 20
421.6626066412072
 30
0.0
 10
37.31597180584379
 20
421.6662411026286
 30
0.0
 10
37.31034363583946
 20
421.6717231659903
 30
0.0
 10
37.30512816889252
 20
421.6785978158993
 30
0.0
 10
37.29991272112698
 20
421.6854724405246
 30
0.0
 10
37.29496573905158
 20
421.6939291279185
 30
0.0
 10
37.29068579696835
 20
421.7032653419337
 30
0.0
 10
37.28640546305397
 20
421.7126024106847
 30
0.0
 10
37.28267362642275
 20
421.7230765677945
 30
0.0
 10
37.27978645233192
 20
421.7338178770204
 30
0.0
 10
37.27689915890641
 20
421.7445596302135
 30
0.0
 10
37.27477640728811
 20
421.7558647647591
 30
0.0
 10
37.27358499515876
 20
421.766794983437
 30
0.0
 10
37.27320127250708
 20
421.7703153206832
 30
0.0
 10
37.27290958766864
 20
421.7738181265979
 30
0.0
 10
37.2727123506518
 20
421.7772727001624
 30
0.0
  0
SPLINE
  5
15A
330
72
100
AcDbEntity
  8
64647040_EINSATZ
  6
Continuous
 62
     7
100
AcDbSpline
210
0.0
220
0.0
230
1.0
 70
    12
 71
     2
 72
     6
 73
     3
 74
     0
 42
0.0000000102356099
 43
0.0000000001
 40
0.0
 40
0.0
 40
0.0
 40
0.493690880054498
 40
0.493690880054498
 40
0.493690880054498
 10
37.27271235065182
 20
421.7772727001624
 30
0.0
 41
1.0
 10
37.25896659730511
 20
422.0180263789923
 30
0.0
 41
1.0
 10
37.24544686295203
 20
422.2588281652614
 30
0.0
 41
1.0
  0
SPLINE
  5
15B
330
72
100
AcDbEntity
  8
64647040_EINSATZ
  6
Continuous
 62
     7
100
AcDbSpline
210
0.0
220
0.0
230
1.0
 70
     8
 71
     3
 72
    11
 73
     7
 74
     0
 42
0.000000208206083
 43
0.0000000001
 40
0.728199189685725
 40
0.728199189685725
 40
0.728199189685725
 40
0.728199189685725
 40
0.9263592170636006
 40
0.9263592170636006
 40
0.9263592170636006
 40
1.0
 40
1.0
 40
1.0
 40
1.0
 10
36.72299037594628
 20
422.2063889258544
 30
0.0
 10
36.72062759105879
 20
422.2061517115719
 30
0.0
 10
36.71811964468669
 20
422.2073023413041
 30
0.0
 10
36.71562345431868
 20
422.2097852450967
 30
0.0
 10
36.71468383018762
 20
422.2107198678517
 30
0.0
 10
36.71374032843084
 20
422.2118439980569
 30
0.0
 10
36.71280126245129
 20
422.2131478019883
 30
0.0
  0
LINE
  5
15C
330
72
100
AcDbEntity
  8
64647040_EINSATZ
  6
Continuous
 62
     7
100
AcDbLine
 10
36.7128012625
 20
422.213147802
 30
0.0
 11
36.7072521582
 21
422.2209057319
 31
0.0
  0
ARC
  5
15D
330
72
100
AcDbEntity
  8
64647040_EINSATZ
  6
Continuous
 62
     7
100
AcDbCircle
 10
36.9451194653
 20
422.3324708619
 30
0.0
 40
0.2627311059739275
100
AcDbArc
 50
178.5318457734
 51
205.1276361976
  0
SPLINE
  5
15E
330
72
100
AcDbEntity
  8
64647040_EINSATZ
  6
Continuous
 62
     7
100
AcDbSpline
210
0.0
220
0.0
230
1.0
 70
    12
 71
     2
 72
     6
 73
     3
 74
     0
 42
0.0000000102054906
 43
0.0000000001
 40
0.0
 40
0.0
 40
0.0
 40
0.4749690101279356
 40
0.4749690101279356
 40
0.4749690101279356
 10
36.68247460871331
 20
422.3392023799207
 30
0.0
 41
1.0
 10
36.67588096181595
 20
422.5718035255302
 30
0.0
 41
1.0
 10
36.66952062415497
 20
422.8044273753714
 30
0.0
 41
1.0
  0
LINE
  5
15F
330
72
100
AcDbEntity
  8
64647040_EINSATZ
  6
Continuous
 62
     7
100
AcDbLine
 10
49.1465238981
 20
422.8117091707
 30
0.0
 11
49.1465238981
 21
422.8197407707
 31
0.0
  0
ARC
  5
160
330
72
100
AcDbEntity
  8
64647040_EINSATZ
  6
Continuous
 62
     7
100
AcDbCircle
 10
49.9961878864
 20
422.7705819033
 30
0.0
 40
0.8510848884212233
100
AcDbArc
 50
168.5720900751
 51
176.6887390852
  0
SPLINE
  5
161
330
72
100
AcDbEntity
  8
64647040_EINSATZ
  6
Continuous
 62
     7
100
AcDbSpline
210
0.0
220
0.0
230
1.0
 70
    12
 71
     2
 72
     6
 73
     3
 74
     0
 42
0.0000000100221455
 43
0.0000000001
 40
0.0
 40
0.0
 40
0.0
 40
0.5360419836965542
 40
0.5360419836965542
 40
0.5360419836965542
 10
49.16197594702919
 20
422.9392114601222
 30
0.0
 41
1.0
 10
49.21148908352283
 20
423.20201847334
 30
0.0
 41
1.0
 10
49.26074490629098
 20
423.4648702699388
 30
0.0
 41
1.0
  0
SPLINE
  5
162
330
72
100
AcDbEntity
  8
64647040_EINSATZ
  6
Continuous
 62
     7
100
AcDbSpline
210
0.0
220
0.0
230
1.0
 70
     8
 71
     3
 72
    11
 73
     7
 74
     0
 42
0.0000001926979068
 43
0.0000000001
 40
0.7299612795054511
 40
0.7299612795054511
 40
0.7299612795054511
 40
0.7299612795054511
 40
0.9340165526357721
 40
0.9340165526357721
 40
0.9340165526357721
 40
1.0
 40
1.0
 40
1.0
 40
1.0
 10
48.93999303396419
 20
423.4326762857438
 30
0.0
 10
48.93700299517774
 20
423.4323759057126
 30
0.0
 10
48.93406057000136
 20
423.4335877300509
 30
0.0
 10
48.93135994715578
 20
423.4362517076009
 30
0.0
 10
48.9304748873584
 20
423.4371247578436
 30
0.0
 10
48.92961057246018
 20
423.4381542001408
 30
0.0
 10
48.92877332160104
 20
423.4393325230163
 30
0.0
  0
LINE
  5
163
330
72
100
AcDbEntity
  8
64647040_EINSATZ
  6
Continuous
 62
     7
100
AcDbLine
 10
48.9287733216
 20
423.439332523
 30
0.0
 11
48.9232242173
 21
423.4470904529
 31
0.0
  0
SPLINE
  5
164
330
72
100
AcDbEntity
  8
64647040_EINSATZ
  6
Continuous
 62
     7
100
AcDbSpline
210
0.0
220
0.0
230
1.0
 70
     8
 71
     3
 72
    20
 73
    16
 74
     0
 42
0.0000000817664572
 43
0.0000000001
 40
0.0
 40
0.0
 40
0.0
 40
0.0
 40
0.2274863333635815
 40
0.2274863333635815
 40
0.2274863333635815
 40
0.4548919042039777
 40
0.4548919042039777
 40
0.4548919042039777
 40
0.6835816436548183
 40
0.6835816436548183
 40
0.6835816436548183
 40
0.9153618865420613
 40
0.9153618865420613
 40
0.9153618865420613
 40
1.0
 40
1.0
 40
1.0
 40
1.0
 10
48.92322421733441
 20
423.4470904528947
 30
0.0
 10
48.92034116969641
 20
423.4510945587618
 30
0.0
 10
48.91772670613285
 20
423.4569393877805
 30
0.0
 10
48.91560092597879
 20
423.4641327155603
 30
0.0
 10
48.91347556410933
 20
423.4713246279264
 30
0.0
 10
48.91178052831277
 20
423.4800600027527
 30
0.0
 10
48.91065983143086
 20
423.4896105293539
 30
0.0
 10
48.90953269916483
 20
423.4992158979985
 30
0.0
 10
48.90895592071813
 20
423.5099047660214
 30
0.0
 10
48.90898043918308
 20
423.5208053483323
 30
0.0
 10
48.90900528647128
 20
423.5318521210768
 30
0.0
 10
48.90964831018181
 20
423.5434145450438
 30
0.0
 10
48.91085971143109
 20
423.554561134136
 30
0.0
 10
48.91130739897591
 20
423.558680486916
 30
0.0
 10
48.91183388080886
 20
423.5627720900287
 30
0.0
 10
48.91243335439482
 20
423.5667910219375
 30
0.0
  0
SPLINE
  5
165
330
72
100
AcDbEntity
  8
64647040_EINSATZ
  6
Continuous
 62
     7
100
AcDbSpline
210
0.0
220
0.0
230
1.0
 70
    12
 71
     2
 72
     6
 73
     3
 74
     0
 42
0.0000000099207528
 43
0.0000000001
 40
0.0
 40
0.0
 40
0.0
 40
0.525834660272674
 40
0.525834660272674
 40
0.525834660272674
 10
48.91243335439486
 20
423.5667910219375
 30
0.0
 41
1.0
 10
48.9515298716853
 20
423.8289172012238
 30
0.0
 41
1.0
 10
48.99038591153184
 20
424.0910624032722
 30
0.0
 41
1.0
  0
SPLINE
  5
166
330
72
100
AcDbEntity
  8
64647040_EINSATZ
  6
Continuous
 62
     7
100
AcDbSpline
210
0.0
220
0.0
230
1.0
 70
     8
 71
     3
 72
    14
 73
    10
 74
     0
 42
0.0000001243990366
 43
0.0000000001
 40
0.7028867624791619
 40
0.7028867624791619
 40
0.7028867624791619
 40
0.7028867624791619
 40
0.704269823626313
 40
0.704269823626313
 40
0.704269823626313
 40
0.9340165526915168
 40
0.9340165526915168
 40
0.9340165526915168
 40
1.0
 40
1.0
 40
1.0
 40
1.0
 10
48.30726719471143
 20
424.0197209658361
 30
0.0
 10
48.30723266190322
 20
424.0197134968428
 30
0.0
 10
48.30719812635153
 20
424.0197060984177
 30
0.0
 10
48.3071635881554
 20
424.0196987706233
 30
0.0
 10
48.30142493081077
 20
424.0184812287206
 30
0.0
 10
48.29545223422087
 20
424.0191801391704
 30
0.0
 10
48.28974429317575
 20
424.0217480614635
 30
0.0
 10
48.28808284560764
 20
424.0224955233267
 30
0.0
 10
48.28643466577548
 20
424.0234010546761
 30
0.0
 10
48.28481182973641
 20
424.0244580512476
 30
0.0
  0
LINE
  5
167
330
72
100
AcDbEntity
  8
64647040_EINSATZ
  6
Continuous
 62
     7
100
AcDbLine
 10
48.2848118297
 20
424.0244580512
 30
0.0
 11
48.2740917835
 21
424.0314136209
 31
0.0
  0
SPLINE
  5
168
330
72
100
AcDbEntity
  8
64647040_EINSATZ
  6
Continuous
 62
     7
100
AcDbSpline
210
0.0
220
0.0
230
1.0
 70
     8
 71
     3
 72
    20
 73
    16
 74
     0
 42
0.0000000779842952
 43
0.0000000001
 40
0.0
 40
0.0
 40
0.0
 40
0.0
 40
0.2274863332652766
 40
0.2274863332652766
 40
0.2274863332652766
 40
0.4548919040074019
 40
0.4548919040074019
 40
0.4548919040074019
 40
0.6835816433594271
 40
0.6835816433594271
 40
0.6835816433594271
 40
0.9153618861465055
 40
0.9153618861465055
 40
0.9153618861465055
 40
1.0
 40
1.0
 40
1.0
 40
1.0
 10
48.27409178348861
 20
424.0314136208913
 30
0.0
 10
48.26854050076852
 20
424.035001763351
 30
0.0
 10
48.26318899066759
 20
424.0404537273278
 30
0.0
 10
48.2584842371208
 20
424.047310187573
 30
0.0
 10
48.25378040931694
 20
424.0541652986892
 30
0.0
 10
48.24959420867796
 20
424.0626106233225
 30
0.0
 10
48.24627032534757
 20
424.0719419525895
 30
0.0
 10
48.24292735526292
 20
424.0813268652019
 30
0.0
 10
48.24036564846614
 20
424.0918609497434
 30
0.0
 10
48.23879038986036
 20
424.102685052817
 30
0.0
 10
48.23719400506774
 20
424.113654320642
 30
0.0
 10
48.23656711719569
 20
424.1252175403946
 30
0.0
 10
48.23695607556996
 20
424.1364430558524
 30
0.0
 10
48.23709981970075
 20
424.140591576797
 30
0.0
 10
48.23738002147034
 20
424.144722963846
 30
0.0
 10
48.2377933860833
 20
424.1487918478182
 30
0.0
  0
SPLINE
  5
169
330
72
100
AcDbEntity
  8
64647040_EINSATZ
  6
Continuous
 62
     7
100
AcDbSpline
210
0.0
220
0.0
230
1.0
 70
    12
 71
     2
 72
     6
 73
     3
 74
     0
 42
0.0000000098565629
 43
0.0000000001
 40
0.0
 40
0.0
 40
0.0
 40
0.2558857700246851
 40
0.2558857700246851
 40
0.2558857700246851
 10
48.23779338608323
 20
424.1487918478183
 30
0.0
 41
1.0
 10
48.25091207639244
 20
424.27793501825
 30
0.0
 41
1.0
 10
48.2639793893093
 20
424.407077351083
 30
0.0
 41
1.0
  0
SPLINE
  5
16A
330
72
100
AcDbEntity
  8
64647040_EINSATZ
  6
Continuous
 62
     7
100
AcDbSpline
210
0.0
220
0.0
230
1.0
 70
     8
 71
     3
 72
    14
 73
    10
 74
     0
 42
0.0000000939281029
 43
0.0000000001
 40
0.6468134787543662
 40
0.6468134787543662
 40
0.6468134787543662
 40
0.6468134787543662
 40
0.7042698230198452
 40
0.7042698230198452
 40
0.7042698230198452
 40
0.9340165525562255
 40
0.9340165525562255
 40
0.9340165525562255
 40
1.0
 40
1.0
 40
1.0
 40
1.0
 10
47.29507739918203
 20
424.526841912238
 30
0.0
 10
47.29319232173049
 20
424.5261352605393
 30
0.0
 10
47.29128127912099
 20
424.5255441619161
 30
0.0
 10
47.28935364924432
 20
424.5250739154729
 30
0.0
 10
47.28164394561585
 20
424.5231931287342
 30
0.0
 10
47.27345274828957
 20
424.5231935057704
 30
0.0
 10
47.26546649608537
 20
424.5250860592973
 30
0.0
 10
47.26314188565262
 20
424.5256369371761
 30
0.0
 10
47.26082216161834
 20
424.5263467798647
 30
0.0
 10
47.25852433399355
 20
424.5272104175625
 30
0.0
  0
LINE
  5
16B
330
72
100
AcDbEntity
  8
64647040_EINSATZ
  6
Continuous
 62
     7
100
AcDbLine
 10
47.258524334
 20
424.5272104176
 30
0.0
 11
47.2433638992
 21
424.5328896164
 31
0.0
  0
SPLINE
  5
16C
330
72
100
AcDbEntity
  8
64647040_EINSATZ
  6
Continuous
 62
     7
100
AcDbSpline
210
0.0
220
0.0
230
1.0
 70
     8
 71
     3
 72
    20
 73
    16
 74
     0
 42
0.0000000736868104
 43
0.0000000001
 40
0.0
 40
0.0
 40
0.0
 40
0.0
 40
0.227486333265265
 40
0.227486333265265
 40
0.227486333265265
 40
0.454891904007379
 40
0.454891904007379
 40
0.454891904007379
 40
0.683581643359405
 40
0.683581643359405
 40
0.683581643359405
 40
0.9153618861464811
 40
0.9153618861464811
 40
0.9153618861464811
 40
1.0
 40
1.0
 40
1.0
 40
1.0
 10
47.24336389920064
 20
424.532889616395
 30
0.0
 10
47.23552269214191
 20
424.5358172694683
 30
0.0
 10
47.22779883207318
 20
424.5406243837298
 30
0.0
 10
47.22083572631291
 20
424.5469054097308
 30
0.0
 10
47.21387399066604
 20
424.5531851998296
 30
0.0
 10
47.20748190784016
 20
424.5611088258041
 30
0.0
 10
47.20218135521728
 20
424.5700148160561
 30
0.0
 10
47.19685036520077
 20
424.5789719472268
 30
0.0
 10
47.19247830613867
 20
424.5891640730412
 30
0.0
 10
47.18941062173292
 20
424.5997591959451
 30
0.0
 10
47.18630179584493
 20
424.6104964126902
 30
0.0
 10
47.18444771776282
 20
424.6219372764278
 30
0.0
 10
47.18398772639163
 20
424.6331592886878
 30
0.0
 10
47.18381773118342
 20
424.6373065149846
 30
0.0
 10
47.18383255760209
 20
424.6414524522024
 30
0.0
 10
47.18403164632809
 20
424.6455515405004
 30
0.0
  0
SPLINE
  5
16D
330
72
100
AcDbEntity
  8
64647040_EINSATZ
  6
Continuous
 62
     7
100
AcDbSpline
210
0.0
220
0.0
230
1.0
 70
    12
 71
     2
 72
     6
 73
     3
 74
     0
 42
0.0000000098225984
 43
0.0000000001
 40
0.0
 40
0.0
 40
0.0
 40
0.0989392765820641
 40
0.0989392765820641
 40
0.0989392765820641
 10
47.18403164632816
 20
424.6455515405004
 30
0.0
 41
1.0
 10
47.18647449234466
 20
424.6958559099056
 30
0.0
 41
1.0
 10
47.18891101342921
 20
424.746159463346
 30
0.0
 41
1.0
  0
SPLINE
  5
16E
330
72
100
AcDbEntity
  8
64647040_EINSATZ
  6
Continuous
 62
     7
100
AcDbSpline
210
0.0
220
0.0
230
1.0
 70
     8
 71
     3
 72
    14
 73
    10
 74
     0
 42
0.0000000785996586
 43
0.0000000001
 40
0.5358521909207472
 40
0.5358521909207472
 40
0.5358521909207472
 40
0.5358521909207472
 40
0.7042698228896171
 40
0.7042698228896171
 40
0.7042698228896171
 40
0.9340165525271574
 40
0.9340165525271574
 40
0.9340165525271574
 40
1.0
 40
1.0
 40
1.0
 40
1.0
 10
45.97620017094029
 20
424.9234109649235
 30
0.0
 10
45.97024004548287
 20
424.919542381262
 30
0.0
 10
45.96376634774051
 20
424.9165347058969
 30
0.0
 10
45.95705653638309
 20
424.9145467307104
 30
0.0
 10
45.94790119003218
 20
424.9118341952305
 30
0.0
 10
45.93804970853071
 20
424.9109447453513
 30
0.0
 10
45.92832939505724
 20
424.9119640483556
 30
0.0
 10
45.92550004011925
 20
424.9122607435184
 30
0.0
 10
45.92266685724226
 20
424.912716455692
 30
0.0
 10
45.91985063118703
 20
424.9133278790344
 30
0.0
  0
LINE
  5
16F
330
72
100
AcDbEntity
  8
64647040_EINSATZ
  6
Continuous
 62
     7
100
AcDbLine
 10
45.9198506312
 20
424.913327879
 30
0.0
 11
45.9012829664
 21
424.917343679
 31
0.0
  0
ARC
  5
170
330
72
100
AcDbEntity
  8
64647040_EINSATZ
  6
Continuous
 62
     7
100
AcDbCircle
 10
45.9302439953
 20
425.0206757534
 30
0.0
 40
0.1073138331187937
100
AcDbArc
 50
178.6432130671
 51
254.3433330641
  0
ARC
  5
171
330
72
100
AcDbEntity
  8
64647040_EINSATZ
  6
Continuous
 62
     7
100
AcDbCircle
 10
44.3694102569
 20
425.2474955689
 30
0.0
 40
0.0914817044041495
100
AcDbArc
 50
264.1078714088
 51
324.1122223669
  0
LINE
  5
172
330
72
100
AcDbEntity
  8
64647040_EINSATZ
  6
Continuous
 62
     7
100
AcDbLine
 10
44.3600191219
 20
425.1564971688
 30
0.0
 11
44.3393095828
 21
425.1585758998
 31
0.0
  0
ARC
  5
173
330
72
100
AcDbEntity
  8
64647040_EINSATZ
  6
Continuous
 62
     7
100
AcDbCircle
 10
44.3514238131
 20
425.2621374533
 30
0.0
 40
0.1042676840827951
100
AcDbArc
 50
209.5598954879
 51
263.3280824366
  0
ARC
  5
174
330
72
100
AcDbEntity
  8
64647040_EINSATZ
  6
Continuous
 62
     7
100
AcDbCircle
 10
42.685795887
 20
425.339709225
 30
0.0
 40
0.0995636147313234
100
AcDbArc
 50
269.7317491471
 51
320.115587722
  0
LINE
  5
175
330
72
100
AcDbEntity
  8
64647040_EINSATZ
  6
Continuous
 62
     7
100
AcDbLine
 10
42.6853297457
 20
425.2401467015
 30
0.0
 11
42.6638896533
 21
425.2401467015
 31
0.0
  0
ARC
  5
176
330
72
100
AcDbEntity
  8
64647040_EINSATZ
  6
Continuous
 62
     7
100
AcDbCircle
 10
42.6634573661
 20
425.339747433
 30
0.0
 40
0.0996016696680029
100
AcDbArc
 50
218.4642459761
 51
270.2486736273
  0
ARC
  5
177
330
72
100
AcDbEntity
  8
64647040_EINSATZ
  6
Continuous
 62
     7
100
AcDbCircle
 10
40.9976716126
 20
425.2622544334
 30
0.0
 40
0.104398333144061
100
AcDbArc
 50
276.7320365773
 51
331.9805160661
  0
LINE
  5
178
330
72
100
AcDbEntity
  8
64647040_EINSATZ
  6
Continuous
 62
     7
100
AcDbLine
 10
41.0099098162
 20
425.1585758998
 30
0.0
 11
40.9892002771
 21
425.1564971688
 31
0.0
  0
ARC
  5
179
330
72
100
AcDbEntity
  8
64647040_EINSATZ
  6
Continuous
 62
     7
100
AcDbCircle
 10
40.9797365909
 20
425.2474028214
 30
0.0
 40
0.0913969312181569
100
AcDbArc
 50
215.9264580189
 51
275.9433385771
  0
ARC
  5
17A
330
72
100
AcDbEntity
  8
64647040_EINSATZ
  6
Continuous
 62
     7
100
AcDbCircle
 10
39.4183266847
 20
425.0211556608
 30
0.0
 40
0.1079521408981918
100
AcDbArc
 50
285.9194617315
 51
1.0939930913
  0
LINE
  5
17B
330
72
100
AcDbEntity
  8
64647040_EINSATZ
  6
Continuous
 62
     7
100
AcDbLine
 10
39.4479364326
 20
424.917343679
 30
0.0
 11
39.4293687678
 21
424.913327879
 31
0.0
  0
SPLINE
  5
17C
330
72
100
AcDbEntity
  8
64647040_EINSATZ
  6
Continuous
 62
     7
100
AcDbSpline
210
0.0
220
0.0
230
1.0
 70
     8
 71
     3
 72
    14
 73
    10
 74
     0
 42
0.0000000786077998
 43
0.0000000001
 40
0.0
 40
0.0
 40
0.0
 40
0.0
 40
0.2274863332652295
 40
0.2274863332652295
 40
0.2274863332652295
 40
0.4548919040073334
 40
0.4548919040073334
 40
0.4548919040073334
 40
0.4640245335791909
 40
0.4640245335791909
 40
0.4640245335791909
 40
0.4640245335791909
 10
39.42936876781261
 20
424.9133278790345
 30
0.0
 10
39.41979033934194
 20
424.9112483319255
 30
0.0
 10
39.40991974325974
 20
424.9109979945605
 30
0.0
 10
39.40057474779333
 20
424.9125913261896
 30
0.0
 10
39.39123159111896
 20
424.9141843443026
 30
0.0
 10
39.38215759305312
 20
424.9176623110711
 30
0.0
 10
39.3740827318324
 20
424.9227235954726
 30
0.0
 10
39.37375841391027
 20
424.9229268763953
 30
0.0
 10
39.37343535475748
 20
424.9231329282633
 30
0.0
 10
39.37311359060732
 20
424.9233417148284
 30
0.0
  0
SPLINE
  5
17D
330
72
100
AcDbEntity
  8
64647040_EINSATZ
  6
Continuous
 62
     7
100
AcDbSpline
210
0.0
220
0.0
230
1.0
 70
    12
 71
     2
 72
     6
 73
     3
 74
     0
 42
0.0000000098225984
 43
0.0000000001
 40
0.9010607234204309
 40
0.9010607234204309
 40
0.9010607234204309
 40
1.0
 40
1.0
 40
1.0
 10
38.16030838547524
 20
424.7461594633173
 30
0.0
 41
1.0
 10
38.16274490655962
 20
424.6958559098802
 30
0.0
 41
1.0
 10
38.16518775257592
 20
424.6455515404791
 30
0.0
 41
1.0
  0
SPLINE
  5
17E
330
72
100
AcDbEntity
  8
64647040_EINSATZ
  6
Continuous
 62
     7
100
AcDbSpline
210
0.0
220
0.0
230
1.0
 70
     8
 71
     3
 72
    20
 73
    16
 74
     0
 42
0.0000000736901362
 43
0.0000000001
 40
0.0
 40
0.0
 40
0.0
 40
0.0
 40
0.2354503935954051
 40
0.2354503935954051
 40
0.2354503935954051
 40
0.471057081217388
 40
0.471057081217388
 40
0.471057081217388
 40
0.7042698238249282
 40
0.7042698238249282
 40
0.7042698238249282
 40
0.9340165527358489
 40
0.9340165527358489
 40
0.9340165527358489
 40
1.0
 40
1.0
 40
1.0
 40
1.0
 10
38.16518775257594
 20
424.6455515404791
 30
0.0
 10
38.16573502569825
 20
424.6342836007628
 30
0.0
 10
38.16486082357218
 20
424.6225554557466
 30
0.0
 10
38.16262764129441
 20
424.6113316386129
 30
0.0
 10
38.16039360157868
 20
424.6001035120562
 30
0.0
 10
38.15673535741637
 20
424.5890678643891
 30
0.0
 10
38.15195299882332
 20
424.5791662499769
 30
0.0
 10
38.14721919180675
 20
424.5693651589738
 30
0.0
 10
38.14125003733842
 20
424.5604006989427
 30
0.0
 10
38.13455150779793
 20
424.55305169287
 30
0.0
 10
38.12795097149479
 20
424.5458101958995
 30
0.0
 10
38.12045773445338
 20
424.5399350804075
 30
0.0
 10
38.11270642614691
 20
424.535932240003
 30
0.0
 10
38.11045020236435
 20
424.5347671071813
 30
0.0
 10
38.10816095227388
 20
424.5337503977739
 30
0.0
 10
38.105855499799
 20
424.532889616395
 30
0.0
  0
LINE
  5
17F
330
72
100
AcDbEntity
  8
64647040_EINSATZ
  6
Continuous
 62
     7
100
AcDbLine
 10
38.1058554998
 20
424.5328896164
 30
0.0
 11
38.090695065
 21
424.5272104176
 31
0.0
  0
SPLINE
  5
180
330
72
100
AcDbEntity
  8
64647040_EINSATZ
  6
Continuous
 62
     7
100
AcDbSpline
210
0.0
220
0.0
230
1.0
 70
     8
 71
     3
 72
    11
 73
     7
 74
     0
 42
0.0000000940342073
 43
0.0000000001
 40
0.0
 40
0.0
 40
0.0
 40
0.0
 40
0.2274863332652452
 40
0.2274863332652452
 40
0.2274863332652452
 40
0.3545422733893371
 40
0.3545422733893371
 40
0.3545422733893371
 40
0.3545422733893371
 10
38.0906950650061
 20
424.5272104175626
 30
0.0
 10
38.08287979126371
 20
424.524273049698
 30
0.0
 10
38.07473060032122
 20
424.5231340143932
 30
0.0
 10
38.06692170767409
 20
424.5238813523928
 30
0.0
 10
38.06255958511376
 20
424.5242988225893
 30
0.0
 10
38.05823680049735
 20
424.5253107964618
 30
0.0
 10
38.05406077416163
 20
424.5268762421284
 30
0.0
  0
SPLINE
  5
181
330
72
100
AcDbEntity
  8
64647040_EINSATZ
  6
Continuous
 62
     7
100
AcDbSpline
210
0.0
220
0.0
230
1.0
 70
    12
 71
     2
 72
     6
 73
     3
 74
     0
 42
0.0000000098565629
 43
0.0000000001
 40
0.7441142293943201
 40
0.7441142293943201
 40
0.7441142293943201
 40
1.0
 40
1.0
 40
1.0
 10
37.08524000806514
 20
424.4070773509681
 30
0.0
 41
1.0
 10
37.09830732101108
 20
424.2779350178468
 30
0.0
 41
1.0
 10
37.11142601134907
 20
424.1487918471315
 30
0.0
 41
1.0
  0
SPLINE
  5
182
330
72
100
AcDbEntity
  8
64647040_EINSATZ
  6
Continuous
 62
     7
100
AcDbSpline
210
0.0
220
0.0
230
1.0
 70
     8
 71
     3
 72
    20
 73
    16
 74
     0
 42
0.000000077999188
 43
0.0000000001
 40
0.0
 40
0.0
 40
0.0
 40
0.0
 40
0.2354503935964843
 40
0.2354503935964843
 40
0.2354503935964843
 40
0.4710570812181556
 40
0.4710570812181556
 40
0.4710570812181556
 40
0.7042698238253906
 40
0.7042698238253906
 40
0.7042698238253906
 40
0.9340165527360117
 40
0.9340165527360117
 40
0.9340165527360117
 40
1.0
 40
1.0
 40
1.0
 40
1.0
 10
37.11142601134905
 20
424.1487918471315
 30
0.0
 10
37.11256230920004
 20
424.13760693759
 30
0.0
 10
37.11267753976774
 20
424.1258413616951
 30
0.0
 10
37.11175782216998
 20
424.1144620501807
 30
0.0
 10
37.11083775144351
 20
424.1030783695408
 30
0.0
 10
37.10885501161177
 20
424.0917645204251
 30
0.0
 10
37.1059745362268
 20
424.0814849911818
 30
0.0
 10
37.10312330407365
 20
424.0713098220237
 30
0.0
 10
37.09931185688031
 20
424.0618630033201
 30
0.0
 10
37.09486661681419
 20
424.0539644100032
 30
0.0
 10
37.09048640646278
 20
424.0461813657373
 30
0.0
 10
37.08536853315221
 20
424.0396842968462
 30
0.0
 10
37.0799483384409
 20
424.0350318656568
 30
0.0
 10
37.07837064707188
 20
424.0336776522155
 30
0.0
 10
37.07675979004613
 20
424.0324685977401
 30
0.0
 10
37.07512761551101
 20
424.0314136208913
 30
0.0
  0
LINE
  5
183
330
72
100
AcDbEntity
  8
64647040_EINSATZ
  6
Continuous
 62
     7
100
AcDbLine
 10
37.0751276155
 20
424.0314136209
 30
0.0
 11
37.0644075693
 21
424.0244580512
 31
0.0
  0
SPLINE
  5
184
330
72
100
AcDbEntity
  8
64647040_EINSATZ
  6
Continuous
 62
     7
100
AcDbSpline
210
0.0
220
0.0
230
1.0
 70
     8
 71
     3
 72
    11
 73
     7
 74
     0
 42
0.0000001248563803
 43
0.0000000001
 40
0.0
 40
0.0
 40
0.0
 40
0.0
 40
0.2274863332651585
 40
0.2274863332651585
 40
0.2274863332651585
 40
0.2974782529708722
 40
0.2974782529708722
 40
0.2974782529708722
 40
0.2974782529708722
 10
37.06440756926321
 20
424.0244580512476
 30
0.0
 10
37.05888804823931
 20
424.0208630393931
 30
0.0
 10
37.0530156163321
 20
424.0190324871839
 30
0.0
 10
37.04727498963333
 20
424.0191115914296
 30
0.0
 10
37.04550846113126
 20
424.0191359337031
 30
0.0
 10
37.04373949657623
 20
424.0193411544905
 30
0.0
 10
37.04198150329174
 20
424.0197219413311
 30
0.0
  0
SPLINE
  5
185
330
72
100
AcDbEntity
  8
64647040_EINSATZ
  6
Continuous
 62
     7
100
AcDbSpline
210
0.0
220
0.0
230
1.0
 70
    12
 71
     2
 72
     6
 73
     3
 74
     0
 42
0.0000000099207528
 43
0.0000000001
 40
0.474165339909365
 40
0.474165339909365
 40
0.474165339909365
 40
1.0
 40
1.0
 40
1.0
 10
36.35883348776579
 20
424.0910624033438
 30
0.0
 41
1.0
 10
36.39768952759901
 20
423.8289172013855
 30
0.0
 41
1.0
 10
36.43678604487376
 20
423.5667910222041
 30
0.0
 41
1.0
  0
SPLINE
  5
186
330
72
100
AcDbEntity
  8
64647040_EINSATZ
  6
Continuous
 62
     7
100
AcDbSpline
210
0.0
220
0.0
230
1.0
 70
     8
 71
     3
 72
    20
 73
    16
 74
     0
 42
0.0000000817830737
 43
0.0000000001
 40
0.0
 40
0.0
 40
0.0
 40
0.0
 40
0.2354503935705606
 40
0.2354503935705606
 40
0.2354503935705606
 40
0.4710570812001934
 40
0.4710570812001934
 40
0.4710570812001934
 40
0.7042698238153136
 40
0.7042698238153136
 40
0.7042698238153136
 40
0.9340165527336918
 40
0.9340165527336918
 40
0.9340165527336918
 40
1.0
 40
1.0
 40
1.0
 40
1.0
 10
36.43678604488183
 20
423.5667910222119
 30
0.0
 10
36.43843393063286
 20
423.5557434227335
 30
0.0
 10
36.43953074112159
 20
423.5440376221506
 30
0.0
 10
36.43998716543823
 20
423.5326354619874
 30
0.0
 10
36.44044376500052
 20
423.5212289239258
 30
0.0
 10
36.44027164994225
 20
423.5098088019059
 30
0.0
 10
36.43948935740264
 20
423.4993486326637
 30
0.0
 10
36.43871500687225
 20
423.4889946574045
 30
0.0
 10
36.43732101078141
 20
423.4792911172026
 30
0.0
 10
36.43543199595408
 20
423.4710801317767
 30
0.0
 10
36.43357061565119
 20
423.4629892654067
 30
0.0
 10
36.4311768806799
 20
423.4561217398174
 30
0.0
 10
36.42845717687602
 20
423.4510678659789
 30
0.0
 10
36.42766553498008
 20
423.4495968020116
 30
0.0
 10
36.42684284826326
 20
423.4482677302847
 30
0.0
 10
36.42599518166519
 20
423.4470904528947
 30
0.0
  0
LINE
  5
187
330
72
100
AcDbEntity
  8
64647040_EINSATZ
  6
Continuous
 62
     7
100
AcDbLine
 10
36.4259951817
 20
423.4470904529
 30
0.0
 11
36.4204460774
 21
423.439332523
 31
0.0
  0
SPLINE
  5
188
330
72
100
AcDbEntity
  8
64647040_EINSATZ
  6
Continuous
 62
     7
100
AcDbSpline
210
0.0
220
0.0
230
1.0
 70
     8
 71
     3
 72
    11
 73
     7
 74
     0
 42
0.0000001927612834
 43
0.0000000001
 40
0.0
 40
0.0
 40
0.0
 40
0.0
 40
0.2274863333433286
 40
0.2274863333433286
 40
0.2274863333433286
 40
0.2698074440457102
 40
0.2698074440457102
 40
0.2698074440457102
 40
0.2698074440457102
 10
36.42044607739857
 20
423.4393325230163
 30
0.0
 10
36.4175984553295
 20
423.4353248612888
 30
0.0
 10
36.41440297898738
 20
423.4330470989451
 30
0.0
 10
36.41112183245967
 20
423.4326812683384
 30
0.0
 10
36.41051131776807
 20
423.4326131991564
 30
0.0
 10
36.40989471796757
 20
423.4326109169746
 30
0.0
 10
36.40927378911461
 20
423.4326734801539
 30
0.0
  0
SPLINE
  5
189
330
72
100
AcDbEntity
  8
64647040_EINSATZ
  6
Continuous
 62
     7
100
AcDbSpline
210
0.0
220
0.0
230
1.0
 70
    12
 71
     2
 72
     6
 73
     3
 74
     0
 42
0.0000000100221455
 43
0.0000000001
 40
0.4639580162840231
 40
0.4639580162840231
 40
0.4639580162840231
 40
1.0
 40
1.0
 40
1.0
 10
36.08847449270679
 20
423.4648702699385
 30
0.0
 41
1.0
 10
36.1377303154769
 20
423.2020184733293
 30
0.0
 41
1.0
 10
36.18724345197032
 20
422.9392114601128
 30
0.0
 41
1.0
  0
ARC
  5
18A
330
72
100
AcDbEntity
  8
64647040_EINSATZ
  6
Continuous
 62
     7
100
AcDbCircle
 10
35.3232902778
 20
422.7667352441
 30
0.0
 40
0.8810012101320721
100
AcDbArc
 50
3.4492894613
 51
11.2898813802
  0
LINE
  5
18B
330
72
100
AcDbEntity
  8
64647040_EINSATZ
  6
Continuous
 62
     7
100
AcDbLine
 10
36.2026955009
 20
422.8197407707
 30
0.0
 11
36.2026955009
 21
422.8117091707
 31
0.0
  0
ARC
  5
18C
330
72
100
AcDbEntity
  8
64647040_EINSATZ
  6
Continuous
 62
     7
100
AcDbCircle
 10
46.7307532689
 20
422.8157249707
 30
0.0
 40
0.6621256612767852
100
AcDbArc
 50
359.6524982857
 51
0.3475017143
  0
ARC
  5
18D
330
72
100
AcDbEntity
  8
64647040_EINSATZ
  6
Continuous
 62
     7
100
AcDbCircle
 10
48.3854952572
 20
422.7772648629
 30
0.0
 40
0.9935368900399217
100
AcDbArc
 50
170.6189250212
 51
177.5497314251
  0
SPLINE
  5
18E
330
72
100
AcDbEntity
  8
64647040_EINSATZ
  6
Continuous
 62
     7
100
AcDbSpline
210
0.0
220
0.0
230
1.0
 70
    12
 71
     2
 72
     6
 73
     3
 74
     0
 42
0.0000000100768653
 43
0.0000000001
 40
0.0
 40
0.0
 40
0.0
 40
0.3516191261412618
 40
0.3516191261412618
 40
0.3516191261412618
 10
47.40524587490751
 20
422.9392114601133
 30
0.0
 41
1.0
 10
47.43212829106347
 20
423.1115973804106
 30
0.0
 41
1.0
 10
47.4588593272429
 20
423.2840050384914
 30
0.0
 41
1.0
  0
SPLINE
  5
18F
330
72
100
AcDbEntity
  8
64647040_EINSATZ
  6
Continuous
 62
     7
100
AcDbSpline
210
0.0
220
0.0
230
1.0
 70
     8
 71
     3
 72
    11
 73
     7
 74
     0
 42
0.0000001969382351
 43
0.0000000001
 40
0.7293613024647133
 40
0.7293613024647133
 40
0.7293613024647133
 40
0.7293613024647133
 40
0.9310036385212338
 40
0.9310036385212338
 40
0.9310036385212338
 40
1.0
 40
1.0
 40
1.0
 40
1.0
 10
47.24579546227061
 20
423.2626206041158
 30
0.0
 10
47.24298210361404
 20
423.2623380274255
 30
0.0
 10
47.24017394992698
 20
423.2635211060239
 30
0.0
 10
47.23754695633734
 20
423.2661113335332
 30
0.0
 10
47.23663615472333
 20
423.2670093880262
 30
0.0
 10
47.2357416962517
 20
423.2680771237879
 30
0.0
 10
47.23487059383276
 20
423.2693061318589
 30
0.0
  0
SPLINE
  5
190
330
72
100
AcDbEntity
  8
64647040_EINSATZ
  6
Continuous
 62
     7
100
AcDbSpline
210
0.0
220
0.0
230
1.0
 70
    12
 71
     2
 72
     6
 73
     3
 74
     0
 42
0.0000010484016844
 43
0.0000000001
 40
0.0
 40
0.0
 40
0.0
 40
1.0
 40
1.0
 40
1.0
 10
47.23487059383277
 20
423.2693061318589
 30
0.0
 41
1.0
 10
47.23211956810065
 20
423.2731874582731
 30
0.0
 41
1.0
 10
47.22932148956614
 20
423.2770640617372
 30
0.0
 41
1.0
  0
SPLINE
  5
191
330
72
100
AcDbEntity
  8
64647040_EINSATZ
  6
Continuous
 62
     7
100
AcDbSpline
210
0.0
220
0.0
230
1.0
 70
     8
 71
     3
 72
    20
 73
    16
 74
     0
 42
0.0000000818615402
 43
0.0000000001
 40
0.0
 40
0.0
 40
0.0
 40
0.0
 40
0.2289377704749248
 40
0.2289377704749248
 40
0.2289377704749248
 40
0.4578289888433252
 40
0.4578289888433252
 40
0.4578289888433252
 40
0.6874672639041093
 40
0.6874672639041093
 40
0.6874672639041093
 40
0.9190278165324414
 40
0.9190278165324414
 40
0.9190278165324414
 40
1.0
 40
1.0
 40
1.0
 40
1.0
 10
47.22932148956613
 20
423.2770640617372
 30
0.0
 10
47.22642044549196
 20
423.2810833190127
 30
0.0
 10
47.22372254531917
 20
423.2869503496003
 30
0.0
 10
47.22145699497335
 20
423.2941747594833
 30
0.0
 10
47.21919169868715
 20
423.3013983592184
 30
0.0
 10
47.21729684747369
 20
423.3101766116732
 30
0.0
 10
47.21594053999516
 20
423.3197794327173
 30
0.0
 10
47.21457971553731
 20
423.3294142345214
 30
0.0
 10
47.21372440193805
 20
423.3401410421792
 30
0.0
 10
47.21345696875487
 20
423.3510796274183
 30
0.0
 10
47.21318730942495
 20
423.3621092667876
 30
0.0
 10
47.2135083880183
 20
423.3736539339573
 30
0.0
 10
47.21440170913849
 20
423.3847754380643
 30
0.0
 10
47.21471793475646
 20
423.3887123252927
 30
0.0
 10
47.21510612550747
 20
423.3926227224821
 30
0.0
 10
47.21556240764474
 20
423.3964666945077
 30
0.0
  0
SPLINE
  5
192
330
72
100
AcDbEntity
  8
64647040_EINSATZ
  6
Continuous
 62
     7
100
AcDbSpline
210
0.0
220
0.0
230
1.0
 70
    12
 71
     2
 72
     6
 73
     3
 74
     0
 42
0.0000000099917357
 43
0.0000000001
 40
0.0
 40
0.0
 40
0.0
 40
0.399733656306697
 40
0.399733656306697
 40
0.399733656306697
 10
47.21556240764473
 20
423.3964666945077
 30
0.0
 41
1.0
 10
47.23913835586551
 20
423.5951113153027
 30
0.0
 41
1.0
 10
47.26252447516374
 20
423.7937650193079
 30
0.0
 41
1.0
  0
SPLINE
  5
193
330
72
100
AcDbEntity
  8
64647040_EINSATZ
  6
Continuous
 62
     7
100
AcDbSpline
210
0.0
220
0.0
230
1.0
 70
     8
 71
     3
 72
    11
 73
     7
 74
     0
 42
0.0000001262963075
 43
0.0000000001
 40
0.702189934660789
 40
0.702189934660789
 40
0.702189934660789
 40
0.702189934660789
 40
0.9310036384966712
 40
0.9310036384966712
 40
0.9310036384966712
 40
1.0
 40
1.0
 40
1.0
 40
1.0
 10
46.78824467906794
 20
423.6911879654604
 30
0.0
 10
46.78269006326047
 20
423.68998659823
 30
0.0
 10
46.77685875098194
 20
423.690667824491
 30
0.0
 10
46.77122482484658
 20
423.6931822168523
 30
0.0
 10
46.7695034493504
 20
423.6939504579145
 30
0.0
 10
46.76779074477054
 20
423.6948896138862
 30
0.0
 10
46.76610019178082
 20
423.6959922865082
 30
0.0
  0
LINE
  5
194
330
72
100
AcDbEntity
  8
64647040_EINSATZ
  6
Continuous
 62
     7
100
AcDbLine
 10
46.7661001918
 20
423.6959922865
 30
0.0
 11
46.7553801455
 21
423.7029478562
 31
0.0
  0
SPLINE
  5
195
330
72
100
AcDbEntity
  8
64647040_EINSATZ
  6
Continuous
 62
     7
100
AcDbSpline
210
0.0
220
0.0
230
1.0
 70
     8
 71
     3
 72
    20
 73
    16
 74
     0
 42
0.0000000779754339
 43
0.0000000001
 40
0.0
 40
0.0
 40
0.0
 40
0.0
 40
0.228937770474167
 40
0.228937770474167
 40
0.228937770474167
 40
0.4578289888418133
 40
0.4578289888418133
 40
0.4578289888418133
 40
0.6874672639018289
 40
0.6874672639018289
 40
0.6874672639018289
 40
0.9190278165293866
 40
0.9190278165293866
 40
0.9190278165293866
 40
1.0
 40
1.0
 40
1.0
 40
1.0
 10
46.75538014553302
 20
423.7029478561519
 30
0.0
 10
46.74980101134689
 20
423.7065488888981
 30
0.0
 10
46.74436279418471
 20
423.7120146633162
 30
0.0
 10
46.73952136876547
 20
423.7188885721243
 30
0.0
 10
46.73468048626543
 20
423.7257617100899
 30
0.0
 10
46.73030363784351
 20
423.7342306555292
 30
0.0
 10
46.72676017640696
 20
423.7435918302911
 30
0.0
 10
46.72320491400178
 20
423.7529841810462
 30
0.0
 10
46.72039186799886
 20
423.7635300729353
 30
0.0
 10
46.71855799922744
 20
423.7743650263881
 30
0.0
 10
46.71670886510659
 20
423.7852901713275
 30
0.0
 10
46.71580500742849
 20
423.7968060970601
 30
0.0
 10
46.71592231694039
 20
423.8079774433411
 30
0.0
 10
46.71596384318672
 20
423.8119319741381
 30
0.0
 10
46.71613049871892
 20
423.8158697351777
 30
0.0
 10
46.71642051760116
 20
423.8197505131977
 30
0.0
  0
SPLINE
  5
196
330
72
100
AcDbEntity
  8
64647040_EINSATZ
  6
Continuous
 62
     7
100
AcDbSpline
210
0.0
220
0.0
230
1.0
 70
    12
 71
     2
 72
     6
 73
     3
 74
     0
 42
0.0000000099390778
 43
0.0000000001
 40
0.0
 40
0.0
 40
0.0
 40
0.5026364716425535
 40
0.5026364716425535
 40
0.5026364716425535
 10
46.71642051760115
 20
423.8197505131977
 30
0.0
 41
1.0
 10
46.73526221199348
 20
424.0719231757133
 30
0.0
 41
1.0
 10
46.75383341036206
 20
424.3240820571852
 30
0.0
 41
1.0
  0
LINE
  5
197
330
72
100
AcDbEntity
  8
64647040_EINSATZ
  6
Continuous
 62
     7
100
AcDbLine
 10
38.5938392535
 20
423.7029478562
 30
0.0
 11
38.5831192072
 21
423.6959922865
 31
0.0
  0
SPLINE
  5
198
330
72
100
AcDbEntity
  8
64647040_EINSATZ
  6
Continuous
 62
     7
100
AcDbSpline
210
0.0
220
0.0
230
1.0
 70
     8
 71
     3
 72
    11
 73
     7
 74
     0
 42
0.0000001267807067
 43
0.0000000001
 40
0.0
 40
0.0
 40
0.0
 40
0.0
 40
0.2289377704741384
 40
0.2289377704741384
 40
0.2289377704741384
 40
0.2997968449762227
 40
0.2997968449762227
 40
0.2997968449762227
 40
0.2997968449762227
 10
38.58311920721879
 20
423.6959922865082
 30
0.0
 10
38.57758381182369
 20
423.6923817939706
 30
0.0
 10
38.57175367615562
 20
423.6905362367892
 30
0.0
 10
38.56610733513408
 20
423.6906052878385
 30
0.0
 10
38.56435956326576
 20
423.6906266619427
 30
0.0
 10
38.56261449699787
 20
423.6908315835956
 30
0.0
 10
38.56088538703504
 20
423.6912148861943
 30
0.0
  0
SPLINE
  5
199
330
72
100
AcDbEntity
  8
64647040_EINSATZ
  6
Continuous
 62
     7
100
AcDbSpline
210
0.0
220
0.0
230
1.0
 70
    12
 71
     2
 72
     6
 73
     3
 74
     0
 42
0.0000000099917357
 43
0.0000000001
 40
0.6002663437041115
 40
0.6002663437041115
 40
0.6002663437041115
 40
1.0
 40
1.0
 40
1.0
 10
38.08669492383575
 20
423.793765019308
 30
0.0
 41
1.0
 10
38.11008104313356
 20
423.5951113153064
 30
0.0
 41
1.0
 10
38.13365699135478
 20
423.3964666945078
 30
0.0
 41
1.0
  0
SPLINE
  5
19A
330
72
100
AcDbEntity
  8
64647040_EINSATZ
  6
Continuous
 62
     7
100
AcDbSpline
210
0.0
220
0.0
230
1.0
 70
     8
 71
     3
 72
    20
 73
    16
 74
     0
 42
0.0000000818780493
 43
0.0000000001
 40
0.0
 40
0.0
 40
0.0
 40
0.0
 40
0.2340589631874801
 40
0.2340589631874801
 40
0.2340589631874801
 40
0.4682296685041973
 40
0.4682296685041973
 40
0.4682296685041973
 40
0.7007223725396423
 40
0.7007223725396423
 40
0.7007223725396423
 40
0.9310036385124791
 40
0.9310036385124791
 40
0.9310036385124791
 40
1.0
 40
1.0
 40
1.0
 40
1.0
 10
38.13365699131003
 20
423.3964666944634
 30
0.0
 10
38.13495989837413
 20
423.3854902881905
 30
0.0
 10
38.13570470926481
 20
423.3738619091263
 30
0.0
 10
38.13583512480639
 20
423.3625389119401
 30
0.0
 10
38.1359655767187
 20
423.3512127569585
 30
0.0
 10
38.13548487184335
 20
423.3398780641063
 30
0.0
 10
38.13444550067884
 20
423.3294925809013
 30
0.0
 10
38.13341355087093
 20
423.3191812525092
 30
0.0
 10
38.13180263269171
 20
423.3095183413417
 30
0.0
 10
38.12976241015824
 20
423.3013280154265
 30
0.0
 10
38.12774127214163
 20
423.293214302925
 30
0.0
 10
38.12524326969331
 20
423.2863202203542
 30
0.0
 10
38.12248598194842
 20
423.28122921121
 30
0.0
 10
38.12164889613651
 20
423.2796836302198
 30
0.0
 10
38.12078391095329
 20
423.2782915743029
 30
0.0
 10
38.11989790943345
 20
423.2770640617372
 30
0.0
  0
SPLINE
  5
19B
330
72
100
AcDbEntity
  8
64647040_EINSATZ
  6
Continuous
 62
     7
100
AcDbSpline
210
0.0
220
0.0
230
1.0
 70
    12
 71
     2
 72
     6
 73
     3
 74
     0
 42
0.0000010484016844
 43
0.0000000001
 40
0.0
 40
0.0
 40
0.0
 40
1.0
 40
1.0
 40
1.0
 10
38.11989790943346
 20
423.2770640617372
 30
0.0
 41
1.0
 10
38.11709983089901
 20
423.2731874582731
 30
0.0
 41
1.0
 10
38.11434880516683
 20
423.2693061318589
 30
0.0
 41
1.0
  0
SPLINE
  5
19C
330
72
100
AcDbEntity
  8
64647040_EINSATZ
  6
Continuous
 62
     7
100
AcDbSpline
210
0.0
220
0.0
230
1.0
 70
     8
 71
     3
 72
    11
 73
     7
 74
     0
 42
0.0000001969127222
 43
0.0000000001
 40
0.0
 40
0.0
 40
0.0
 40
0.0
 40
0.2289377704741448
 40
0.2289377704741448
 40
0.2289377704741448
 40
0.2705545631305583
 40
0.2705545631305583
 40
0.2705545631305583
 40
0.2705545631305583
 10
38.11434880516683
 20
423.2693061318589
 30
0.0
 10
38.11149654537505
 20
423.2652819778349
 30
0.0
 10
38.10836151690904
 20
423.2629942776423
 30
0.0
 10
38.10519819986393
 20
423.2626288549121
 30
0.0
 10
38.10462311294031
 20
423.2625624215351
 30
0.0
 10
38.10404420350716
 20
423.2625591589527
 30
0.0
 10
38.10346299994765
 20
423.2626182282285
 30
0.0
  0
SPLINE
  5
19D
330
72
100
AcDbEntity
  8
64647040_EINSATZ
  6
Continuous
 62
     7
100
AcDbSpline
210
0.0
220
0.0
230
1.0
 70
    12
 71
     2
 72
     6
 73
     3
 74
     0
 42
0.0000000100768653
 43
0.0000000001
 40
0.6483808738550543
 40
0.6483808738550543
 40
0.6483808738550543
 40
1.0
 40
1.0
 40
1.0
 10
37.89036007175667
 20
423.2840050384914
 30
0.0
 41
1.0
 10
37.91709110793627
 20
423.1115973804095
 30
0.0
 41
1.0
 10
37.94397352409211
 20
422.9392114601129
 30
0.0
 41
1.0
  0
ARC
  5
19E
330
72
100
AcDbEntity
  8
64647040_EINSATZ
  6
Continuous
 62
     7
100
AcDbCircle
 10
36.9333053618
 20
422.7741129784
 30
0.0
 40
1.024064276729561
100
AcDbArc
 50
2.5536929042
 51
9.2776506509
  0
ARC
  5
19F
330
72
100
AcDbEntity
  8
64647040_EINSATZ
  6
Continuous
 62
     7
100
AcDbCircle
 10
38.6184661301
 20
422.8157249707
 30
0.0
 40
0.6621256612767852
100
AcDbArc
 50
179.6524982857
 51
180.3475017143
  0
SPLINE
  5
1A0
330
72
100
AcDbEntity
  8
64647040_EINSATZ
  6
Continuous
 62
     7
100
AcDbSpline
210
0.0
220
0.0
230
1.0
 70
    12
 71
     2
 72
     6
 73
     3
 74
     0
 42
0.0000000102058168
 43
0.0000000001
 40
0.3443304522458757
 40
0.3443304522458757
 40
0.3443304522458757
 40
1.0
 40
1.0
 40
1.0
 10
50.44793299974792
 20
422.8044273938967
 30
0.0
 41
1.0
 10
50.43902584125563
 20
422.4833154940095
 30
0.0
 41
1.0
 10
50.42977567172989
 20
422.1622372135612
 30
0.0
 41
1.0
  0
ARC
  5
1A1
330
72
100
AcDbEntity
  8
64647040_EINSATZ
  6
Continuous
 62
     7
100
AcDbCircle
 10
50.1571907013
 20
422.1580569247
 30
0.0
 40
0.2726170224244526
100
AcDbArc
 50
335.2590049672
 51
0.8786035849
  0
LINE
  5
1A2
330
72
100
AcDbEntity
  8
64647040_EINSATZ
  6
Continuous
 62
     7
100
AcDbLine
 10
50.4047839242
 20
422.0439620656
 30
0.0
 11
50.39923482
 21
422.0362041357
 31
0.0
  0
SPLINE
  5
1A3
330
72
100
AcDbEntity
  8
64647040_EINSATZ
  6
Continuous
 62
     7
100
AcDbSpline
210
0.0
220
0.0
230
1.0
 70
     8
 71
     3
 72
    11
 73
     7
 74
     0
 42
0.0000002087285402
 43
0.0000000001
 40
0.0
 40
0.0
 40
0.0
 40
0.0
 40
0.231584040150168
 40
0.231584040150168
 40
0.231584040150168
 40
0.2714434918721202
 40
0.2714434918721202
 40
0.2714434918721202
 40
0.2714434918721202
 10
50.39923481995037
 20
422.0362041357212
 30
0.0
 10
50.39632362601012
 20
422.0321558453327
 30
0.0
 10
50.39334836112605
 20
422.0298457046846
 30
0.0
 10
50.39055908944743
 20
422.0294645871442
 30
0.0
 10
50.39007900879218
 20
422.0293989903937
 30
0.0
 10
50.38960216891027
 20
422.0293902263758
 30
0.0
 10
50.3891297491377
 20
422.0294376409269
 30
0.0
  0
SPLINE
  5
1A4
330
72
100
AcDbEntity
  8
64647040_EINSATZ
  6
Continuous
 62
     7
100
AcDbSpline
210
0.0
220
0.0
230
1.0
 70
    12
 71
     2
 72
     6
 73
     3
 74
     0
 42
0.0000000102362469
 43
0.0000000001
 40
0.319515226224049
 40
0.319515226224049
 40
0.319515226224049
 40
1.0
 40
1.0
 40
1.0
 10
49.69503464421856
 20
422.0991040554558
 30
0.0
 41
1.0
 10
49.67628160957238
 20
421.767217767232
 30
0.0
 41
1.0
 10
49.65719729309002
 20
421.4354022507696
 30
0.0
 41
1.0
  0
SPLINE
  5
1A5
330
72
100
AcDbEntity
  8
64647040_EINSATZ
  6
Continuous
 62
     7
100
AcDbSpline
210
0.0
220
0.0
230
1.0
 70
     8
 71
     3
 72
    20
 73
    16
 74
     0
 42
0.0000000778208788
 43
0.0000000001
 40
0.0
 40
0.0
 40
0.0
 40
0.0
 40
0.2315845260763442
 40
0.2315845260763442
 40
0.2315845260763442
 40
0.4631680514514231
 40
0.4631680514514231
 40
0.4631680514514231
 40
0.6947657379533895
 40
0.6947657379533895
 40
0.6947657379533895
 40
0.9263670666172419
 40
0.9263670666172419
 40
0.9263670666172419
 40
1.0
 40
1.0
 40
1.0
 40
1.0
 10
49.65719729347359
 20
421.4354022509377
 30
0.0
 10
49.6565805085819
 20
421.4246783103406
 30
0.0
 10
49.65501835208477
 20
421.4133809617093
 30
0.0
 10
49.65263490190101
 20
421.402446921728
 30
0.0
 10
49.65025145780302
 20
421.3915129096652
 30
0.0
 10
49.64698062237505
 20
421.3806407160967
 30
0.0
 10
49.64308380982861
 20
421.3707325179379
 30
0.0
 10
49.63918676486882
 20
421.3608237288352
 30
0.0
 10
49.63455570003908
 20
421.3516058524811
 30
0.0
 10
49.62956468049047
 20
421.3438442005651
 30
0.0
 10
49.62457359166974
 20
421.3360824409224
 30
0.0
 10
49.61908448772076
 20
421.3295629444428
 30
0.0
 10
49.61354672414544
 20
421.3248268523996
 30
0.0
 10
49.61176336396514
 20
421.3233016594503
 30
0.0
 10
49.60996479880041
 20
421.3219479988418
 30
0.0
 10
49.60816673270183
 20
421.320777727116
 30
0.0
  0
LINE
  5
1A6
330
72
100
AcDbEntity
  8
64647040_EINSATZ
  6
Continuous
 62
     7
100
AcDbLine
 10
49.6081667327
 20
421.3207777271
 30
0.0
 11
49.5974466865
 21
421.3138221575
 31
0.0
  0
SPLINE
  5
1A7
330
72
100
AcDbEntity
  8
64647040_EINSATZ
  6
Continuous
 62
     7
100
AcDbSpline
210
0.0
220
0.0
230
1.0
 70
     8
 71
     3
 72
    11
 73
     7
 74
     0
 42
0.0000001320134094
 43
0.0000000001
 40
0.0
 40
0.0
 40
0.0
 40
0.0
 40
0.2315840401501863
 40
0.2315840401501863
 40
0.2315840401501863
 40
0.2991883503267259
 40
0.2991883503267259
 40
0.2991883503267259
 40
0.2991883503267259
 10
49.59744668645403
 20
421.3138221574723
 30
0.0
 10
49.59183768901275
 20
421.310194064976
 30
0.0
 10
49.58612990039766
 20
421.3083121542369
 30
0.0
 10
49.58079928941535
 20
421.3083314922059
 30
0.0
 10
49.57924316812664
 20
421.3083371373797
 30
0.0
 10
49.57770668566828
 20
421.3085048417828
 30
0.0
 10
49.57620055669968
 20
421.3088306015652
 30
0.0
  0
SPLINE
  5
1A8
330
72
100
AcDbEntity
  8
64647040_EINSATZ
  6
Continuous
 62
     7
100
AcDbSpline
210
0.0
220
0.0
230
1.0
 70
    12
 71
     2
 72
     6
 73
     3
 74
     0
 42
0.0000000102889054
 43
0.0000000001
 40
0.4262845666047969
 40
0.4262845666047969
 40
0.4262845666047969
 40
1.0
 40
1.0
 40
1.0
 10
48.45455369129296
 20
421.3639620256064
 30
0.0
 41
1.0
 10
48.43175654537589
 20
421.0860648982804
 30
0.0
 41
1.0
 10
48.40876710921881
 20
420.8082391733015
 30
0.0
 41
1.0
  0
ARC
  5
1A9
330
72
100
AcDbEntity
  8
64647040_EINSATZ
  6
Continuous
 62
     7
100
AcDbCircle
 10
48.2788495814
 20
420.8147916606
 30
0.0
 40
0.1300826633659391
100
AcDbArc
 50
297.5615993981
 51
357.1126913355
  0
LINE
  5
1AA
330
72
100
AcDbEntity
  8
64647040_EINSATZ
  6
Continuous
 62
     7
100
AcDbLine
 10
48.3390390876
 20
420.6994715728
 30
0.0
 11
48.3238786528
 21
420.6937923739
 31
0.0
  0
SPLINE
  5
1AB
330
72
100
AcDbEntity
  8
64647040_EINSATZ
  6
Continuous
 62
     7
100
AcDbSpline
210
0.0
220
0.0
230
1.0
 70
     8
 71
     3
 72
    11
 73
     7
 74
     0
 42
0.0000000982858632
 43
0.0000000001
 40
0.0
 40
0.0
 40
0.0
 40
0.0
 40
0.2315840404747507
 40
0.2315840404747507
 40
0.2315840404747507
 40
0.3564575717756087
 40
0.3564575717756087
 40
0.3564575717756087
 40
0.3564575717756087
 10
48.3238786528258
 20
420.6937923739303
 30
0.0
 10
48.31595409578981
 20
420.6908317278342
 30
0.0
 10
48.30790275980524
 20
420.6896283881385
 30
0.0
 10
48.30039408184845
 20
420.6902809327939
 30
0.0
 10
48.29634528543529
 20
420.6906327950625
 30
0.0
 10
48.29239412556796
 20
420.6915294619891
 30
0.0
 10
48.28863478881696
 20
420.6929377254648
 30
0.0
  0
SPLINE
  5
1AC
330
72
100
AcDbEntity
  8
64647040_EINSATZ
  6
Continuous
 62
     7
100
AcDbSpline
210
0.0
220
0.0
230
1.0
 70
    12
 71
     2
 72
     6
 73
     3
 74
     0
 42
0.0000000103647713
 43
0.0000000001
 40
0.7801681169227456
 40
0.7801681169227456
 40
0.7801681169227456
 40
1.0
 40
1.0
 40
1.0
 10
46.79124819613195
 20
420.534471934257
 30
0.0
 41
1.0
 10
46.78041586863463
 20
420.4289735911237
 30
0.0
 41
1.0
 10
46.76956357401828
 20
420.3234881084501
 30
0.0
 41
1.0
  0
ARC
  5
1AD
330
72
100
AcDbEntity
  8
64647040_EINSATZ
  6
Continuous
 62
     7
100
AcDbCircle
 10
46.6529203365
 20
420.3354788253
 30
0.0
 40
0.1172579310339419
100
AcDbArc
 50
285.3143856344
 51
354.1307127044
  0
LINE
  5
1AE
330
72
100
AcDbEntity
  8
64647040_EINSATZ
  6
Continuous
 62
     7
100
AcDbLine
 10
46.6838899406
 20
420.2223845902
 30
0.0
 11
46.6653222759
 21
420.2183687902
 31
0.0
  0
ARC
  5
1AF
330
72
100
AcDbEntity
  8
64647040_EINSATZ
  6
Continuous
 62
     7
100
AcDbCircle
 10
46.648495707
 20
420.2860056406
 30
0.0
 40
0.0696984716661771
100
AcDbArc
 50
237.2503850908
 51
283.9703344752
  0
SPLINE
  5
1B0
330
72
100
AcDbEntity
  8
64647040_EINSATZ
  6
Continuous
 62
     7
100
AcDbSpline
210
0.0
220
0.0
230
1.0
 70
    12
 71
     2
 72
     6
 73
     3
 74
     0
 42
0.0000000104622356
 43
0.0000000001
 40
0.8893344723639798
 40
0.8893344723639798
 40
0.8893344723639798
 40
1.0
 40
1.0
 40
1.0
 10
44.86353208628577
 20
420.1192500684602
 30
0.0
 41
1.0
 10
44.85741520324156
 20
420.0667152353695
 30
0.0
 41
1.0
 10
44.85129569950057
 20
420.0141840401958
 30
0.0
 41
1.0
  0
ARC
  5
1B1
330
72
100
AcDbEntity
  8
64647040_EINSATZ
  6
Continuous
 62
     7
100
AcDbCircle
 10
44.7444037398
 20
420.0294299855
 30
0.0
 40
0.1079737487493106
100
AcDbArc
 50
275.9065807044
 51
351.8826811318
  0
LINE
  5
1B2
330
72
100
AcDbEntity
  8
64647040_EINSATZ
  6
Continuous
 62
     7
100
AcDbLine
 10
44.7555149709
 20
419.9220294689
 30
0.0
 11
44.7348054318
 21
419.9199507378
 31
0.0
  0
ARC
  5
1B3
330
72
100
AcDbEntity
  8
64647040_EINSATZ
  6
Continuous
 62
     7
100
AcDbCircle
 10
44.7229364083
 20
420.0041778778
 30
0.0
 40
0.0850593018697636
100
AcDbArc
 50
215.3917214117
 51
278.0211258781
  0
LINE
  5
1B4
330
72
100
AcDbEntity
  8
64647040_EINSATZ
  6
Continuous
 62
     7
100
AcDbLine
 10
42.7933872917
 20
419.9724346616
 30
0.0
 11
42.7846902712
 21
419.9014055296
 31
0.0
  0
ARC
  5
1B5
330
72
100
AcDbEntity
  8
64647040_EINSATZ
  6
Continuous
 62
     7
100
AcDbCircle
 10
42.6882241208
 20
419.9164668388
 30
0.0
 40
0.0976348359915273
100
AcDbArc
 50
268.3012234165
 51
351.126024165
  0
LINE
  5
1B6
330
72
100
AcDbEntity
  8
64647040_EINSATZ
  6
Continuous
 62
     7
100
AcDbLine
 10
42.6853297457
 20
419.8188749139
 30
0.0
 11
42.6638896533
 21
419.8188749139
 31
0.0
  0
ARC
  5
1B7
330
72
100
AcDbEntity
  8
64647040_EINSATZ
  6
Continuous
 62
     7
100
AcDbCircle
 10
42.6613127873
 20
419.9168490953
 30
0.0
 40
0.0980080632271456
100
AcDbArc
 50
189.0661359812
 51
271.5066164577
  0
LINE
  5
1B8
330
72
100
AcDbEntity
  8
64647040_EINSATZ
  6
Continuous
 62
     7
100
AcDbLine
 10
42.5645291278
 20
419.9014055296
 30
0.0
 11
42.5558321073
 21
419.9724346616
 31
0.0
  0
ARC
  5
1B9
330
72
100
AcDbEntity
  8
64647040_EINSATZ
  6
Continuous
 62
     7
100
AcDbCircle
 10
40.6265002132
 20
420.0038912671
 30
0.0
 40
0.0848061895918278
100
AcDbArc
 50
261.8065325777
 51
324.7026742797
  0
LINE
  5
1BA
330
72
100
AcDbEntity
  8
64647040_EINSATZ
  6
Continuous
 62
     7
100
AcDbLine
 10
40.6144139672
 20
419.9199507378
 30
0.0
 11
40.5937044281
 21
419.9220294689
 31
0.0
  0
ARC
  5
1BB
330
72
100
AcDbEntity
  8
64647040_EINSATZ
  6
Continuous
 62
     7
100
AcDbCircle
 10
40.6049602141
 20
420.0295802265
 30
0.0
 40
0.1081381440066368
100
AcDbArc
 50
188.185310333
 51
264.025426848
  0
SPLINE
  5
1BC
330
72
100
AcDbEntity
  8
64647040_EINSATZ
  6
Continuous
 62
     7
100
AcDbSpline
210
0.0
220
0.0
230
1.0
 70
    12
 71
     2
 72
     6
 73
     3
 74
     0
 42
0.0000000104622574
 43
0.0000000001
 40
0.0
 40
0.0
 40
0.0
 40
0.1032984916027007
 40
0.1032984916027007
 40
0.1032984916027007
 10
40.49792369868728
 20
420.0141840401888
 30
0.0
 41
1.0
 10
40.49221157207169
 20
420.0632182185799
 30
0.0
 41
1.0
 10
40.48650172884577
 20
420.1122555666547
 30
0.0
 41
1.0
  0
ARC
  5
1BD
330
72
100
AcDbEntity
  8
64647040_EINSATZ
  6
Continuous
 62
     7
100
AcDbCircle
 10
38.7006504129
 20
420.2861047733
 30
0.0
 40
0.0697770458281119
100
AcDbArc
 50
256.1077088569
 51
302.8170795172
  0
LINE
  5
1BE
330
72
100
AcDbEntity
  8
64647040_EINSATZ
  6
Continuous
 62
     7
100
AcDbLine
 10
38.6653294584
 20
420.2223845902
 30
0.0
 11
38.6838971231
 21
420.2183687902
 31
0.0
  0
ARC
  5
1BF
330
72
100
AcDbEntity
  8
64647040_EINSATZ
  6
Continuous
 62
     7
100
AcDbCircle
 10
38.6958749327
 20
420.3351194236
 30
0.0
 40
0.1167996946433802
100
AcDbArc
 50
185.7151834719
 51
254.8397180543
  0
SPLINE
  5
1C0
330
72
100
AcDbEntity
  8
64647040_EINSATZ
  6
Continuous
 62
     7
100
AcDbSpline
210
0.0
220
0.0
230
1.0
 70
    12
 71
     2
 72
     6
 73
     3
 74
     0
 42
0.0000000103647668
 43
0.0000000001
 40
0.7782704267950742
 40
0.7782704267950742
 40
0.7782704267950742
 40
1.0
 40
1.0
 40
1.0
 10
38.55778418506928
 20
420.5362933558509
 30
0.0
 41
1.0
 10
38.56870984835643
 20
420.4298841904239
 30
0.0
 41
1.0
 10
38.57965582498128
 20
420.32348810845
 30
0.0
 41
1.0
  0
SPLINE
  5
1C1
330
72
100
AcDbEntity
  8
64647040_EINSATZ
  6
Continuous
 62
     7
100
AcDbSpline
210
0.0
220
0.0
230
1.0
 70
     8
 71
     3
 72
    14
 73
    10
 74
     0
 42
0.0000000981560945
 43
0.0000000001
 40
0.6448042988065558
 40
0.6448042988065558
 40
0.6448042988065558
 40
0.6448042988065558
 40
0.6947657373185953
 40
0.6947657373185953
 40
0.6947657373185953
 40
0.9263670664640468
 40
0.9263670664640468
 40
0.9263670664640468
 40
1.0
 40
1.0
 40
1.0
 40
1.0
 10
37.06051815880783
 20
420.6929071693312
 30
0.0
 10
37.05901748092611
 20
420.6923450043578
 30
0.0
 10
37.05748882341985
 20
420.6918665958614
 30
0.0
 10
37.05593784079471
 20
420.6914750331558
 30
0.0
 10
37.04874811638425
 20
420.6896599077657
 30
0.0
 10
37.04088063186374
 20
420.6896610552678
 30
0.0
 10
37.03299123207674
 20
420.6914800616444
 30
0.0
 10
37.03045055997413
 20
420.6920658474938
 30
0.0
 10
37.02789292658149
 20
420.6928388691568
 30
0.0
 10
37.0253407461737
 20
420.6937923739303
 30
0.0
  0
LINE
  5
1C2
330
72
100
AcDbEntity
  8
64647040_EINSATZ
  6
Continuous
 62
     7
100
AcDbLine
 10
37.0253407462
 20
420.6937923739
 30
0.0
 11
37.0101803114
 21
420.6994715728
 31
0.0
  0
ARC
  5
1C3
330
72
100
AcDbEntity
  8
64647040_EINSATZ
  6
Continuous
 62
     7
100
AcDbCircle
 10
37.0687756717
 20
420.8137696924
 30
0.0
 40
0.1284425022870208
100
AcDbArc
 50
182.4678235239
 51
242.857883817
  0
SPLINE
  5
1C4
330
72
100
AcDbEntity
  8
64647040_EINSATZ
  6
Continuous
 62
     7
100
AcDbSpline
210
0.0
220
0.0
230
1.0
 70
    12
 71
     2
 72
     6
 73
     3
 74
     0
 42
0.0000000102889114
 43
0.0000000001
 40
0.0
 40
0.0
 40
0.0
 40
0.570340473922624
 40
0.570340473922624
 40
0.570340473922624
 10
36.94045229208147
 20
420.8082391727825
 30
0.0
 41
1.0
 10
36.91759809442491
 20
421.0844305499592
 30
0.0
 41
1.0
 10
36.89493393131617
 20
421.3606924918767
 30
0.0
 41
1.0
  0
SPLINE
  5
1C5
330
72
100
AcDbEntity
  8
64647040_EINSATZ
  6
Continuous
 62
     7
100
AcDbSpline
210
0.0
220
0.0
230
1.0
 70
     8
 71
     3
 72
    11
 73
     7
 74
     0
 42
0.0000001315809411
 43
0.0000000001
 40
0.7008455271978863
 40
0.7008455271978863
 40
0.7008455271978863
 40
0.7008455271978863
 40
0.9263670665973863
 40
0.9263670665973863
 40
0.9263670665973863
 40
1.0
 40
1.0
 40
1.0
 40
1.0
 10
35.77306844968751
 20
421.3088343723772
 30
0.0
 10
35.76806985799506
 20
421.3077532332022
 30
0.0
 10
35.76263325603366
 20
421.3084467901702
 30
0.0
 10
35.75719038619373
 20
421.3108653510837
 30
0.0
 10
35.75539033182383
 20
421.3116652124197
 30
0.0
 10
35.75357914454061
 20
421.3126536951161
 30
0.0
 10
35.75177271254548
 20
421.3138221574723
 30
0.0
  0
LINE
  5
1C6
330
72
100
AcDbEntity
  8
64647040_EINSATZ
  6
Continuous
 62
     7
100
AcDbLine
 10
35.7517727125
 20
421.3138221575
 30
0.0
 11
35.7410526663
 21
421.3207777271
 31
0.0
  0
SPLINE
  5
1C7
330
72
100
AcDbEntity
  8
64647040_EINSATZ
  6
Continuous
 62
     7
100
AcDbSpline
210
0.0
220
0.0
230
1.0
 70
     8
 71
     3
 72
    20
 73
    16
 74
     0
 42
0.0000000778023642
 43
0.0000000001
 40
0.0
 40
0.0
 40
0.0
 40
0.0
 40
0.2315840404726008
 40
0.2315840404726008
 40
0.2315840404726008
 40
0.4631672028362716
 40
0.4631672028362716
 40
0.4631672028362716
 40
0.6947632589842127
 40
0.6947632589842127
 40
0.6947632589842127
 40
0.9263655154548205
 40
0.9263655154548205
 40
0.9263655154548205
 40
1.0
 40
1.0
 40
1.0
 40
1.0
 10
35.74105266629769
 20
421.320777727116
 30
0.0
 10
35.73546964508603
 20
421.3244114377309
 30
0.0
 10
35.7298311069246
 20
421.3298914510236
 30
0.0
 10
35.72460069182443
 20
421.3367631803655
 30
0.0
 10
35.71937028818619
 20
421.3436348946487
 30
0.0
 10
35.71440344667918
 20
421.3520877604973
 30
0.0
 10
35.71010293993719
 20
421.3614200443699
 30
0.0
 10
35.70580219861076
 20
421.3707528373009
 30
0.0
 10
35.7020487760601
 20
421.3812224552956
 30
0.0
 10
35.69914356988529
 20
421.3919598872765
 30
0.0
 10
35.69623829219573
 20
421.4026975835708
 30
0.0
 10
35.69410071234082
 20
421.4139992067759
 30
0.0
 10
35.69290089188871
 20
421.4249272595424
 30
0.0
 10
35.6925144997104
 20
421.4284465478706
 30
0.0
 10
35.69222075109825
 20
421.4319484364411
 30
0.0
 10
35.69202210778754
 20
421.4354022499465
 30
0.0
  0
SPLINE
  5
1C8
330
72
100
AcDbEntity
  8
64647040_EINSATZ
  6
Continuous
 62
     7
100
AcDbSpline
210
0.0
220
0.0
230
1.0
 70
    12
 71
     2
 72
     6
 73
     3
 74
     0
 42
0.0000000102362469
 43
0.0000000001
 40
0.0
 40
0.0
 40
0.0
 40
0.6804847747369142
 40
0.6804847747369142
 40
0.6804847747369142
 10
35.69202210778742
 20
421.4354022499465
 30
0.0
 41
1.0
 10
35.67293779127909
 20
421.7672177668598
 30
0.0
 41
1.0
 10
35.6541847566066
 20
422.0991040555587
 30
0.0
 41
1.0
  0
SPLINE
  5
1C9
330
72
100
AcDbEntity
  8
64647040_EINSATZ
  6
Continuous
 62
     7
100
AcDbSpline
210
0.0
220
0.0
230
1.0
 70
     8
 71
     3
 72
    11
 73
     7
 74
     0
 42
0.0000002087609966
 43
0.0000000001
 40
0.7281981975800856
 40
0.7281981975800856
 40
0.7281981975800856
 40
0.7281981975800856
 40
0.9263670666532098
 40
0.9263670666532098
 40
0.9263670666532098
 40
1.0
 40
1.0
 40
1.0
 40
1.0
 10
34.96013220022775
 20
422.0294410927829
 30
0.0
 10
34.95778488337747
 20
422.0292054328523
 30
0.0
 10
34.95528921149282
 20
422.0303574312496
 30
0.0
 10
34.9528002349366
 20
422.0328412788623
 30
0.0
 10
34.95186346902999
 20
422.0337761144096
 30
0.0
 10
34.95092215727642
 20
422.0349003445607
 30
0.0
 10
34.94998457904917
 20
422.0362041357213
 30
0.0
  0
LINE
  5
1CA
330
72
100
AcDbEntity
  8
64647040_EINSATZ
  6
Continuous
 62
     7
100
AcDbLine
 10
34.949984579
 20
422.0362041357
 30
0.0
 11
34.9444354748
 21
422.0439620656
 31
0.0
  0
ARC
  5
1CB
330
72
100
AcDbEntity
  8
64647040_EINSATZ
  6
Continuous
 62
     7
100
AcDbCircle
 10
35.1818384791
 20
422.1559037159
 30
0.0
 40
0.2624711784485795
100
AcDbArc
 50
178.6173035381
 51
205.2450886532
  0
SPLINE
  5
1CC
330
72
100
AcDbEntity
  8
64647040_EINSATZ
  6
Continuous
 62
     7
100
AcDbSpline
210
0.0
220
0.0
230
1.0
 70
    12
 71
     2
 72
     6
 73
     3
 74
     0
 42
0.0000000102058168
 43
0.0000000001
 40
0.0
 40
0.0
 40
0.0
 40
0.6556695466907118
 40
0.6556695466907118
 40
0.6556695466907118
 10
34.91944372625587
 20
422.1622372145657
 30
0.0
 41
1.0
 10
34.91019355674469
 20
422.4833154945077
 30
0.0
 41
1.0
 10
34.90128639826642
 20
422.8044273938696
 30
0.0
 41
1.0
  0
ELLIPSE
  5
1CD
330
72
100
AcDbEntity
  8
64647040_EINSATZ
  6
Continuous
 62
     7
100
AcDbEllipse
 10
42.6746096995
 20
423.7197292289
 30
0.0
 11
-9.050000000000001
 21
0.0
 31
0.0
210
0.0
220
0.0
230
1.0
 40
0.3746065934
 41
4.110851461400691
 42
5.366227882960606
  0
LINE
  5
1CE
330
72
100
AcDbEntity
  8
64647040_EINSATZ
  6
Continuous
 62
     7
100
AcDbLine
 10
33.5094583096
 20
423.2514709871
 30
0.0
 11
33.6356316046
 21
423.2514709871
 31
0.0
  0
ARC
  5
1CF
330
72
100
AcDbEntity
  8
64647040_EINSATZ
  6
Continuous
 62
     7
100
AcDbCircle
 10
33.5056608581
 20
423.3486159042
 30
0.0
 40
0.0972191111002277
100
AcDbArc
 50
182.609664842
 51
272.2385856595
  0
LINE
  5
1D0
330
72
100
AcDbEntity
  8
64647040_EINSATZ
  6
Continuous
 62
     7
100
AcDbLine
 10
33.4085425726
 20
424.2807058561
 30
0.0
 11
33.4085425726
 21
425.5019638998
 31
0.0
  0
ARC
  5
1D1
330
72
100
AcDbEntity
  8
64647040_EINSATZ
  6
Continuous
 62
     7
100
AcDbCircle
 10
33.5054030015
 20
424.2848517337
 30
0.0
 40
0.0969491154674244
100
AcDbArc
 50
182.4509119972
 51
272.3973385043
  0
LINE
  5
1D2
330
72
100
AcDbEntity
  8
64647040_EINSATZ
  6
Continuous
 62
     7
100
AcDbLine
 10
33.6356316046
 20
424.1879874706
 30
0.0
 11
33.5094583096
 21
424.1879874706
 31
0.0
  0
ARC
  5
1D3
330
72
100
AcDbEntity
  8
64647040_EINSATZ
  6
Continuous
 62
     7
100
AcDbCircle
 10
33.6318229266
 20
424.2851468567
 30
0.0
 40
0.0972340080515264
100
AcDbArc
 50
182.617799514
 51
272.2448628913
  0
LINE
  5
1D4
330
72
100
AcDbEntity
  8
64647040_EINSATZ
  6
Continuous
 62
     7
100
AcDbLine
 10
33.5346903891
 20
425.6097395017
 30
0.0
 11
33.5346903891
 21
424.2807058561
 31
0.0
  0
LINE
  5
1D5
330
72
100
AcDbEntity
  8
64647040_EINSATZ
  6
Continuous
 62
     7
100
AcDbLine
 10
35.3099855246
 20
425.8163488466
 30
0.0
 11
35.3992035171
 21
425.7829271984
 31
0.0
  0
ARC
  5
1D6
330
72
100
AcDbEntity
  8
64647040_EINSATZ
  6
Continuous
 62
     7
100
AcDbCircle
 10
35.3698256801
 20
425.9331360603
 30
0.0
 40
0.1312253691227008
100
AcDbArc
 50
178.8374491502
 51
242.8700249871
  0
LINE
  5
1D7
330
72
100
AcDbEntity
  8
64647040_EINSATZ
  6
Continuous
 62
     7
100
AcDbLine
 10
35.2386273227
 20
426.5768907456
 30
0.0
 11
35.2386273227
 21
425.935798485
 31
0.0
  0
LINE
  5
1D8
330
72
100
AcDbEntity
  8
64647040_EINSATZ
  6
Continuous
 62
     7
100
AcDbLine
 10
37.0063942756
 20
426.5980156412
 30
0.0
 11
37.0063942756
 21
427.1531134672
 31
0.0
  0
ARC
  5
1D9
330
72
100
AcDbEntity
  8
64647040_EINSATZ
  6
Continuous
 62
     7
100
AcDbCircle
 10
37.1383988366
 20
426.5958348357
 30
0.0
 40
0.1320225739627367
100
AcDbArc
 50
179.053520695
 51
242.6539534422
  0
LINE
  5
1DA
330
72
100
AcDbEntity
  8
64647040_EINSATZ
  6
Continuous
 62
     7
100
AcDbLine
 10
37.1669704701
 20
426.4451443546
 30
0.0
 11
37.0777524776
 21
426.4785660028
 31
0.0
  0
ARC
  5
1DB
330
72
100
AcDbEntity
  8
64647040_EINSATZ
  6
Continuous
 62
     7
100
AcDbCircle
 10
37.2268037215
 20
426.5619473819
 30
0.0
 40
0.1312362951505059
100
AcDbArc
 50
178.8415042658
 51
242.875855864
  0
LINE
  5
1DC
330
72
100
AcDbEntity
  8
64647040_EINSATZ
  6
Continuous
 62
     7
100
AcDbLine
 10
37.0955942521
 20
427.1756743282
 30
0.0
 11
37.0955942521
 21
426.5646007419
 31
0.0
  0
LINE
  5
1DD
330
72
100
AcDbEntity
  8
64647040_EINSATZ
  6
Continuous
 62
     7
100
AcDbLine
 10
41.4246096995
 20
427.1530553692
 30
0.0
 11
41.4246096995
 21
427.105790021
 31
0.0
  0
LINE
  5
1DE
330
72
100
AcDbEntity
  8
64647040_EINSATZ
  6
Continuous
 62
     7
100
AcDbLine
 10
41.4246096995
 20
427.1530553692
 30
0.0
 11
41.4246096995
 21
427.2835774551
 31
0.0
  0
LINE
  5
1DF
330
72
100
AcDbEntity
  8
64647040_EINSATZ
  6
Continuous
 62
     7
100
AcDbLine
 10
41.4246096995
 20
427.7798058017
 30
0.0
 11
41.4246096995
 21
427.2835774551
 31
0.0
  0
LINE
  5
1E0
330
72
100
AcDbEntity
  8
64647040_EINSATZ
  6
Continuous
 62
     7
100
AcDbLine
 10
43.9246096995
 20
427.2835774551
 30
0.0
 11
43.9246096995
 21
427.7798058017
 31
0.0
  0
LINE
  5
1E1
330
72
100
AcDbEntity
  8
64647040_EINSATZ
  6
Continuous
 62
     7
100
AcDbLine
 10
43.9246096995
 20
427.2835774551
 30
0.0
 11
43.9246096995
 21
427.1530553692
 31
0.0
  0
LINE
  5
1E2
330
72
100
AcDbEntity
  8
64647040_EINSATZ
  6
Continuous
 62
     7
100
AcDbLine
 10
43.9246096995
 20
427.105790021
 30
0.0
 11
43.9246096995
 21
427.1530553692
 31
0.0
  0
LINE
  5
1E3
330
72
100
AcDbEntity
  8
64647040_EINSATZ
  6
Continuous
 62
     7
100
AcDbLine
 10
48.2536251469
 20
427.1756743282
 30
0.0
 11
48.2536251469
 21
426.5646007419
 31
0.0
  0
ARC
  5
1E4
330
72
100
AcDbEntity
  8
64647040_EINSATZ
  6
Continuous
 62
     7
100
AcDbCircle
 10
48.1216111184
 20
426.5624281129
 30
0.0
 40
0.1320319053352079
100
AcDbArc
 50
297.3397761698
 51
0.9428637004
  0
LINE
  5
1E5
330
72
100
AcDbEntity
  8
64647040_EINSATZ
  6
Continuous
 62
     7
100
AcDbLine
 10
48.2714669214
 20
426.4785660028
 30
0.0
 11
48.1822489289
 21
426.4451443546
 31
0.0
  0
ARC
  5
1E6
330
72
100
AcDbEntity
  8
64647040_EINSATZ
  6
Continuous
 62
     7
100
AcDbCircle
 10
48.2116267659
 20
426.5953532165
 30
0.0
 40
0.1312253691227321
100
AcDbArc
 50
297.1299750129
 51
1.1625508498
  0
LINE
  5
1E7
330
72
100
AcDbEntity
  8
64647040_EINSATZ
  6
Continuous
 62
     7
100
AcDbLine
 10
48.3428251234
 20
427.1531134672
 30
0.0
 11
48.3428251234
 21
426.5980156412
 31
0.0
  0
LINE
  5
1E8
330
72
100
AcDbEntity
  8
64647040_EINSATZ
  6
Continuous
 62
     7
100
AcDbLine
 10
50.1105920763
 20
425.935798485
 30
0.0
 11
50.1105920763
 21
426.5768907456
 31
0.0
  0
ARC
  5
1E9
330
72
100
AcDbEntity
  8
64647040_EINSATZ
  6
Continuous
 62
     7
100
AcDbCircle
 10
49.9785875153
 20
425.9336176795
 30
0.0
 40
0.1320225739627359
100
AcDbArc
 50
297.3460465578
 51
0.946479305
  0
LINE
  5
1EA
330
72
100
AcDbEntity
  8
64647040_EINSATZ
  6
Continuous
 62
     7
100
AcDbLine
 10
49.9500158819
 20
425.7829271984
 30
0.0
 11
50.0392338744
 21
425.8163488466
 31
0.0
  0
LINE
  5
1EB
330
72
100
AcDbEntity
  8
64647040_EINSATZ
  6
Continuous
 62
     7
100
AcDbLine
 10
51.8145290099
 20
424.2807058561
 30
0.0
 11
51.8145290099
 21
425.6097395017
 31
0.0
  0
ARC
  5
1EC
330
72
100
AcDbEntity
  8
64647040_EINSATZ
  6
Continuous
 62
     7
100
AcDbCircle
 10
51.7176550755
 20
424.2848653191
 30
0.0
 40
0.0969631904082946
100
AcDbArc
 50
267.5959285876
 51
357.541409007
  0
LINE
  5
1ED
330
72
100
AcDbEntity
  8
64647040_EINSATZ
  6
Continuous
 62
     7
100
AcDbLine
 10
51.8397610894
 20
424.1879874706
 30
0.0
 11
51.7135877944
 21
424.1879874706
 31
0.0
  0
ARC
  5
1EE
330
72
100
AcDbEntity
  8
64647040_EINSATZ
  6
Continuous
 62
     7
100
AcDbCircle
 10
51.8435585409
 20
424.2851323878
 30
0.0
 40
0.0972191111002385
100
AcDbArc
 50
267.7614143405
 51
357.3903351581
  0
LINE
  5
1EF
330
72
100
AcDbEntity
  8
64647040_EINSATZ
  6
Continuous
 62
     7
100
AcDbLine
 10
51.9406768264
 20
425.5019638998
 30
0.0
 11
51.9406768264
 21
424.2807058561
 31
0.0
  0
ARC
  5
1F0
330
72
100
AcDbEntity
  8
64647040_EINSATZ
  6
Continuous
 62
     7
100
AcDbCircle
 10
51.8438163975
 20
423.3483352502
 30
0.0
 40
0.0969491154674295
100
AcDbArc
 50
267.6026614957
 51
357.5490880028
  0
LINE
  5
1F1
330
72
100
AcDbEntity
  8
64647040_EINSATZ
  6
Continuous
 62
     7
100
AcDbLine
 10
51.7135877944
 20
423.2514709871
 30
0.0
 11
51.8397610894
 21
423.2514709871
 31
0.0
  0
ELLIPSE
  5
1F2
330
72
100
AcDbEntity
  8
64647040_EINSATZ
  6
Continuous
 62
     7
100
AcDbEllipse
 10
42.6746096995
 20
423.7197292289
 30
0.0
 11
9.25000000000836
 21
2.747801985947262E-12
 31
0.0
210
0.0
220
0.0
230
1.0
 40
0.3746065934
 41
0.6883131267069034
 42
0.9058557524863735
  0
ELLIPSE
  5
1F3
330
72
100
AcDbEntity
  8
64647040_EINSATZ
  6
Continuous
 62
     7
100
AcDbEllipse
 10
42.6746096995
 20
423.7197292289
 30
0.0
 11
9.124999999999313
 21
-2.220446049250313E-13
 31
0.0
210
0.0
220
0.0
230
1.0
 40
0.3746065934
 41
0.93393618402434
 42
1.433377936380023
  0
ELLIPSE
  5
1F4
330
72
100
AcDbEntity
  8
64647040_EINSATZ
  6
Continuous
 62
     7
100
AcDbEllipse
 10
42.6746096995
 20
423.7197292289
 30
0.0
 11
9.249999999997636
 21
-1.526556658859590E-13
 31
0.0
210
0.0
220
0.0
230
1.0
 40
0.3746065934
 41
1.435246479414919
 42
1.706346174174844
  0
ELLIPSE
  5
1F5
330
72
100
AcDbEntity
  8
64647040_EINSATZ
  6
Continuous
 62
     7
100
AcDbEllipse
 10
42.6746096995
 20
423.7197292289
 30
0.0
 11
-9.125000000000334
 21
5.551115123125783E-14
 31
0.0
210
0.0
220
0.0
230
1.0
 40
0.3746065934
 41
4.849807370799613
 42
5.346122822196827
  0
ELLIPSE
  5
1F6
330
72
100
AcDbEntity
  8
64647040_EINSATZ
  6
Continuous
 62
     7
100
AcDbEllipse
 10
42.6746096995
 20
423.7197292289
 30
0.0
 11
-9.250000000008779
 21
2.511879593214417E-12
 31
0.0
210
0.0
220
0.0
230
1.0
 40
0.3746065934
 41
-0.9061658633656
 42
-0.6936718253218581
  0
ELLIPSE
  5
1F7
330
72
100
AcDbEntity
  8
64647040_EINSATZ
  6
Continuous
 62
     7
100
AcDbEllipse
 10
42.6746096995
 20
423.8124476143
 30
0.0
 11
9.350000000022705
 21
4.718447854656915E-13
 31
0.0
210
0.0
220
0.0
230
1.0
 40
0.3746065934
 41
3.007501337395968
 42
3.275683969783572
  0
ELLIPSE
  5
1F8
330
72
100
AcDbEntity
  8
64647040_EINSATZ
  6
Continuous
 62
     7
100
AcDbEllipse
 10
42.6746096995
 20
423.8124476143
 30
0.0
 11
-9.349999999984741
 21
0.0
 31
0.0
210
0.0
220
0.0
230
1.0
 40
0.3746065934
 41
3.007501337395715
 42
3.275683969783871
  0
ARC
  5
1F9
330
72
100
AcDbEntity
  8
64647040_EINSATZ
  6
Continuous
 62
     7
100
AcDbCircle
 10
254.03715503
 20
448.9418911375
 30
0.0
 40
213.4584735678769
100
AcDbArc
 50
186.8897933415
 51
186.9166961835
  0
ARC
  5
1FA
330
72
100
AcDbEntity
  8
64647040_EINSATZ
  6
Continuous
 62
     7
100
AcDbCircle
 10
688.4248100602
 20
387.3428218194
 30
0.0
 40
646.8078270209178
100
AcDbArc
 50
176.8078099098
 51
176.810634756
  0
ARC
  5
1FB
330
72
100
AcDbEntity
  8
64647040_EINSATZ
  6
Continuous
 62
     7
100
AcDbCircle
 10
-319.2508402845
 20
424.9604487762
 30
0.0
 40
362.1671884055707
100
AcDbArc
 50
359.7395663453
 51
359.7455691474
  0
SPLINE
  5
1FC
330
72
100
AcDbEntity
  8
64647040_EINSATZ
  6
Continuous
 62
     7
100
AcDbSpline
210
0.0
220
0.0
230
1.0
 70
     8
 71
     3
 72
    11
 73
     7
 74
     0
 42
0.0000003441506804
 43
0.0000000001
 40
0.0
 40
0.0
 40
0.0
 40
0.0
 40
0.2289377704749271
 40
0.2289377704749271
 40
0.2289377704749271
 40
0.2616917636565074
 40
0.2616917636565074
 40
0.2616917636565074
 40
0.2616917636565074
 10
37.95635264687621
 20
422.8117091706521
 30
0.0
 10
37.95637789947899
 20
422.8075455945882
 30
0.0
 10
37.95615162522411
 20
422.8050921220256
 30
0.0
 10
37.95568690698445
 20
422.804547772237
 30
0.0
 10
37.95562041395238
 20
422.8044698853265
 30
0.0
 10
37.95554876863853
 20
422.8044307573434
 30
0.0
 10
37.95547210176513
 20
422.8044300224887
 30
0.0
  0
SPLINE
  5
1FD
330
72
100
AcDbEntity
  8
64647040_EINSATZ
  6
Continuous
 62
     7
100
AcDbSpline
210
0.0
220
0.0
230
1.0
 70
     8
 71
     3
 72
    11
 73
     7
 74
     0
 42
0.0000003378352016
 43
0.0000000001
 40
0.7376450658852106
 40
0.7376450658852106
 40
0.7376450658852106
 40
0.7376450658852106
 40
0.9310036385224203
 40
0.9310036385224203
 40
0.9310036385224203
 40
1.0
 40
1.0
 40
1.0
 40
1.0
 10
47.39375799466163
 20
422.8044305859815
 30
0.0
 10
47.39330438338907
 20
422.8044303844806
 30
0.0
 10
47.39301799114434
 20
422.8057668684513
 30
0.0
 10
47.39291245438498
 20
422.8083801258258
 30
0.0
 10
47.39287429627795
 20
422.8093249810133
 30
0.0
 10
47.39285903978123
 20
422.8104375820012
 30
0.0
 10
47.39286675212336
 20
422.811709170652
 30
0.0
  0
SPLINE
  5
1FE
330
72
100
AcDbEntity
  8
64647040_EINSATZ
  6
Continuous
 62
     7
100
AcDbSpline
210
0.0
220
0.0
230
1.0
 70
     8
 71
     3
 72
    11
 73
     7
 74
     0
 42
0.0000003368266185
 43
0.0000000001
 40
0.0
 40
0.0
 40
0.0
 40
0.0
 40
0.2274863332644969
 40
0.2274863332644969
 40
0.2274863332644969
 40
0.2614986970279423
 40
0.2614986970279423
 40
0.2614986970279423
 40
0.2614986970279423
 10
36.20269550088607
 20
422.8117091706521
 30
0.0
 10
36.20271383850991
 20
422.8075619745752
 30
0.0
 10
36.20241308416483
 20
422.8051117854983
 30
0.0
 10
36.20181502252169
 20
422.8045546405156
 30
0.0
 10
36.20172558985059
 20
422.8044713264215
 30
0.0
 10
36.2016291396455
 20
422.8044299636615
 30
0.0
 10
36.20152589433452
 20
422.8044301193689
 30
0.0
  0
SPLINE
  5
1FF
330
72
100
AcDbEntity
  8
64647040_EINSATZ
  6
Continuous
 62
     7
100
AcDbSpline
210
0.0
220
0.0
230
1.0
 70
     8
 71
     3
 72
    11
 73
     7
 74
     0
 42
0.0000003301072662
 43
0.0000000001
 40
0.738216486694098
 40
0.738216486694098
 40
0.738216486694098
 40
0.738216486694098
 40
0.9340165527280078
 40
0.9340165527280078
 40
0.9340165527280078
 40
1.0
 40
1.0
 40
1.0
 40
1.0
 10
49.14770387941892
 20
422.8044302562047
 30
0.0
 10
49.14710937663087
 20
422.8044299576914
 30
0.0
 10
49.14672999503478
 20
422.8058066189068
 30
0.0
 10
49.14658841152672
 20
422.8084976066471
 30
0.0
 10
49.14654005486263
 20
422.8094166910234
 30
0.0
 10
49.14651850653031
 20
422.8104898222293
 30
0.0
 10
49.14652389811351
 20
422.811709170652
 30
0.0
  0
ARC
  5
200
330
72
100
AcDbEntity
  8
64647040_EINSATZ
  6
Continuous
 62
     7
100
AcDbCircle
 10
-142.2689913497
 20
455.0303267965
 30
0.0
 40
188.3011949781997
100
AcDbArc
 50
350.2610500936
 51
350.2685487608
  0
LINE
  5
201
330
72
100
AcDbEntity
  8
64647040_EINSATZ
  6
Continuous
 62
     7
100
AcDbLine
 10
46.6248676979
 20
423.1355742013
 30
0.0
 11
46.6251542456
 21
423.0785321753
 31
0.0
  0
LINE
  5
202
330
72
100
AcDbEntity
  8
64647040_EINSATZ
  6
Continuous
 62
     7
100
AcDbLine
 10
46.2405421803
 20
423.1617157718
 30
0.0
 11
46.6251542456
 21
423.0785321753
 31
0.0
  0
LINE
  5
203
330
72
100
AcDbEntity
  8
64647040_EINSATZ
  6
Continuous
 62
     7
100
AcDbLine
 10
42.041562855
 20
422.8771237255
 30
0.0
 11
42.0089937707
 21
422.9454530961
 31
0.0
  0
SPLINE
  5
204
330
72
100
AcDbEntity
  8
64647040_EINSATZ
  6
Continuous
 62
     7
100
AcDbSpline
210
0.0
220
0.0
230
1.0
 70
    12
 71
     2
 72
     6
 73
     3
 74
     0
 42
0.0000010477141042
 43
0.0000000001
 40
0.0
 40
0.0
 40
0.0
 40
1.0
 40
1.0
 40
1.0
 10
42.14015468643604
 20
422.7579213011324
 30
0.0
 41
1.0
 10
42.13718055248713
 20
422.7617802329402
 30
0.0
 41
1.0
 10
42.13460558216941
 20
422.7656792310107
 30
0.0
 41
1.0
  0
SPLINE
  5
205
330
72
100
AcDbEntity
  8
64647040_EINSATZ
  6
Continuous
 62
     7
100
AcDbSpline
210
0.0
220
0.0
230
1.0
 70
     8
 71
     3
 72
    20
 73
    16
 74
     0
 42
0.0000000688531994
 43
0.0000000001
 40
0.0
 40
0.0
 40
0.0
 40
0.0
 40
0.1662420688385254
 40
0.1662420688385254
 40
0.1662420688385254
 40
0.3310650875756723
 40
0.3310650875756723
 40
0.3310650875756723
 40
0.5632461486768662
 40
0.5632461486768662
 40
0.5632461486768662
 40
0.8533054901456426
 40
0.8533054901456426
 40
0.8533054901456426
 40
1.0
 40
1.0
 40
1.0
 40
1.0
 10
42.13460558216943
 20
422.7656792310107
 30
0.0
 10
42.13243034614484
 20
422.7689729548335
 30
0.0
 10
42.12902318492628
 20
422.7733965966071
 30
0.0
 10
42.1248385250145
 20
422.7784620460645
 30
0.0
 10
42.12067415459895
 20
422.7835029354813
 30
0.0
 10
42.11566061541863
 20
422.7892942330763
 30
0.0
 10
42.11032869104981
 20
422.7953831785546
 30
0.0
 10
42.10284816348889
 20
422.8039257836849
 30
0.0
 10
42.09454725216423
 20
422.8132957035479
 30
0.0
 10
42.08632771412426
 20
422.8227703776282
 30
0.0
 10
42.0760825511404
 20
422.8345799926819
 30
0.0
 10
42.06563427471105
 20
422.8469386655648
 30
0.0
 10
42.05593137439968
 20
422.8589385204842
 30
0.0
 10
42.05097413778106
 20
422.8650692770946
 30
0.0
 10
42.04615174813176
 20
422.8711719996687
 30
0.0
 10
42.04156285497837
 20
422.8771237255351
 30
0.0
  0
SPLINE
  5
206
330
72
100
AcDbEntity
  8
64647040_EINSATZ
  6
Continuous
 62
     7
100
AcDbSpline
210
0.0
220
0.0
230
1.0
 70
     8
 71
     3
 72
     8
 73
     4
 74
     0
 42
0.0000002515966858
 43
0.0000000001
 40
0.7539747293325973
 40
0.7539747293325973
 40
0.7539747293325973
 40
0.7539747293325973
 40
1.0
 40
1.0
 40
1.0
 40
1.0
 10
42.14368746722955
 20
422.7506478991461
 30
0.0
 10
42.14482436650692
 20
422.7507393346392
 30
0.0
 10
42.14394655409001
 20
422.753001361767
 30
0.0
 10
42.14015468643606
 20
422.7579213011323
 30
0.0
  0
ARC
  5
207
330
72
100
AcDbEntity
  8
64647040_EINSATZ
  6
Continuous
 62
     7
100
AcDbCircle
 10
42.6787764577
 20
423.4873767698
 30
0.0
 40
0.9102934338208248
100
AcDbArc
 50
233.2040050463
 51
299.4655698997
  0
ARC
  5
208
330
72
100
AcDbEntity
  8
64647040_EINSATZ
  6
Continuous
 62
     7
100
AcDbCircle
 10
43.0404886522
 20
423.0072383573
 30
0.0
 40
0.3000840339611117
100
AcDbArc
 50
308.7104482874
 51
318.9249209729
  0
ARC
  5
209
330
72
100
AcDbEntity
  8
64647040_EINSATZ
  6
Continuous
 62
     7
100
AcDbCircle
 10
42.8839640319
 20
423.149696952
 30
0.0
 40
0.5117022667927119
100
AcDbArc
 50
318.4156473216
 51
326.2598279796
  0
ARC
  5
20A
330
72
100
AcDbEntity
  8
64647040_EINSATZ
  6
Continuous
 62
     7
100
AcDbCircle
 10
45.5762998303
 20
427.5625469985
 30
0.0
 40
8.041617612760938
100
AcDbArc
 50
279.1721783981
 51
306.9526199343
  0
ARC
  5
20B
330
72
100
AcDbEntity
  8
64647040_EINSATZ
  6
Continuous
 62
     7
100
AcDbCircle
 10
40.0852908999
 20
428.2842884731
 30
0.0
 40
8.821149124330624
100
AcDbArc
 50
235.0239520204
 51
261.9217766535
  0
SPLINE
  5
20C
330
72
100
AcDbEntity
  8
64647040_EINSATZ
  6
Continuous
 62
     7
100
AcDbSpline
210
0.0
220
0.0
230
1.0
 70
     8
 71
     3
 72
    18
 73
    14
 74
     0
 42
0.0000000029169257
 43
0.0000000001
 40
0.0
 40
0.0
 40
0.0
 40
0.0
 40
0.0722985804755195
 40
0.1720147365578765
 40
0.2718050124850417
 40
0.3716866690521032
 40
0.4716793173424749
 40
0.5718037557921688
 40
0.672078385730996
 40
0.7725103508935516
 40
0.8730760461242826
 40
0.9736518540782017
 40
1.0
 40
1.0
 40
1.0
 40
1.0
 10
45.70478434277217
 20
420.2556139106279
 30
0.0
 10
45.8191964348111
 20
420.2790484871545
 30
0.0
 10
46.04915174605577
 20
420.3266318446012
 30
0.0
 10
46.42637296367282
 20
420.4231142235435
 30
0.0
 10
46.80976993741103
 20
420.5369674933231
 30
0.0
 10
47.17188506960613
 20
420.6630120349467
 30
0.0
 10
47.50722220692943
 20
420.7992686950849
 30
0.0
 10
47.81488578001897
 20
420.9455221153942
 30
0.0
 10
48.09247536518511
 20
421.1009359394666
 30
0.0
 10
48.33983473798286
 20
421.2653972223167
 30
0.0
 10
48.54998873769264
 20
421.436554537676
 30
0.0
 10
48.69437303674849
 20
421.5751123130953
 30
0.0
 10
48.74978854617331
 20
421.6492403701777
 30
0.0
 10
48.76316425956792
 20
421.6672385141341
 30
0.0
  0
ARC
  5
20D
330
72
100
AcDbEntity
  8
64647040_EINSATZ
  6
Continuous
 62
     7
100
AcDbCircle
 10
41.7609047188
 20
429.9910274857
 30
0.0
 40
9.96136457824683
100
AcDbArc
 50
258.2645069185
 51
263.3232764346
  0
ARC
  5
20E
330
72
100
AcDbEntity
  8
64647040_EINSATZ
  6
Continuous
 62
     7
100
AcDbCircle
 10
40.3721312029
 20
425.839609664
 30
0.0
 40
5.637860937108122
100
AcDbArc
 50
228.1008031652
 51
263.5093807483
  0
SPLINE
  5
20F
330
72
100
AcDbEntity
  8
64647040_EINSATZ
  6
Continuous
 62
     7
100
AcDbSpline
210
0.0
220
0.0
230
1.0
 70
     8
 71
     3
 72
    14
 73
    10
 74
     0
 42
0.0000000062134009
 43
0.0000000001
 40
0.0
 40
0.0
 40
0.0
 40
0.0
 40
0.1329954691835925
 40
0.2817487153486117
 40
0.4302779850411982
 40
0.5786906386462805
 40
0.7271633743069116
 40
0.8761468695790288
 40
1.0
 40
1.0
 40
1.0
 40
1.0
 10
47.64523494598
 20
423.743855943331
 30
0.0
 10
47.73680621355029
 20
423.6970265250563
 30
0.0
 10
47.89945088937206
 20
423.6129758466451
 30
0.0
 10
48.13512531344266
 20
423.4636483470021
 30
0.0
 10
48.34119808006513
 20
423.3080186664174
 30
0.0
 10
48.51433665704995
 20
423.1470649304904
 30
0.0
 10
48.65062655318584
 20
422.9851337936888
 30
0.0
 10
48.75039220021445
 20
422.8271924427355
 30
0.0
 10
48.78479759036774
 20
422.7347207950284
 30
0.0
 10
48.80257536772736
 20
422.6850752501935
 30
0.0
  0
ARC
  5
210
330
72
100
AcDbEntity
  8
64647040_EINSATZ
  6
Continuous
 62
     7
100
AcDbCircle
 10
38.6778615462
 20
421.4928070767
 30
0.0
 40
2.460454906948774
100
AcDbArc
 50
110.2391716618
 51
147.6103996241
  0
SPLINE
  5
211
330
72
100
AcDbEntity
  8
64647040_EINSATZ
  6
Continuous
 62
     7
100
AcDbSpline
210
0.0
220
0.0
230
1.0
 70
     8
 71
     3
 72
    19
 73
    15
 74
     0
 42
0.0000000033027228
 43
0.0000000001
 40
0.0
 40
0.0
 40
0.0
 40
0.0
 40
0.0149486762164215
 40
0.106990851714034
 40
0.1991221322500551
 40
0.2913689990057667
 40
0.3837631347866458
 40
0.4763406150605908
 40
0.5691368871177873
 40
0.6621707423056927
 40
0.755402413365637
 40
0.8485479142935741
 40
0.9409688995117317
 40
1.0
 40
1.0
 40
1.0
 40
1.0
 10
44.71369399360584
 20
420.7965925724322
 30
0.0
 10
44.73638797794407
 20
420.8004226222243
 30
0.0
 10
44.87572188727719
 20
420.8240094763117
 30
0.0
 10
45.14350196585988
 20
420.8843115231546
 30
0.0
 10
45.48525118551487
 20
420.9731072872632
 30
0.0
 10
45.80736595652846
 20
421.0754433985442
 30
0.0
 10
46.10395915517841
 20
421.1882751518952
 30
0.0
 10
46.37363926029064
 20
421.3115943653
 30
0.0
 10
46.6141077519131
 20
421.4446322710897
 30
0.0
 10
46.82328941153689
 20
421.5867554372819
 30
0.0
 10
46.99986575028795
 20
421.7377613392297
 30
0.0
 10
47.13918542841655
 20
421.895367010092
 30
0.0
 10
47.23587257297326
 20
422.0443814996588
 30
0.0
 10
47.26612507047574
 20
422.1325768508145
 30
0.0
 10
47.27959304523736
 20
422.1731618189742
 30
0.0
  0
SPLINE
  5
212
330
72
100
AcDbEntity
  8
64647040_EINSATZ
  6
Continuous
 62
     7
100
AcDbSpline
210
0.0
220
0.0
230
1.0
 70
     8
 71
     3
 72
    17
 73
    13
 74
     0
 42
0.0000000040131945
 43
0.0000000001
 40
0.0
 40
0.0
 40
0.0
 40
0.0
 40
0.0542793394680645
 40
0.1692896500755905
 40
0.2857549220808606
 40
0.4027630191851156
 40
0.519716372303705
 40
0.6364412559249579
 40
0.7529208047736133
 40
0.8691834530366569
 40
0.9852685732708698
 40
1.0
 40
1.0
 40
1.0
 40
1.0
 10
38.22032638466196
 20
421.8967151536181
 30
0.0
 10
38.24016573740663
 20
421.8688774577658
 30
0.0
 10
38.29342110479269
 20
421.795085682523
 30
0.0
 10
38.42842014267707
 20
421.6665824234474
 30
0.0
 10
38.61582834130114
 20
421.52174742688
 30
0.0
 10
38.83962676321609
 20
421.3835897518081
 30
0.0
 10
39.09377248944933
 20
421.25467798567
 30
0.0
 10
39.37652729012596
 20
421.1358106968939
 30
0.0
 10
39.6860386218482
 20
421.0271285809859
 30
0.0
 10
40.01679123524784
 20
420.931878809539
 30
0.0
 10
40.27279844710088
 20
420.8673925966
 30
0.0
 10
40.4051274582616
 20
420.8419325961679
 30
0.0
 10
40.42247644714347
 20
420.8386018947135
 30
0.0
  0
SPLINE
  5
213
330
72
100
AcDbEntity
  8
64647040_EINSATZ
  6
Continuous
 62
     7
100
AcDbSpline
210
0.0
220
0.0
230
1.0
 70
     8
 71
     3
 72
    15
 73
    11
 74
     0
 42
0.0000000075222934
 43
0.0000000001
 40
0.0
 40
0.0
 40
0.0
 40
0.0
 40
0.1180626345008313
 40
0.2587539219321969
 40
0.399103927567115
 40
0.5393347229782064
 40
0.6798545328578978
 40
0.8218197082476536
 40
0.9648188947764937
 40
1.0
 40
1.0
 40
1.0
 40
1.0
 10
46.25631656883454
 20
423.352345344106
 30
0.0
 10
46.32882912981415
 20
423.3154048036297
 30
0.0
 10
46.46210225053488
 20
423.2467266318895
 30
0.0
 10
46.65095817550567
 20
423.1227546268822
 30
0.0
 10
46.81326532512914
 20
422.991299688432
 30
0.0
 10
46.94146949745537
 20
422.8564977546313
 30
0.0
 10
47.03431340686123
 20
422.7209099066642
 30
0.0
 10
47.09213214234281
 20
422.5875810990378
 30
0.0
 10
47.11079205332462
 20
422.4853971394764
 30
0.0
 10
47.11193047920037
 20
422.4336123539086
 30
0.0
 10
47.11210969949979
 20
422.4216718324673
 30
0.0
  0
SPLINE
  5
214
330
72
100
AcDbEntity
  8
64647040_EINSATZ
  6
Continuous
 62
     7
100
AcDbSpline
210
0.0
220
0.0
230
1.0
 70
     8
 71
     3
 72
    15
 73
    11
 74
     0
 42
0.0000000063394121
 43
0.0000000001
 40
0.0
 40
0.0
 40
0.0
 40
0.0
 40
0.1169345949715908
 40
0.2539922361662373
 40
0.3862910214308431
 40
0.5154372972733999
 40
0.6433300560674948
 40
0.7709781757336679
 40
0.8987052876589868
 40
1.0
 40
1.0
 40
1.0
 40
1.0
 10
38.24106116338319
 20
422.4621738710453
 30
0.0
 10
38.24563200182229
 20
422.5059322780642
 30
0.0
 10
38.25554011388741
 20
422.5864303158805
 30
0.0
 10
38.31600441826433
 20
422.7236375207181
 30
0.0
 10
38.41325290141345
 20
422.8635486916581
 30
0.0
 10
38.54624875732151
 20
423.0007565079057
 30
0.0
 10
38.7131228793919
 20
423.1337065192232
 30
0.0
 10
38.91193119748229
 20
423.2605367958999
 30
0.0
 10
39.13054072925029
 20
423.3763698399849
 30
0.0
 10
39.27810852314312
 20
423.4387078129945
 30
0.0
 10
39.35574187782994
 20
423.4711561695841
 30
0.0
  0
ARC
  5
215
330
72
100
AcDbEntity
  8
64647040_EINSATZ
  6
Continuous
 62
     7
100
AcDbCircle
 10
45.1796926263
 20
422.402609553
 30
0.0
 40
0.374673977631967
100
AcDbArc
 50
332.4962979372
 51
2.9162951142
  0
SPLINE
  5
216
330
72
100
AcDbEntity
  8
64647040_EINSATZ
  6
Continuous
 62
     7
100
AcDbSpline
210
0.0
220
0.0
230
1.0
 70
     8
 71
     3
 72
    14
 73
    10
 74
     0
 42
0.0000000076507517
 43
0.0000000001
 40
0.0
 40
0.0
 40
0.0
 40
0.0
 40
0.0813014801595033
 40
0.239379915556472
 40
0.3981246355159195
 40
0.5576917297870626
 40
0.7180672821082899
 40
0.8781817899770537
 40
1.0
 40
1.0
 40
1.0
 40
1.0
 10
44.46401867927771
 20
421.5226590770559
 30
0.0
 10
44.51322880946302
 20
421.5372369790722
 30
0.0
 10
44.63604499227204
 20
421.5739840080898
 30
0.0
 10
44.8337968367861
 20
421.6530962486111
 30
0.0
 10
45.03816955684778
 20
421.7535358657084
 30
0.0
 10
45.21436407305313
 20
421.8658044215388
 30
0.0
 10
45.35619085395641
 20
421.9869820305046
 30
0.0
 10
45.46043137074125
 20
422.1107687543204
 30
0.0
 10
45.49498962498386
 20
422.1893808019632
 30
0.0
 10
45.51202132425692
 20
422.229582890285
 30
0.0
  0
SPLINE
  5
217
330
72
100
AcDbEntity
  8
64647040_EINSATZ
  6
Continuous
 62
     7
100
AcDbSpline
210
0.0
220
0.0
230
1.0
 70
     8
 71
     3
 72
    15
 73
    11
 74
     0
 42
0.0000000062250416
 43
0.0000000001
 40
0.0
 40
0.0
 40
0.0
 40
0.0
 40
0.0996770731627988
 40
0.2268690818476983
 40
0.3591820568447288
 40
0.4945576749843553
 40
0.6306419977632842
 40
0.7662754904770132
 40
0.9013488875760349
 40
1.0
 40
1.0
 40
1.0
 40
1.0
 10
39.83471525604445
 20
422.233455860752
 30
0.0
 10
39.85096239456951
 20
422.194881536297
 30
0.0
 10
39.88333475055499
 20
422.1207427529666
 30
0.0
 10
39.97897805449212
 20
422.0020284028709
 30
0.0
 10
40.11111682014852
 20
421.8837876840467
 30
0.0
 10
40.27973154180924
 20
421.7715272163729
 30
0.0
 10
40.48063957729256
 20
421.6680998362047
 30
0.0
 10
40.70872688180285
 20
421.5759700986843
 30
0.0
 10
40.94428996109192
 20
421.4993863567017
 30
0.0
 10
41.0944568310545
 20
421.4631397005164
 30
0.0
 10
41.16955096085782
 20
421.4452778205077
 30
0.0
  0
SPLINE
  5
218
330
72
100
AcDbEntity
  8
64647040_EINSATZ
  6
Continuous
 62
     7
100
AcDbSpline
210
0.0
220
0.0
230
1.0
 70
     8
 71
     3
 72
    14
 73
    10
 74
     0
 42
0.0000000111706092
 43
0.0000000001
 40
0.0
 40
0.0
 40
0.0
 40
0.0
 40
0.1043287774114668
 40
0.2671235506127037
 40
0.4289624675973083
 40
0.5901562776631349
 40
0.7516515574834305
 40
0.9165177774494216
 40
1.0
 40
1.0
 40
1.0
 40
1.0
 10
44.72101050650888
 20
423.0059356823646
 30
0.0
 10
44.76847026676984
 20
422.9856406383375
 30
0.0
 10
44.87087519599057
 20
422.9413736095163
 30
0.0
 10
45.0180628533146
 20
422.8555291352182
 30
0.0
 10
45.14990413573872
 20
422.7576930657086
 30
0.0
 10
45.24711886217882
 20
422.6576632777269
 30
0.0
 10
45.30897701201516
 20
422.5605161168963
 30
0.0
 10
45.33408657616361
 20
422.481157514613
 30
0.0
 10
45.33646907123581
 20
422.4384843195788
 30
0.0
 10
45.33710969949979
 20
422.4216718324673
 30
0.0
  0
SPLINE
  5
219
330
72
100
AcDbEntity
  8
64647040_EINSATZ
  6
Continuous
 62
     7
100
AcDbSpline
210
0.0
220
0.0
230
1.0
 70
     8
 71
     3
 72
    13
 73
     9
 74
     0
 42
0.0000000131857376
 43
0.0000000001
 40
0.0
 40
0.0
 40
0.0
 40
0.0
 40
0.1134818904949189
 40
0.2955054927842667
 40
0.4682714941413971
 40
0.6515855463181204
 40
0.8313638668691999
 40
1.0
 40
1.0
 40
1.0
 40
1.0
 10
40.01614605635664
 20
422.4139761366802
 30
0.0
 10
40.01483994154212
 20
422.4346030760833
 30
0.0
 10
40.01280695574144
 20
422.4803980778078
 30
0.0
 10
40.0417566609908
 20
422.5622243292794
 30
0.0
 10
40.10335886103173
 20
422.6593916163222
 30
0.0
 10
40.20044170745779
 20
422.7585362928749
 30
0.0
 10
40.33361406024386
 20
422.858178800985
 30
0.0
 10
40.43664123271309
 20
422.9140806703411
 30
0.0
 10
40.49638662733433
 20
422.9460058290688
 30
0.0
  0
LINE
  5
21A
330
72
100
AcDbEntity
  8
64647040_EINSATZ
  6
Continuous
 62
     7
100
AcDbLine
 10
33.8259706071
 20
423.399212746
 30
0.0
 11
34.3242949059
 21
421.9813302408
 31
0.0
  0
LINE
  5
21B
330
72
100
AcDbEntity
  8
64647040_EINSATZ
  6
Continuous
 62
     7
100
AcDbLine
 10
51.0249244931
 20
421.9813302408
 30
0.0
 11
51.5232487919
 21
423.399212746
 31
0.0
  0
LINE
  5
21C
330
72
100
AcDbEntity
  8
64647040_EINSATZ
  6
Continuous
 62
     7
100
AcDbLine
 10
39.5759467301
 20
423.4716706063
 30
0.0
 11
39.8050158886
 21
422.324433724
 31
0.0
  0
LINE
  5
21D
330
72
100
AcDbEntity
  8
64647040_EINSATZ
  6
Continuous
 62
     7
100
AcDbLine
 10
45.5442035104
 20
422.324433724
 30
0.0
 11
45.7005615878
 21
423.1075149314
 31
0.0
  0
LINE
  5
21E
330
72
100
AcDbEntity
  8
64647040_EINSATZ
  6
Continuous
 62
     7
100
AcDbLine
 10
36.1868633538
 20
422.8044275561
 30
0.0
 11
36.3023005669
 21
422.2262884942
 31
0.0
  0
LINE
  5
21F
330
72
100
AcDbEntity
  8
64647040_EINSATZ
  6
Continuous
 62
     7
100
AcDbLine
 10
49.0469188321
 20
422.2262884942
 30
0.0
 11
49.1623560452
 21
422.8044275561
 31
0.0
  0
LINE
  5
220
330
72
100
AcDbEntity
  8
64647040_EINSATZ
  6
Continuous
 62
     7
100
AcDbLine
 10
37.9490774079
 20
422.8044275561
 30
0.0
 11
38.0330570482
 21
422.2992865424
 31
0.0
  0
LINE
  5
221
330
72
100
AcDbEntity
  8
64647040_EINSATZ
  6
Continuous
 62
     7
100
AcDbLine
 10
47.3161623508
 20
422.2992865424
 30
0.0
 11
47.4001419911
 21
422.8044275561
 31
0.0
  0
SPLINE
  5
222
330
72
100
AcDbEntity
  8
64647040_EINSATZ
  6
Continuous
 62
     7
100
AcDbSpline
210
0.0
220
0.0
230
1.0
 70
     8
 71
     3
 72
    21
 73
    17
 74
     0
 42
0.000000002188459
 43
0.0000000001
 40
0.0
 40
0.0
 40
0.0
 40
0.0
 40
0.0445148446350949
 40
0.1207276703425084
 40
0.1968862568680604
 40
0.2729813376795051
 40
0.3490032292247077
 40
0.4249428630871559
 40
0.5007939587211753
 40
0.5765572498520128
 40
0.6522482290956988
 40
0.7279104713305191
 40
0.8036001046039178
 40
0.8794573174664825
 40
0.9557176258264303
 40
1.0
 40
1.0
 40
1.0
 40
1.0
 10
47.76297707078275
 20
426.5081243391023
 30
0.0
 10
47.86534137113535
 20
426.4821620378026
 30
0.0
 10
48.10049123186913
 20
426.4221451123764
 30
0.0
 10
48.49721479927813
 20
426.3025635161321
 30
0.0
 10
48.9219134742857
 20
426.158912456729
 30
0.0
 10
49.32302405125134
 20
426.0041269808721
 30
0.0
 10
49.69501395285464
 20
425.8408650803976
 30
0.0
 10
50.03731032757636
 20
425.6694624108044
 30
0.0
 10
50.34820150812504
 20
425.4909602126025
 30
0.0
 10
50.62647860427474
 20
425.3063083547024
 30
0.0
 10
50.87110931557539
 20
425.1165047077648
 30
0.0
 10
51.08105996854402
 20
424.9227793953006
 30
0.0
 10
51.25645123760656
 20
424.7256363102915
 30
0.0
 10
51.39442132608263
 20
424.5281265415791
 30
0.0
 10
51.48899982130101
 20
424.3522396875381
 30
0.0
 10
51.52019447834416
 20
424.2542773507304
 30
0.0
 10
51.53333873456782
 20
424.2118883877296
 30
0.0
  0
SPLINE
  5
223
330
72
100
AcDbEntity
  8
64647040_EINSATZ
  6
Continuous
 62
     7
100
AcDbSpline
210
0.0
220
0.0
230
1.0
 70
     8
 71
     3
 72
    20
 73
    16
 74
     0
 42
0.0000000023957924
 43
0.0000000001
 40
0.0
 40
0.0
 40
0.0
 40
0.0
 40
0.0303004127707445
 40
0.1138808597892039
 40
0.1962712636222605
 40
0.2778059543468815
 40
0.3588555621450762
 40
0.4396891047618978
 40
0.5204687900158498
 40
0.6012618516189925
 40
0.6821171181952747
 40
0.7630547794903453
 40
0.8440780361897893
 40
0.9251818415083207
 40
1.0
 40
1.0
 40
1.0
 40
1.0
 10
33.81599001287353
 20
424.2122524694776
 30
0.0
 10
33.82358841986408
 20
424.2394359449963
 30
0.0
 10
33.84842591059636
 20
424.3266019505792
 30
0.0
 10
33.93351695430491
 20
424.4920127751433
 30
0.0
 10
34.06720856966179
 20
424.6932031202224
 30
0.0
 10
34.23912840899686
 20
424.8929310317359
 30
0.0
 10
34.4449686595817
 20
425.0882132845758
 30
0.0
 10
34.6851555102804
 20
425.2790839554975
 30
0.0
 10
34.95869229208245
 20
425.4645883113931
 30
0.0
 10
35.26477635222318
 20
425.643943569063
 30
0.0
 10
35.60199421878438
 20
425.8161551531699
 30
0.0
 10
35.96992437480844
 20
425.9807643292999
 30
0.0
 10
36.36371900690899
 20
426.1355081610679
 30
0.0
 10
36.78297534160673
 20
426.2811152579748
 30
0.0
 10
37.05136501109651
 20
426.360770280907
 30
0.0
 10
37.20449459988944
 20
426.4058134748043
 30
0.0
  0
LINE
  5
224
330
72
100
AcDbEntity
  8
64647040_EINSATZ
  6
Continuous
 62
     7
100
AcDbLine
 10
33.3246096995
 20
425.4247082663
 30
0.0
 11
33.3246096995
 21
423.8124476143
 31
0.0
  0
LINE
  5
225
330
72
100
AcDbEntity
  8
64647040_EINSATZ
  6
Continuous
 62
     7
100
AcDbLine
 10
52.0246096995
 20
423.8124476143
 30
0.0
 11
52.0246096995
 21
425.4247082663
 31
0.0
  0
SPLINE
  5
226
330
72
100
AcDbEntity
  8
64647040_EINSATZ
  6
Continuous
 62
     7
100
AcDbSpline
210
0.0
220
0.0
230
1.0
 70
     8
 71
     3
 72
    12
 73
     8
 74
     0
 42
0.0000000045394854
 43
0.0000000001
 40
0.5109110065613751
 40
0.5109110065613751
 40
0.5109110065613751
 40
0.5109110065613751
 40
0.5599328598344003
 40
0.6853306113128051
 40
0.8104060511005794
 40
0.9348427608099397
 40
0.9667280785850613
 40
0.9667280785850613
 40
0.9667280785850613
 40
0.9667280785850613
 10
51.19417508199682
 20
422.4502946367053
 30
0.0
 10
51.22387254614831
 20
422.4776315278244
 30
0.0
 10
51.32639555658793
 20
422.5755206541256
 30
0.0
 10
51.48333096165602
 20
422.7475812150467
 30
0.0
 10
51.64247200638655
 20
422.9670345685959
 30
0.0
 10
51.73801607488245
 20
423.1411926267145
 30
0.0
 10
51.77626776697896
 20
423.2321548218934
 30
0.0
 10
51.78401888966876
 20
423.251365859461
 30
0.0
  0
SPLINE
  5
227
330
72
100
AcDbEntity
  8
64647040_EINSATZ
  6
Continuous
 62
     7
100
AcDbSpline
210
0.0
220
0.0
230
1.0
 70
     8
 71
     3
 72
    12
 73
     8
 74
     0
 42
0.0000000045381432
 43
0.0000000001
 40
0.0334330131331763
 40
0.0334330131331763
 40
0.0334330131331763
 40
0.0334330131331763
 40
0.059777133726623
 40
0.1822501427555289
 40
0.3054973243782177
 40
0.4297123434762651
 40
0.4889819839403837
 40
0.4889819839403837
 40
0.4889819839403837
 40
0.4889819839403837
 10
33.56506297503024
 20
423.2513820522827
 30
0.0
 10
33.57142380624679
 20
423.2356015558497
 30
0.0
 10
33.60769430618983
 20
423.1488528068678
 30
0.0
 10
33.69864907118799
 20
422.9801860535292
 30
0.0
 10
33.85330453957426
 20
422.7633040620702
 30
0.0
 10
34.01176165799575
 20
422.5866763108711
 30
0.0
 10
34.11889818062076
 20
422.4835715399441
 30
0.0
 10
34.15479968302406
 20
422.4505195923007
 30
0.0
  0
LINE
  5
228
330
72
100
AcDbEntity
  8
64647040_EINSATZ
  6
Continuous
 62
     7
100
AcDbLine
 10
41.407587582
 20
421.9591148019
 30
0.0
 11
42.4176928837
 21
422.6145091547
 31
0.0
  0
LINE
  5
229
330
72
100
AcDbEntity
  8
64647040_EINSATZ
  6
Continuous
 62
     7
100
AcDbLine
 10
40.5198820284
 20
421.3831380142
 30
0.0
 11
40.784314176
 21
421.5547115482
 31
0.0
  0
LINE
  5
22A
330
72
100
AcDbEntity
  8
64647040_EINSATZ
  6
Continuous
 62
     7
100
AcDbLine
 10
39.6510452926
 20
420.819404026
 30
0.0
 11
39.8863270596
 21
420.9720636955
 31
0.0
  0
LINE
  5
22B
330
72
100
AcDbEntity
  8
64647040_EINSATZ
  6
Continuous
 62
     7
100
AcDbLine
 10
38.7384947623
 20
420.227306882
 30
0.0
 11
39.0100591032
 21
420.4035080515
 31
0.0
  0
LINE
  5
22C
330
72
100
AcDbEntity
  8
64647040_EINSATZ
  6
Continuous
 62
     7
100
AcDbLine
 10
40.1160553388
 20
422.5469671335
 30
0.0
 11
42.1433094275
 21
422.7504538455
 31
0.0
  0
LINE
  5
22D
330
72
100
AcDbEntity
  8
64647040_EINSATZ
  6
Continuous
 62
     7
100
AcDbLine
 10
38.4013524518
 20
422.3748529152
 30
0.0
 11
39.7675669799
 21
422.5119874283
 31
0.0
  0
LINE
  5
22E
330
72
100
AcDbEntity
  8
64647040_EINSATZ
  6
Continuous
 62
     7
100
AcDbLine
 10
36.7229784651
 20
422.2063852297
 30
0.0
 11
38.0267453731
 21
422.3372515296
 31
0.0
  0
LINE
  5
22F
330
72
100
AcDbEntity
  8
64647040_EINSATZ
  6
Continuous
 62
     7
100
AcDbLine
 10
34.960118472
 20
422.0294372162
 30
0.0
 11
36.3164975945
 21
422.1655844952
 31
0.0
  0
LINE
  5
230
330
72
100
AcDbEntity
  8
64647040_EINSATZ
  6
Continuous
 62
     7
100
AcDbLine
 10
41.0234412957
 20
423.1586076143
 30
0.0
 11
42.1589459554
 21
422.9130215549
 31
0.0
  0
LINE
  5
231
330
72
100
AcDbEntity
  8
64647040_EINSATZ
  6
Continuous
 62
     7
100
AcDbLine
 10
39.4068221708
 20
423.5082487337
 30
0.0
 11
40.0839386506
 21
423.3618025112
 31
0.0
  0
LINE
  5
232
330
72
100
AcDbEntity
  8
64647040_EINSATZ
  6
Continuous
 62
     7
100
AcDbLine
 10
37.3006022116
 20
423.9637803384
 30
0.0
 11
38.5609771546
 21
423.6911874319
 31
0.0
  0
LINE
  5
233
330
72
100
AcDbEntity
  8
64647040_EINSATZ
  6
Continuous
 62
     7
100
AcDbLine
 10
36.4668149331
 20
424.1441111986
 30
0.0
 11
37.0417920505
 21
424.0197555976
 31
0.0
  0
LINE
  5
234
330
72
100
AcDbEntity
  8
64647040_EINSATZ
  6
Continuous
 62
     7
100
AcDbLine
 10
42.2247333491
 20
423.3499895728
 30
0.0
 11
42.4289554381
 21
423.0644767098
 31
0.0
  0
LINE
  5
235
330
72
100
AcDbEntity
  8
64647040_EINSATZ
  6
Continuous
 62
     7
100
AcDbLine
 10
41.7639783311
 20
423.9941485124
 30
0.0
 11
41.8151569036
 21
423.9225982662
 31
0.0
  0
LINE
  5
236
330
72
100
AcDbEntity
  8
64647040_EINSATZ
  6
Continuous
 62
     7
100
AcDbLine
 10
40.8992812542
 20
425.2030389867
 30
0.0
 11
40.9058413366
 21
425.193867658
 31
0.0
  0
LINE
  5
237
330
72
100
AcDbEntity
  8
64647040_EINSATZ
  6
Continuous
 62
     7
100
AcDbLine
 10
43.0263010233
 20
423.0093970314
 30
0.0
 11
43.4997157898
 21
423.3165663573
 31
0.0
  0
LINE
  5
238
330
72
100
AcDbEntity
  8
64647040_EINSATZ
  6
Continuous
 62
     7
100
AcDbLine
 10
44.2197137048
 20
423.7837281143
 30
0.0
 11
44.4004289383
 21
423.9009829622
 31
0.0
  0
LINE
  5
239
330
72
100
AcDbEntity
  8
64647040_EINSATZ
  6
Continuous
 62
     7
100
AcDbLine
 10
45.9762136573
 20
424.9234114203
 30
0.0
 11
46.0777598828
 21
424.989298435
 31
0.0
  0
LINE
  5
23A
330
72
100
AcDbEntity
  8
64647040_EINSATZ
  6
Continuous
 62
     7
100
AcDbLine
 10
43.2315393117
 20
422.8596855015
 30
0.0
 11
44.7287648092
 21
423.0099703106
 31
0.0
  0
LINE
  5
23B
330
72
100
AcDbEntity
  8
64647040_EINSATZ
  6
Continuous
 62
     7
100
AcDbLine
 10
45.5470268111
 20
423.0921037961
 30
0.0
 11
46.5385444046
 21
423.1916279042
 31
0.0
  0
LINE
  5
23C
330
72
100
AcDbEntity
  8
64647040_EINSATZ
  6
Continuous
 62
     7
100
AcDbLine
 10
47.2458511702
 20
423.2626241987
 30
0.0
 11
48.2599050507
 21
423.3644103986
 31
0.0
  0
LINE
  5
23D
330
72
100
AcDbEntity
  8
64647040_EINSATZ
  6
Continuous
 62
     7
100
AcDbLine
 10
48.9400602408
 20
423.4326813392
 30
0.0
 11
49.8718934721
 21
423.5262145975
 31
0.0
  0
LINE
  5
23E
330
72
100
AcDbEntity
  8
64647040_EINSATZ
  6
Continuous
 62
     7
100
AcDbLine
 10
43.1371852681
 20
422.7014487218
 30
0.0
 11
44.9534269944
 21
422.3086333824
 31
0.0
  0
LINE
  5
23F
330
72
100
AcDbEntity
  8
64647040_EINSATZ
  6
Continuous
 62
     7
100
AcDbLine
 10
45.4935707837
 20
422.1918115063
 30
0.0
 11
46.4908125772
 21
421.9761288315
 31
0.0
  0
LINE
  5
240
330
72
100
AcDbEntity
  8
64647040_EINSATZ
  6
Continuous
 62
     7
100
AcDbLine
 10
47.0893018284
 20
421.8466880445
 30
0.0
 11
47.9956121016
 21
421.6506719678
 31
0.0
  0
LINE
  5
241
330
72
100
AcDbEntity
  8
64647040_EINSATZ
  6
Continuous
 62
     7
100
AcDbLine
 10
48.6228679812
 20
421.5150095569
 30
0.0
 11
49.5761552951
 21
421.3088333226
 31
0.0
  0
LINE
  5
242
330
72
100
AcDbEntity
  8
64647040_EINSATZ
  6
Continuous
 62
     7
100
AcDbLine
 10
42.7711768312
 20
422.5860338038
 30
0.0
 11
43.2715879839
 21
421.8864335717
 31
0.0
  0
LINE
  5
243
330
72
100
AcDbEntity
  8
64647040_EINSATZ
  6
Continuous
 62
     7
100
AcDbLine
 10
43.65217828
 20
421.3543489888
 30
0.0
 11
43.7311669012
 21
421.2439188806
 31
0.0
  0
LINE
  5
244
330
72
100
AcDbEntity
  8
64647040_EINSATZ
  6
Continuous
 62
     7
100
AcDbLine
 10
44.1122554527
 20
420.7111377113
 30
0.0
 11
44.180938871
 21
420.6151148007
 31
0.0
  0
LINE
  5
245
330
72
100
AcDbEntity
  8
64647040_EINSATZ
  6
Continuous
 62
     7
100
AcDbLine
 10
44.5631952119
 20
420.0807010023
 30
0.0
 11
44.6533266663
 21
419.9546926469
 31
0.0
  0
LINE
  5
246
330
72
100
AcDbEntity
  8
64647040_EINSATZ
  6
Continuous
 62
     7
100
AcDbLine
 10
41.1682783699
 20
420.6151117835
 30
0.0
 11
41.2369639463
 21
420.7111377113
 31
0.0
  0
LINE
  5
247
330
72
100
AcDbEntity
  8
64647040_EINSATZ
  6
Continuous
 62
     7
100
AcDbLine
 10
40.6958910673
 20
419.9546903185
 30
0.0
 11
40.7860241871
 21
420.0807010023
 31
0.0
  0
LINE
  5
248
330
72
100
AcDbEntity
  8
64647040_EINSATZ
  6
Continuous
 62
     7
100
AcDbLine
 10
38.3510974839
 20
421.1763617348
 30
0.0
 11
38.871754682
 21
421.3714033542
 31
0.0
  0
LINE
  5
249
330
72
100
AcDbEntity
  8
64647040_EINSATZ
  6
Continuous
 62
     7
100
AcDbLine
 10
37.060579268
 20
420.6929251023
 30
0.0
 11
37.6255269847
 21
420.9045582419
 31
0.0
  0
LINE
  5
24A
330
72
100
AcDbEntity
  8
64647040_EINSATZ
  6
Continuous
 62
     7
100
AcDbLine
 10
37.3536005818
 20
421.6506705153
 30
0.0
 11
38.2582442767
 21
421.8463261458
 31
0.0
  0
LINE
  5
24B
330
72
100
AcDbEntity
  8
64647040_EINSATZ
  6
Continuous
 62
     7
100
AcDbLine
 10
35.7730589183
 20
421.308832201
 30
0.0
 11
36.7248091016
 21
421.514675986
 31
0.0
  0
LINE
  5
24C
330
72
100
AcDbEntity
  8
64647040_EINSATZ
  6
Continuous
 62
     7
100
AcDbLine
 10
36.6017957215
 20
422.8044275561
 30
0.0
 11
37.9554658723
 21
422.8044275561
 31
0.0
  0
LINE
  5
24D
330
72
100
AcDbEntity
  8
64647040_EINSATZ
  6
Continuous
 62
     7
100
AcDbLine
 10
34.9025702211
 20
422.8044275561
 30
0.0
 11
36.2014126048
 21
422.8044275561
 31
0.0
  0
LINE
  5
24E
330
72
100
AcDbEntity
  8
64647040_EINSATZ
  6
Continuous
 62
     7
100
AcDbLine
 10
37.0894390854
 20
423.3643978781
 30
0.0
 11
38.103447115
 21
423.2626162804
 31
0.0
  0
LINE
  5
24F
330
72
100
AcDbEntity
  8
64647040_EINSATZ
  6
Continuous
 62
     7
100
AcDbLine
 10
35.4773259269
 20
423.5262145975
 30
0.0
 11
36.4091251593
 21
423.4326847518
 31
0.0
  0
LINE
  5
250
330
72
100
AcDbEntity
  8
64647040_EINSATZ
  6
Continuous
 62
     7
100
AcDbLine
 10
38.2657769621
 20
424.4475557302
 30
0.0
 11
39.2944679983
 21
424.0622012855
 31
0.0
  0
LINE
  5
251
330
72
100
AcDbEntity
  8
64647040_EINSATZ
  6
Continuous
 62
     7
100
AcDbLine
 10
37.7644971912
 20
424.6353384376
 30
0.0
 11
38.0539389737
 21
424.5269116374
 31
0.0
  0
LINE
  5
252
330
72
100
AcDbEntity
  8
64647040_EINSATZ
  6
Continuous
 62
     7
100
AcDbLine
 10
39.2714595162
 20
424.989298435
 30
0.0
 11
39.3730784175
 21
424.9233642656
 31
0.0
  0
LINE
  5
253
330
72
100
AcDbEntity
  8
64647040_EINSATZ
  6
Continuous
 62
     7
100
AcDbLine
 10
44.4434161124
 20
425.1939208538
 30
0.0
 11
44.4499381448
 21
425.2030389867
 31
0.0
  0
LINE
  5
254
330
72
100
AcDbEntity
  8
64647040_EINSATZ
  6
Continuous
 62
     7
100
AcDbLine
 10
46.0548382235
 20
424.0622338099
 30
0.0
 11
47.0834383563
 21
424.4475542016
 31
0.0
  0
LINE
  5
255
330
72
100
AcDbEntity
  8
64647040_EINSATZ
  6
Continuous
 62
     7
100
AcDbLine
 10
47.2952437476
 20
424.5268978977
 30
0.0
 11
47.5847222078
 21
424.6353384376
 31
0.0
  0
LINE
  5
256
330
72
100
AcDbEntity
  8
64647040_EINSATZ
  6
Continuous
 62
     7
100
AcDbLine
 10
46.7882457051
 20
423.6911881804
 30
0.0
 11
48.0486104717
 21
423.963778886
 31
0.0
  0
LINE
  5
257
330
72
100
AcDbEntity
  8
64647040_EINSATZ
  6
Continuous
 62
     7
100
AcDbLine
 10
48.3072744089
 20
424.0197225199
 30
0.0
 11
48.8824044659
 21
424.1441111986
 31
0.0
  0
LINE
  5
258
330
72
100
AcDbEntity
  8
64647040_EINSATZ
  6
Continuous
 62
     7
100
AcDbLine
 10
47.3938544306
 20
422.8044275561
 30
0.0
 11
48.7539638401
 21
422.8044275561
 31
0.0
  0
LINE
  5
259
330
72
100
AcDbEntity
  8
64647040_EINSATZ
  6
Continuous
 62
     7
100
AcDbLine
 10
49.1478171744
 20
422.8044275561
 30
0.0
 11
50.4466491779
 21
422.8044275561
 31
0.0
  0
LINE
  5
25A
330
72
100
AcDbEntity
  8
64647040_EINSATZ
  6
Continuous
 62
     7
100
AcDbLine
 10
47.3224740259
 20
422.3372515296
 30
0.0
 11
48.6262429639
 21
422.206385026
 31
0.0
  0
LINE
  5
25B
330
72
100
AcDbEntity
  8
64647040_EINSATZ
  6
Continuous
 62
     7
100
AcDbLine
 10
49.0327218045
 20
422.1655844952
 30
0.0
 11
50.3891024923
 21
422.0294370591
 31
0.0
  0
LINE
  5
25C
330
72
100
AcDbEntity
  8
64647040_EINSATZ
  6
Continuous
 62
     7
100
AcDbLine
 10
46.4753260829
 20
421.3722045006
 30
0.0
 11
46.9981178345
 21
421.1763632635
 31
0.0
  0
LINE
  5
25D
330
72
100
AcDbEntity
  8
64647040_EINSATZ
  6
Continuous
 62
     7
100
AcDbLine
 10
47.7219227602
 20
420.905221166
 30
0.0
 11
48.2886369819
 21
420.6929262819
 31
0.0
  0
LINE
  5
25E
330
72
100
AcDbEntity
  8
64647040_EINSATZ
  6
Continuous
 62
     7
100
AcDbLine
 10
45.4647767236
 20
420.970841036
 30
0.0
 11
45.6981765288
 21
420.8194024543
 31
0.0
  0
LINE
  5
25F
330
72
100
AcDbEntity
  8
64647040_EINSATZ
  6
Continuous
 62
     7
100
AcDbLine
 10
46.3389842609
 20
420.4036222696
 30
0.0
 11
46.610726506
 21
420.2273056692
 31
0.0
  0
ARC
  5
261
330
72
100
AcDbEntity
  8
$DDT_AUDIT_GENERATED_(260)
  6
Continuous
 62
     7
100
AcDbCircle
 10
42.6746096995
 20
436.2467833016
 30
0.0
 40
20.5
100
AcDbArc
 50
24.189514154
 51
30.4619513078
  0
ARC
  5
262
330
72
100
AcDbEntity
  8
$DDT_AUDIT_GENERATED_(260)
  6
Continuous
 62
     7
100
AcDbCircle
 10
42.6746096995
 20
436.2467833016
 30
0.0
 40
20.5
100
AcDbArc
 50
149.5380486922
 51
155.810485846
  0
ENDBLK
  5
264
330
72
100
AcDbEntity
  8
0
100
AcDbBlockEnd
  0
BLOCK
  5
2D7
330
265
100
AcDbEntity
  8
0
100
AcDbBlockBegin
  2
SE1
 70
     0
 10
0.0
 20
0.0
 30
0.0
  3
SE1
  1

  0
LINE
  5
267
330
265
100
AcDbEntity
  8
$DDT_AUDIT_GENERATED_(74)
  6
Continuous
 62
     7
100
AcDbLine
 10
194.5819518825
 20
420.6467833016
 30
0.0
 11
194.5819518825
 21
337.6467833016
 31
0.0
  0
SPLINE
  5
268
330
265
100
AcDbEntity
  8
$DDT_AUDIT_GENERATED_(74)
  6
Continuous
 62
     7
100
AcDbSpline
210
0.0
220
0.0
230
1.0
 70
    12
 71
     3
 72
     8
 73
     4
 74
     0
 42
0.0000000011380171
 43
0.0000000001
 40
0.0
 40
0.0
 40
0.0
 40
0.0
 40
1.0
 40
1.0
 40
1.0
 40
1.0
 10
194.5819518825475
 20
420.6467833015511
 30
0.0
 41
1.0
 10
194.5817142672558
 20
423.5758546778691
 30
0.0
 41
0.8047110762465908
 10
196.6528805062296
 20
425.6470209168481
 30
0.0
 41
0.8047110762465908
 10
199.5819518825475
 20
425.6467833015511
 30
0.0
 41
1.0
  0
LINE
  5
269
330
265
100
AcDbEntity
  8
$DDT_AUDIT_GENERATED_(74)
  6
Continuous
 62
     7
100
AcDbLine
 10
199.5819518825
 20
425.6467833016
 30
0.0
 11
255.8094752466
 21
425.6467833016
 31
0.0
  0
LINE
  5
26A
330
265
100
AcDbEntity
  8
$DDT_AUDIT_GENERATED_(74)
  6
Continuous
 62
     7
100
AcDbLine
 10
282.5819518825
 20
444.6467833016
 30
0.0
 11
152.0819518825
 21
444.6467833016
 31
0.0
  0
LINE
  5
26B
330
265
100
AcDbEntity
  8
$DDT_AUDIT_GENERATED_(74)
  6
Continuous
 62
     7
100
AcDbLine
 10
151.5819518825
 20
337.6467833016
 30
0.0
 11
151.5819518825
 21
444.1467833016
 31
0.0
  0
ARC
  5
26C
330
265
100
AcDbEntity
  8
$DDT_AUDIT_GENERATED_(74)
  6
Continuous
 62
     7
100
AcDbCircle
 10
255.8094752466
 20
426.1467833016
 30
0.0
 40
0.5000000000047189
100
AcDbArc
 50
270.0000000068
 51
285.0000000068
  0
ARC
  5
26D
330
265
100
AcDbEntity
  8
$DDT_AUDIT_GENERATED_(74)
  6
Continuous
 62
     7
100
AcDbCircle
 10
282.5819518825
 20
444.1467833016
 30
0.0
 40
0.4999999999999727
100
AcDbArc
 50
0.0
 51
90.0
  0
ARC
  5
26E
330
265
100
AcDbEntity
  8
$DDT_AUDIT_GENERATED_(74)
  6
Continuous
 62
     7
100
AcDbCircle
 10
152.0819518825
 20
444.1467833016
 30
0.0
 40
0.5000000000000386
100
AcDbArc
 50
90.0
 51
180.0
  0
LINE
  5
26F
330
265
100
AcDbEntity
  8
$DDT_AUDIT_GENERATED_(74)
  6
Continuous
 62
     7
100
AcDbLine
 10
283.0819518825
 20
433.3204467955
 30
0.0
 11
283.0819518825
 21
444.1467833016
 31
0.0
  0
LINE
  5
270
330
265
100
AcDbEntity
  8
$DDT_AUDIT_GENERATED_(74)
  6
Continuous
 62
     7
100
AcDbLine
 10
282.7113614051
 20
432.8374838824
 30
0.0
 11
255.9388847692
 21
425.6638203884
 31
0.0
  0
ARC
  5
271
330
265
100
AcDbEntity
  8
$DDT_AUDIT_GENERATED_(74)
  6
Continuous
 62
     7
100
AcDbCircle
 10
282.5819518825
 20
433.3204467955
 30
0.0
 40
0.5000000000000022
100
AcDbArc
 50
285.0
 51
0.0
  0
LINE
  5
272
330
265
100
AcDbEntity
  8
$DDT_AUDIT_GENERATED_(87)
  6
Continuous
 62
     7
100
AcDbLine
 10
194.015321922
 20
446.6395876288
 30
0.0
 11
174.4055563402
 21
446.6395876288
 31
0.0
  0
LINE
  5
273
330
265
100
AcDbEntity
  8
$DDT_AUDIT_GENERATED_(87)
  6
Continuous
 62
     7
100
AcDbLine
 10
194.2643705965
 20
446.6395876288
 30
0.0
 11
194.015321922
 21
446.6395876288
 31
0.0
  0
LINE
  5
274
330
265
100
AcDbEntity
  8
$DDT_AUDIT_GENERATED_(87)
  6
Continuous
 62
     7
100
AcDbLine
 10
252.7409269403
 20
482.3630546915
 30
0.0
 11
194.939082697
 21
475.2658806268
 31
0.0
  0
LINE
  5
275
330
265
100
AcDbEntity
  8
$DDT_AUDIT_GENERATED_(87)
  6
Continuous
 62
     7
100
AcDbLine
 10
154.3558581357
 20
474.3129265208
 30
0.0
 11
252.2534495667
 21
486.3332392981
 31
0.0
  0
ARC
  5
276
330
265
100
AcDbEntity
  8
$DDT_AUDIT_GENERATED_(87)
  6
Continuous
 62
     7
100
AcDbCircle
 10
195.3046907272
 20
472.2882421718
 30
0.0
 40
2.999999999999774
100
AcDbArc
 50
97.0
 51
185.0
  0
LINE
  5
277
330
265
100
AcDbEntity
  8
$DDT_AUDIT_GENERATED_(87)
  6
Continuous
 62
     7
100
AcDbLine
 10
252.8106573142
 20
485.897900894
 30
0.0
 11
253.1762653444
 21
482.9202624391
 31
0.0
  0
ARC
  5
278
330
265
100
AcDbEntity
  8
$DDT_AUDIT_GENERATED_(87)
  6
Continuous
 62
     7
100
AcDbCircle
 10
252.6799922686
 20
482.8593277674
 30
0.0
 40
0.4999999999993919
100
AcDbArc
 50
276.9999999998
 51
7.0000000001
  0
ARC
  5
279
330
265
100
AcDbEntity
  8
$DDT_AUDIT_GENERATED_(87)
  6
Continuous
 62
     7
100
AcDbCircle
 10
154.4167928074
 20
473.816653445
 30
0.0
 40
0.50000000000059
100
AcDbArc
 50
97.0000000001
 51
175.0
  0
LINE
  5
27A
330
265
100
AcDbEntity
  8
$DDT_AUDIT_GENERATED_(87)
  6
Continuous
 62
     7
100
AcDbLine
 10
194.5134192711
 20
446.9113765645
 30
0.0
 11
192.316106633
 21
472.0267749436
 31
0.0
  0
ARC
  5
27B
330
265
100
AcDbEntity
  8
$DDT_AUDIT_GENERATED_(87)
  6
Continuous
 62
     7
100
AcDbCircle
 10
252.3143842384
 20
485.8369662223
 30
0.0
 40
0.4999999999956351
100
AcDbArc
 50
6.9999999994
 51
97.0000000006
  0
ARC
  5
27C
330
265
100
AcDbEntity
  8
$DDT_AUDIT_GENERATED_(87)
  6
Continuous
 62
     7
100
AcDbCircle
 10
194.2643705965
 20
446.8895876288
 30
0.0
 40
0.2500000000001204
100
AcDbArc
 50
333.5871045777
 51
5.0
  0
ARC
  5
27D
330
265
100
AcDbEntity
  8
$DDT_AUDIT_GENERATED_(87)
  6
Continuous
 62
     7
100
AcDbCircle
 10
194.2643705965
 20
446.8895876288
 30
0.0
 40
0.2500000000001204
100
AcDbArc
 50
270.0
 51
293.5976854978
  0
LINE
  5
27E
330
265
100
AcDbEntity
  8
$DDT_AUDIT_GENERATED_(87)
  6
Continuous
 62
     7
100
AcDbLine
 10
152.8640053726
 20
457.1179535588
 30
0.0
 11
152.6251489575
 21
457.2344516165
 31
0.0
  0
LINE
  5
27F
330
265
100
AcDbEntity
  8
$DDT_AUDIT_GENERATED_(87)
  6
Continuous
 62
     7
100
AcDbLine
 10
174.2959635535
 20
446.6648891172
 30
0.0
 11
152.8640053726
 21
457.1179535588
 31
0.0
  0
LINE
  5
280
330
265
100
AcDbEntity
  8
$DDT_AUDIT_GENERATED_(87)
  6
Continuous
 62
     7
100
AcDbLine
 10
152.4856930697
 20
457.4809390637
 30
0.0
 11
153.9186954583
 21
473.8602313164
 31
0.0
  0
ARC
  5
281
330
265
100
AcDbEntity
  8
$DDT_AUDIT_GENERATED_(87)
  6
Continuous
 62
     7
100
AcDbCircle
 10
152.7347417442
 20
457.4591501281
 30
0.0
 40
0.2499999999999011
100
AcDbArc
 50
175.0
 51
244.0
  0
ARC
  5
282
330
265
100
AcDbEntity
  8
$DDT_AUDIT_GENERATED_(87)
  6
Continuous
 62
     7
100
AcDbCircle
 10
174.4055563402
 20
446.8895876288
 30
0.0
 40
0.2499999999942409
100
AcDbArc
 50
244.0000000001
 51
270.0
  0
ARC
  5
283
330
265
100
AcDbEntity
  8
$DDT_AUDIT_GENERATED_(87)
  6
Continuous
 62
     7
100
AcDbCircle
 10
194.2723871563
 20
446.8760271035
 30
0.0
 40
0.2344190746227764
100
AcDbArc
 50
291.8378165158
 51
9.610439349
  0
LINE
  5
284
330
265
100
AcDbEntity
  8
$DDT_AUDIT_GENERATED_(AE)
  6
Continuous
 62
     7
100
AcDbLine
 10
147.5819518825
 20
337.6467833016
 30
0.0
 11
148.6819518825
 21
337.6467833016
 31
0.0
  0
LINE
  5
285
330
265
100
AcDbEntity
  8
$DDT_AUDIT_GENERATED_(AE)
  6
Continuous
 62
     7
100
AcDbLine
 10
148.6819518825
 20
337.6467833016
 30
0.0
 11
197.4819518825
 21
337.6467833016
 31
0.0
  0
LINE
  5
286
330
265
100
AcDbEntity
  8
$DDT_AUDIT_GENERATED_(AE)
  6
Continuous
 62
     7
100
AcDbLine
 10
197.4819518825
 20
337.6467833016
 30
0.0
 11
198.5819518825
 21
337.6467833016
 31
0.0
  0
LINE
  5
287
330
265
100
AcDbEntity
  8
$DDT_AUDIT_GENERATED_(AE)
  6
Continuous
 62
     7
100
AcDbLine
 10
199.0819518825
 20
337.1467833016
 30
0.0
 11
199.0819518825
 21
329.6467833016
 31
0.0
  0
LINE
  5
288
330
265
100
AcDbEntity
  8
$DDT_AUDIT_GENERATED_(AE)
  6
Continuous
 62
     7
100
AcDbLine
 10
147.0819518825
 20
337.1467833016
 30
0.0
 11
147.0819518825
 21
329.6467833016
 31
0.0
  0
ARC
  5
289
330
265
100
AcDbEntity
  8
$DDT_AUDIT_GENERATED_(AE)
  6
Continuous
 62
     7
100
AcDbCircle
 10
147.5819518825
 20
337.1467833016
 30
0.0
 40
0.5000000000000004
100
AcDbArc
 50
90.0
 51
180.0
  0
ARC
  5
28A
330
265
100
AcDbEntity
  8
$DDT_AUDIT_GENERATED_(AE)
  6
Continuous
 62
     7
100
AcDbCircle
 10
198.5819518825
 20
337.1467833016
 30
0.0
 40
0.5000000000000004
100
AcDbArc
 50
0.0
 51
90.0
  0
LINE
  5
28B
330
265
100
AcDbEntity
  8
$DDT_AUDIT_GENERATED_(AE)
  6
Continuous
 62
     7
100
AcDbLine
 10
199.0819518825
 20
329.6467833016
 30
0.0
 11
197.4819518825
 21
329.6467833016
 31
0.0
  0
LINE
  5
28C
330
265
100
AcDbEntity
  8
$DDT_AUDIT_GENERATED_(AE)
  6
Continuous
 62
     7
100
AcDbLine
 10
197.4819518825
 20
329.6467833016
 30
0.0
 11
148.6819518825
 21
329.6467833016
 31
0.0
  0
LINE
  5
28D
330
265
100
AcDbEntity
  8
$DDT_AUDIT_GENERATED_(AE)
  6
Continuous
 62
     7
100
AcDbLine
 10
148.6819518825
 20
329.6467833016
 30
0.0
 11
147.0819518825
 21
329.6467833016
 31
0.0
  0
LINE
  5
28E
330
265
100
AcDbEntity
  8
02636038_GEH_USE
  6
Continuous
 62
     7
100
AcDbLine
 10
261.0035217503
 20
420.0172226987
 30
0.0
 11
280.9379746235
 21
428.0712644572
 31
0.0
  0
SPLINE
  5
28F
330
265
100
AcDbEntity
  8
02636038_GEH_USE
  6
Continuous
 62
     7
100
AcDbSpline
210
0.0
220
0.0
230
1.0
 70
     8
 71
     3
 72
    10
 73
     6
 74
     0
 42
0.0000000019260148
 43
0.0000000001
 40
0.0
 40
0.0
 40
0.0
 40
0.0
 40
0.5
 40
0.5
 40
1.0
 40
1.0
 40
1.0
 40
1.0
 10
273.2499588385385
 20
425.3075852336202
 30
0.0
 10
272.4931233629099
 20
424.8788975959646
 30
0.0
 10
271.7158630185521
 20
424.5009516861134
 30
0.0
 10
270.1170793182587
 20
423.855022956752
 30
0.0
 10
269.2955565585484
 20
423.5870386560331
 30
0.0
 10
268.4536303960178
 20
423.369742755123
 30
0.0
  0
LINE
  5
290
330
265
100
AcDbEntity
  8
02636038_GEH_USE
  6
Continuous
 62
     7
100
AcDbLine
 10
273.8067742344
 20
428.4256767063
 30
0.0
 11
265.887082579
 21
425.225913577
 31
0.0
  0
LINE
  5
291
330
265
100
AcDbEntity
  8
02636038_GEH_USE
  6
Continuous
 62
     7
100
AcDbLine
 10
273.8067742344
 20
428.4256767063
 30
0.0
 11
274.4872216186
 21
426.7415103311
 31
0.0
  0
SPLINE
  5
292
330
265
100
AcDbEntity
  8
02636038_GEH_USE
  6
Continuous
 62
     7
100
AcDbSpline
210
0.0
220
0.0
230
1.0
 70
     8
 71
     3
 72
    14
 73
    10
 74
     0
 42
0.0000000049320844
 43
0.0000000001
 40
0.0
 40
0.0
 40
0.0
 40
0.0
 40
0.1249999999999997
 40
0.1249999999999997
 40
0.2499999999999994
 40
0.2499999999999994
 40
0.4999999999999996
 40
0.4999999999999996
 40
1.0
 40
1.0
 40
1.0
 40
1.0
 10
274.4872216186469
 20
426.7415103310565
 30
0.0
 10
274.5188478518328
 20
426.6632326570748
 30
0.0
 10
274.5204983820118
 20
426.5732571656208
 30
0.0
 10
274.4837932068187
 20
426.4083173854752
 30
0.0
 10
274.4473544406284
 20
426.3299394812036
 30
0.0
 10
274.3163507108747
 20
426.1140306659582
 30
0.0
 10
274.1984644750263
 20
425.9894047782079
 30
0.0
 10
273.8261434228261
 20
425.654164822129
 30
0.0
 10
273.5406298408263
 20
425.4722274436093
 30
0.0
 10
273.2499588385385
 20
425.3075852336202
 30
0.0
  0
SPLINE
  5
293
330
265
100
AcDbEntity
  8
02636038_GEH_USE
  6
Continuous
 62
     7
100
AcDbSpline
210
0.0
220
0.0
230
1.0
 70
     8
 71
     3
 72
    14
 73
    10
 74
     0
 42
0.0000000049319876
 43
0.0000000001
 40
0.0
 40
0.0
 40
0.0
 40
0.0
 40
0.4999999999999996
 40
0.4999999999999996
 40
0.7499999999999993
 40
0.7499999999999993
 40
0.8749999999999997
 40
0.8749999999999997
 40
1.0
 40
1.0
 40
1.0
 40
1.0
 10
268.4536303960178
 20
423.369742755123
 30
0.0
 10
268.1287811351126
 20
423.2859011833203
 30
0.0
 10
267.7996588406638
 20
423.2187895052481
 30
0.0
 10
267.2964178277645
 20
423.2012976262392
 30
0.0
 10
267.12647033454
 20
423.2092257796535
 30
0.0
 10
266.8837735807871
 20
423.2728496110377
 30
0.0
 10
266.802658127198
 20
423.3038219574241
 30
0.0
 10
266.6608297693465
 20
423.3971954855006
 30
0.0
 10
266.5993061523622
 20
423.4630983738567
 30
0.0
 10
266.5675299632629
 20
423.541747201754
 30
0.0
  0
LINE
  5
294
330
265
100
AcDbEntity
  8
02636038_GEH_USE
  6
Continuous
 62
     7
100
AcDbLine
 10
266.5675299633
 20
423.5417472018
 30
0.0
 11
265.887082579
 21
425.225913577
 31
0.0
  0
LINE
  5
295
330
265
100
AcDbEntity
  8
02636038_GEH_USE
  6
Continuous
 62
     7
100
AcDbLine
 10
260.3746170607
 20
420.1056094888
 30
0.0
 11
261.0035217503
 21
420.0172226987
 31
0.0
  0
LINE
  5
296
330
265
100
AcDbEntity
  8
02636038_GEH_USE
  6
Continuous
 62
     7
100
AcDbLine
 10
280.9379746235
 20
428.0712644572
 30
0.0
 11
281.3289721739
 21
428.5717185
 31
0.0
  0
ARC
  5
297
330
265
100
AcDbEntity
  8
02636038_GEH_USE
  6
Continuous
 62
     7
100
AcDbCircle
 10
280.5409614203
 20
429.1873799753
 30
0.0
 40
1.000000000000005
100
AcDbArc
 50
322.0
 51
22.0
  0
ARC
  5
298
330
265
100
AcDbEntity
  8
02636038_GEH_USE
  6
Continuous
 62
     7
100
AcDbCircle
 10
260.5137901616
 20
421.0958775575
 30
0.0
 40
1.0
100
AcDbArc
 50
202.0
 51
262.0
  0
LINE
  5
299
330
265
100
AcDbEntity
  8
02636038_GEH_USE
  6
Continuous
 62
     7
100
AcDbLine
 10
257.4284307069
 20
426.0629430195
 30
0.0
 11
259.5866063071
 21
420.7212709641
 31
0.0
  0
LINE
  5
29A
330
265
100
AcDbEntity
  8
02636038_GEH_USE
  6
Continuous
 62
     7
100
AcDbLine
 10
281.4681452748
 20
429.5619865687
 30
0.0
 11
280.3954730582
 21
432.2169434701
 31
0.0
  0
LINE
  5
29B
330
265
100
AcDbEntity
  8
64647040_EINSATZ
  6
Continuous
 62
     7
100
AcDbLine
 10
279.3846327168
 20
425.4483843152
 30
0.0
 11
263.9429080527
 21
419.2095225788
 31
0.0
  0
LINE
  5
29C
330
265
100
AcDbEntity
  8
64647040_EINSATZ
  6
Continuous
 62
     7
100
AcDbLine
 10
262.6040801012
 20
420.2864030885
 30
0.0
 11
262.5254098399
 21
420.2546182398
 31
0.0
  0
SPLINE
  5
29D
330
265
100
AcDbEntity
  8
64647040_EINSATZ
  6
Continuous
 62
     7
100
AcDbSpline
210
0.0
220
0.0
230
1.0
 70
     8
 71
     3
 72
    20
 73
    16
 74
     0
 42
0.0000000631015441
 43
0.0000000001
 40
0.0
 40
0.0
 40
0.0
 40
0.0
 40
0.2125265405902705
 40
0.2125265405902705
 40
0.2125265405902705
 40
0.4250001490954964
 40
0.4250001490954964
 40
0.4250001490954964
 40
0.638312117778163
 40
0.638312117778163
 40
0.638312117778163
 40
0.8534671345903798
 40
0.8534671345903798
 40
0.8534671345903798
 40
1.0
 40
1.0
 40
1.0
 40
1.0
 10
262.473051999901
 20
420.3413177735512
 30
0.0
 10
262.4772166796105
 20
420.3310098295532
 30
0.0
 10
262.4832234507213
 20
420.3212808572945
 30
0.0
 10
262.4905690915634
 20
420.3129358092319
 30
0.0
 10
262.497913713653
 20
420.3045919185274
 30
0.0
 10
262.5067973961281
 20
420.2974018046261
 30
0.0
 10
262.5164820241454
 20
420.2919454353303
 30
0.0
 10
262.5262053648423
 20
420.2864672551115
 30
0.0
 10
262.5370004697844
 20
420.2825860015333
 30
0.0
 10
262.5479831554201
 20
420.2806024620089
 30
0.0
 10
262.5590597690181
 20
420.2786019585258
 30
0.0
 10
262.5706291316787
 20
420.278476285913
 30
0.0
 10
262.5817484778789
 20
420.2802237191928
 30
0.0
 10
262.589378434585
 20
420.2814227861193
 30
0.0
 10
262.5969189037876
 20
420.2835097769658
 30
0.0
 10
262.604080101239
 20
420.286403088545
 30
0.0
  0
LINE
  5
29E
330
265
100
AcDbEntity
  8
64647040_EINSATZ
  6
Continuous
 62
     7
100
AcDbLine
 10
262.4730519999
 20
420.3413177736
 30
0.0
 11
262.3794003515
 21
420.5731137372
 31
0.0
  0
LINE
  5
29F
330
265
100
AcDbEntity
  8
64647040_EINSATZ
  6
Continuous
 62
     7
100
AcDbLine
 10
262.7210659433
 20
420.3336684368
 30
0.0
 11
262.6040801012
 21
420.2864030885
 31
0.0
  0
SPLINE
  5
2A0
330
265
100
AcDbEntity
  8
64647040_EINSATZ
  6
Continuous
 62
     7
100
AcDbSpline
210
0.0
220
0.0
230
1.0
 70
     8
 71
     3
 72
    20
 73
    16
 74
     0
 42
0.000000063088464
 43
0.0000000001
 40
0.0
 40
0.0
 40
0.0
 40
0.0
 40
0.2174785466303456
 40
0.2174785466303456
 40
0.2174785466303456
 40
0.4350168090148732
 40
0.4350168090148732
 40
0.4350168090148732
 40
0.6515958899074934
 40
0.6515958899074934
 40
0.6515958899074934
 40
0.8662118866631088
 40
0.8662118866631088
 40
0.8662118866631088
 40
1.0
 40
1.0
 40
1.0
 40
1.0
 10
262.7210659432555
 20
420.3336684367715
 30
0.0
 10
262.7105164084597
 20
420.3294061480435
 30
0.0
 10
262.6990875994642
 20
420.32690093177
 30
0.0
 10
262.6877221553334
 20
420.3263657034826
 30
0.0
 10
262.6763549695319
 20
420.3258303931754
 30
0.0
 10
262.6647357231791
 20
420.3272522341708
 30
0.0
 10
262.6538374063553
 20
420.330527315937
 30
0.0
 10
262.6429876680389
 20
420.3337877992485
 30
0.0
 10
262.6325500195767
 20
420.3389776474863
 30
0.0
 10
262.6234123124195
 20
420.3456746528518
 30
0.0
 10
262.6143564951391
 20
420.3523116413076
 30
0.0
 10
262.6063253758035
 20
420.3606147804177
 30
0.0
 10
262.6000034594107
 20
420.3698932940648
 30
0.0
 10
262.5960275211644
 20
420.3757286760892
 30
0.0
 10
262.5926593701325
 20
420.3820265977529
 30
0.0
 10
262.5900142186694
 20
420.3885735773655
 30
0.0
  0
LINE
  5
2A1
330
265
100
AcDbEntity
  8
64647040_EINSATZ
  6
Continuous
 62
     7
100
AcDbLine
 10
262.4963625703
 20
420.620369541
 30
0.0
 11
262.5900142187
 21
420.3885735774
 31
0.0
  0
SPLINE
  5
2A2
330
265
100
AcDbEntity
  8
64647040_EINSATZ
  6
Continuous
 62
     7
100
AcDbSpline
210
0.0
220
0.0
230
1.0
 70
     8
 71
     3
 72
    20
 73
    16
 74
     0
 42
0.0000000734542227
 43
0.0000000001
 40
0.0
 40
0.0
 40
0.0
 40
0.0
 40
0.2174093870011151
 40
0.2174093870011151
 40
0.2174093870011151
 40
0.4348768202247125
 40
0.4348768202247125
 40
0.4348768202247125
 40
0.6514121854904935
 40
0.6514121854904935
 40
0.6514121854904935
 40
0.8660380396115136
 40
0.8660380396115136
 40
0.8660380396115136
 40
1.0
 40
1.0
 40
1.0
 40
1.0
 10
264.2734998647143
 20
420.9608924549168
 30
0.0
 10
264.266043540667
 20
420.9578799044534
 30
0.0
 10
264.2577509041315
 20
420.9566410157518
 30
0.0
 10
264.2493053770569
 20
420.95728384015
 30
0.0
 10
264.2408585915829
 20
420.9579267603302
 30
0.0
 10
264.2320243680959
 20
420.9604711113778
 30
0.0
 10
264.2235407519543
 20
420.9647180220096
 30
0.0
 10
264.2150938950682
 20
420.9689465309044
 30
0.0
 10
264.2067590624794
 20
420.9749823178593
 30
0.0
 10
264.199242815665
 20
420.9823302893444
 30
0.0
 10
264.1917921033696
 20
420.9896141935112
 30
0.0
 10
264.1849383262885
 20
420.9983912643131
 30
0.0
 10
264.1792635207533
 20
421.0079297739167
 30
0.0
 10
264.1756901504757
 20
421.0139360813571
 30
0.0
 10
264.1725252398174
 20
421.0203250446571
 30
0.0
 10
264.1698770326387
 20
421.0268795874308
 30
0.0
  0
LINE
  5
2A3
330
265
100
AcDbEntity
  8
64647040_EINSATZ
  6
Continuous
 62
     7
100
AcDbLine
 10
264.0762253843
 20
421.2586755511
 30
0.0
 11
264.1698770326
 21
421.0268795874
 31
0.0
  0
LINE
  5
2A4
330
265
100
AcDbEntity
  8
64647040_EINSATZ
  6
Continuous
 62
     7
100
AcDbLine
 10
265.8089220101
 20
421.6890967436
 30
0.0
 11
265.7152703617
 21
421.9208927073
 31
0.0
  0
SPLINE
  5
2A5
330
265
100
AcDbEntity
  8
64647040_EINSATZ
  6
Continuous
 62
     7
100
AcDbSpline
210
0.0
220
0.0
230
1.0
 70
     8
 71
     3
 72
    20
 73
    16
 74
     0
 42
0.0000000734876714
 43
0.0000000001
 40
0.0
 40
0.0
 40
0.0
 40
0.0
 40
0.2125265405902869
 40
0.2125265405902869
 40
0.2125265405902869
 40
0.4250001490955228
 40
0.4250001490955228
 40
0.4250001490955228
 40
0.6383121177781937
 40
0.6383121177781937
 40
0.6383121177781937
 40
0.8534671345904412
 40
0.8534671345904412
 40
0.8534671345904412
 40
1.0
 40
1.0
 40
1.0
 40
1.0
 10
265.8089220100659
 20
421.6890967436347
 30
0.0
 10
265.8130866897756
 20
421.6787887996367
 30
0.0
 10
265.8185707389532
 20
421.6688486340081
 30
0.0
 10
265.8249157547544
 20
421.6600993071868
 30
0.0
 10
265.8312598905779
 20
421.6513511937923
 30
0.0
 10
265.8386381903554
 20
421.6435528658012
 30
0.0
 10
265.8464393899399
 20
421.6373355420241
 30
0.0
 10
265.854271773514
 20
421.6310933655357
 30
0.0
 10
265.8627436042964
 20
421.6262734482672
 30
0.0
 10
265.8711627294116
 20
421.623254163061
 30
0.0
 10
265.8796538579777
 20
421.6202090558185
 30
0.0
 10
265.8883229383636
 20
421.6189115931044
 30
0.0
 10
265.8964647608589
 20
421.6194560287194
 30
0.0
 10
265.9020515779281
 20
421.6198296136495
 30
0.0
 10
265.9074811108622
 20
421.6210637308825
 30
0.0
 10
265.9125448421414
 20
421.6231096111207
 30
0.0
  0
LINE
  5
2A6
330
265
100
AcDbEntity
  8
64647040_EINSATZ
  6
Continuous
 62
     7
100
AcDbLine
 10
265.9952663243
 20
421.6565312594
 30
0.0
 11
265.9125448421
 21
421.6231096111
 31
0.0
  0
SPLINE
  5
2A7
330
265
100
AcDbEntity
  8
64647040_EINSATZ
  6
Continuous
 62
     7
100
AcDbSpline
210
0.0
220
0.0
230
1.0
 70
     8
 71
     3
 72
    20
 73
    16
 74
     0
 42
0.0000000734471153
 43
0.0000000001
 40
0.0
 40
0.0
 40
0.0
 40
0.0
 40
0.2174785466303357
 40
0.2174785466303357
 40
0.2174785466303357
 40
0.4350168090148483
 40
0.4350168090148483
 40
0.4350168090148483
 40
0.6515958899074671
 40
0.6515958899074671
 40
0.6515958899074671
 40
0.8662118866630723
 40
0.8662118866630723
 40
0.8662118866630723
 40
1.0
 40
1.0
 40
1.0
 40
1.0
 10
265.9952663243342
 20
421.6565312593665
 30
0.0
 10
265.9878066767417
 20
421.6535173661036
 30
0.0
 10
265.9795104010866
 20
421.6522777754528
 30
0.0
 10
265.9710611279698
 20
421.6529207567341
 30
0.0
 10
265.9626105600641
 20
421.6535638365476
 30
0.0
 10
265.9537722965949
 20
421.6561092675615
 30
0.0
 10
265.945284907882
 20
421.6603584275132
 30
0.0
 10
265.9368353511283
 20
421.6645886471227
 30
0.0
 10
265.9284978485183
 20
421.670627009363
 30
0.0
 10
265.920979649421
 20
421.6779783384576
 30
0.0
 10
265.9135288265689
 20
421.6852637867548
 30
0.0
 10
265.9066751933343
 20
421.6940426611303
 30
0.0
 10
265.901001175091
 20
421.7035829426214
 30
0.0
 10
265.8974327087048
 20
421.7095829539635
 30
0.0
 10
265.8942719395629
 20
421.7159646633497
 30
0.0
 10
265.8916267880997
 20
421.7225116429622
 30
0.0
  0
LINE
  5
2A8
330
265
100
AcDbEntity
  8
64647040_EINSATZ
  6
Continuous
 62
     7
100
AcDbLine
 10
265.7979751397
 20
421.9543076066
 30
0.0
 11
265.8916267881
 21
421.722511643
 31
0.0
  0
LINE
  5
2A9
330
265
100
AcDbEntity
  8
64647040_EINSATZ
  6
Continuous
 62
     7
100
AcDbLine
 10
269.9428806764
 20
423.2514709871
 30
0.0
 11
269.9054200171
 21
423.3441893725
 31
0.0
  0
LINE
  5
2AA
330
265
100
AcDbEntity
  8
64647040_EINSATZ
  6
Continuous
 62
     7
100
AcDbLine
 10
269.8117683687
 20
423.5759853362
 30
0.0
 11
269.9054200171
 21
423.3441893725
 31
0.0
  0
LINE
  5
2AB
330
265
100
AcDbEntity
  8
64647040_EINSATZ
  6
Continuous
 62
     7
100
AcDbLine
 10
272.2233796535
 20
424.2807058561
 30
0.0
 11
272.1297280051
 21
424.5125018197
 31
0.0
  0
LINE
  5
2AC
330
265
100
AcDbEntity
  8
64647040_EINSATZ
  6
Continuous
 62
     7
100
AcDbLine
 10
272.2233796535
 20
424.2807058561
 30
0.0
 11
272.2608403128
 21
424.1879874706
 31
0.0
  0
LINE
  5
2AD
330
265
100
AcDbEntity
  8
64647040_EINSATZ
  6
Continuous
 62
     7
100
AcDbLine
 10
276.1435212341
 20
426.1341795493
 30
0.0
 11
276.2371728825
 21
425.9023835857
 31
0.0
  0
SPLINE
  5
2AE
330
265
100
AcDbEntity
  8
64647040_EINSATZ
  6
Continuous
 62
     7
100
AcDbSpline
210
0.0
220
0.0
230
1.0
 70
     8
 71
     3
 72
    20
 73
    16
 74
     0
 42
0.0000000734807071
 43
0.0000000001
 40
0.0
 40
0.0
 40
0.0
 40
0.0
 40
0.2124602044789375
 40
0.2124602044789375
 40
0.2124602044789375
 40
0.424866054904191
 40
0.424866054904191
 40
0.424866054904191
 40
0.6381326839798532
 40
0.6381326839798532
 40
0.6381326839798532
 40
0.8532925071046277
 40
0.8532925071046277
 40
0.8532925071046277
 40
1.0
 40
1.0
 40
1.0
 40
1.0
 10
276.2371728824685
 20
425.902383585673
 30
0.0
 10
276.2413367928505
 20
425.8920775458276
 30
0.0
 10
276.2442962722236
 20
425.8811196351293
 30
0.0
 10
276.2458094600515
 20
425.8704202625905
 30
0.0
 10
276.2473224323102
 20
425.8597224142886
 30
0.0
 10
276.2474319949033
 20
425.8489894846839
 30
0.0
 10
276.2461396593087
 20
425.8390997036208
 30
0.0
 10
276.2448420179429
 20
425.8291693193939
 30
0.0
 10
276.2420967307506
 20
425.819817733581
 30
0.0
 10
276.2381390071421
 20
425.8117973046213
 30
0.0
 10
276.2341465068988
 20
425.8037063999141
 30
0.0
 10
276.2288119478839
 20
425.7967489229907
 30
0.0
 10
276.2225771345001
 20
425.791482217977
 30
0.0
 10
276.2182939580804
 20
425.787864110211
 30
0.0
 10
276.2135249959435
 20
425.7849757450628
 30
0.0
 10
276.2084546649172
 20
425.7829271983553
 30
0.0
  0
LINE
  5
2AF
330
265
100
AcDbEntity
  8
64647040_EINSATZ
  6
Continuous
 62
     7
100
AcDbLine
 10
276.2911761471
 20
425.8163488466
 30
0.0
 11
276.2084546649
 21
425.7829271984
 31
0.0
  0
SPLINE
  5
2B0
330
265
100
AcDbEntity
  8
64647040_EINSATZ
  6
Continuous
 62
     7
100
AcDbSpline
210
0.0
220
0.0
230
1.0
 70
     8
 71
     3
 72
    20
 73
    16
 74
     0
 42
0.0000000734542227
 43
0.0000000001
 40
0.0
 40
0.0
 40
0.0
 40
0.0
 40
0.2174093870011363
 40
0.2174093870011363
 40
0.2174093870011363
 40
0.4348768202247474
 40
0.4348768202247474
 40
0.4348768202247474
 40
0.6514121854905198
 40
0.6514121854905198
 40
0.6514121854905198
 40
0.8660380396115526
 40
0.8660380396115526
 40
0.8660380396115526
 40
1.0
 40
1.0
 40
1.0
 40
1.0
 10
276.2911761471099
 20
425.8163488466011
 30
0.0
 10
276.2986324711571
 20
425.8193613970645
 30
0.0
 10
276.3054582990735
 20
425.8242307644958
 30
0.0
 10
276.3110869594842
 20
425.8305599297453
 30
0.0
 10
276.3167164585759
 20
425.8368900380524
 30
0.0
 10
276.3213038123824
 20
425.8448570583188
 30
0.0
 10
276.324456263105
 20
425.8538052451293
 30
0.0
 10
276.3275950543526
 20
425.8627146597133
 30
0.0
 10
276.3293978212324
 20
425.8728463027205
 30
0.0
 10
276.3297002268171
 20
425.8833532148255
 30
0.0
 10
276.329999995713
 20
425.8937685166565
 30
0.0
 10
276.3288331246494
 20
425.9048432466333
 30
0.0
 10
276.3262892325922
 20
425.9156467273929
 30
0.0
 10
276.3246873683152
 20
425.9224495749619
 30
0.0
 10
276.3225258676813
 20
425.9292439422271
 30
0.0
 10
276.3198776605022
 20
425.9357984850005
 30
0.0
  0
LINE
  5
2B1
330
265
100
AcDbEntity
  8
64647040_EINSATZ
  6
Continuous
 62
     7
100
AcDbLine
 10
276.2262260121
 20
426.1675944486
 30
0.0
 11
276.3198776605
 21
425.935798485
 31
0.0
  0
LINE
  5
2B2
330
265
100
AcDbEntity
  8
64647040_EINSATZ
  6
Continuous
 62
     7
100
AcDbLine
 10
277.9589226379
 20
426.5980156412
 30
0.0
 11
277.8652709896
 21
426.8298116048
 31
0.0
  0
SPLINE
  5
2B3
330
265
100
AcDbEntity
  8
64647040_EINSATZ
  6
Continuous
 62
     7
100
AcDbSpline
210
0.0
220
0.0
230
1.0
 70
     8
 71
     3
 72
    20
 73
    16
 74
     0
 42
0.0000000734876714
 43
0.0000000001
 40
0.0
 40
0.0
 40
0.0
 40
0.0
 40
0.2125265405902722
 40
0.2125265405902722
 40
0.2125265405902722
 40
0.4250001490954936
 40
0.4250001490954936
 40
0.4250001490954936
 40
0.6383121177781517
 40
0.6383121177781517
 40
0.6383121177781517
 40
0.8534671345903888
 40
0.8534671345903888
 40
0.8534671345903888
 40
1.0
 40
1.0
 40
1.0
 40
1.0
 10
277.9589226379294
 20
426.5980156412044
 30
0.0
 10
277.963087317639
 20
426.5877076972064
 30
0.0
 10
277.9660474420561
 20
426.5767477997826
 30
0.0
 10
277.9675610127689
 20
426.5660464424368
 30
0.0
 10
277.9690743735674
 20
426.5553465692412
 30
0.0
 10
277.9691840426933
 20
426.544611523841
 30
0.0
 10
277.9678912453455
 20
426.5347199868054
 30
0.0
 10
277.9665932802566
 20
426.5247889100062
 30
0.0
 10
277.9638473510685
 20
426.5154367235145
 30
0.0
 10
277.9598885110304
 20
426.5074164157639
 30
0.0
 10
277.9558958135379
 20
426.499327515395
 30
0.0
 10
277.9505610923188
 20
426.4923721495711
 30
0.0
 10
277.9443261585934
 20
426.4871079986305
 30
0.0
 10
277.9400478248196
 20
426.4834958038981
 30
0.0
 10
277.9352848558168
 20
426.4806118830418
 30
0.0
 10
277.930221124537
 20
426.4785660028049
 30
0.0
  0
LINE
  5
2B4
330
265
100
AcDbEntity
  8
64647040_EINSATZ
  6
Continuous
 62
     7
100
AcDbLine
 10
279.4451338035
 20
427.4681176149
 30
0.0
 11
279.5387854519
 21
427.2363216513
 31
0.0
  0
SPLINE
  5
2B5
330
265
100
AcDbEntity
  8
64647040_EINSATZ
  6
Continuous
 62
     7
100
AcDbSpline
210
0.0
220
0.0
230
1.0
 70
     8
 71
     3
 72
    20
 73
    16
 74
     0
 42
0.0000000630935676
 43
0.0000000001
 40
0.0
 40
0.0
 40
0.0
 40
0.0
 40
0.2124602044789328
 40
0.2124602044789328
 40
0.2124602044789328
 40
0.4248660549041722
 40
0.4248660549041722
 40
0.4248660549041722
 40
0.6381326839798376
 40
0.6381326839798376
 40
0.6381326839798376
 40
0.8532925071045689
 40
0.8532925071045689
 40
0.8532925071045689
 40
1.0
 40
1.0
 40
1.0
 40
1.0
 10
279.5387854518987
 20
427.2363216512696
 30
0.0
 10
279.5429493622808
 20
427.2260156114242
 30
0.0
 10
279.5453861758561
 20
427.2148465300363
 30
0.0
 10
279.5458988878542
 20
427.2037429390239
 30
0.0
 10
279.546411526811
 20
427.1926409298334
 30
0.0
 10
279.5450159731677
 20
427.1812998937964
 30
0.0
 10
279.5418406261935
 20
427.1706493267524
 30
0.0
 10
279.538652242618
 20
427.1599550330865
 30
0.0
 10
279.533583996291
 20
427.1496649108616
 30
0.0
 10
279.5270630922699
 20
427.1406088897937
 30
0.0
 10
279.5204848888715
 20
427.1314732931996
 30
0.0
 10
279.51224980162
 20
427.1233439267998
 30
0.0
 10
279.5030371399329
 20
427.116874092975
 30
0.0
 10
279.4967082487743
 20
427.1124294628038
 30
0.0
 10
279.4898255768989
 20
427.1086871034875
 30
0.0
 10
279.4826550459957
 20
427.1057900209503
 30
0.0
  0
LINE
  5
2B6
330
265
100
AcDbEntity
  8
64647040_EINSATZ
  6
Continuous
 62
     7
100
AcDbLine
 10
279.599640888
 20
427.1530553692
 30
0.0
 11
279.482655046
 21
427.105790021
 31
0.0
  0
SPLINE
  5
2B7
330
265
100
AcDbEntity
  8
64647040_EINSATZ
  6
Continuous
 62
     7
100
AcDbSpline
210
0.0
220
0.0
230
1.0
 70
     8
 71
     3
 72
    20
 73
    16
 74
     0
 42
0.0000000630965777
 43
0.0000000001
 40
0.0
 40
0.0
 40
0.0
 40
0.0
 40
0.2174093870011214
 40
0.2174093870011214
 40
0.2174093870011214
 40
0.4348768202247293
 40
0.4348768202247293
 40
0.4348768202247293
 40
0.6514121854905003
 40
0.6514121854905003
 40
0.6514121854905003
 40
0.8660380396115237
 40
0.8660380396115237
 40
0.8660380396115237
 40
1.0
 40
1.0
 40
1.0
 40
1.0
 10
279.5996408880122
 20
427.1530553691763
 30
0.0
 10
279.6101857226053
 20
427.157315758899
 30
0.0
 10
279.6201426870308
 20
427.1634501875968
 30
0.0
 10
279.6286862071094
 20
427.1709570325967
 30
0.0
 10
279.6372310001885
 20
427.1784649961307
 30
0.0
 10
279.6445980536669
 20
427.1875550879644
 30
0.0
 10
279.6501604127433
 20
427.1974769409517
 30
0.0
 10
279.6556986702838
 20
427.2073558028461
 30
0.0
 10
279.6596010027585
 20
427.2183357254166
 30
0.0
 10
279.6615227042748
 20
427.2294968755454
 30
0.0
 10
279.6634276503829
 20
427.2405607110671
 30
0.0
 10
279.6634385761195
 20
427.2521113018399
 30
0.0
 10
279.6615431174749
 20
427.2631767667039
 30
0.0
 10
279.6603495654597
 20
427.270144583135
 30
0.0
 10
279.6583958778463
 20
427.2770229123105
 30
0.0
 10
279.6557476706672
 20
427.2835774550839
 30
0.0
  0
LINE
  5
2B8
330
265
100
AcDbEntity
  8
64647040_EINSATZ
  6
Continuous
 62
     7
100
AcDbLine
 10
279.5620960223
 20
427.5153734187
 30
0.0
 11
279.6557476707
 21
427.2835774551
 31
0.0
  0
LINE
  5
2B9
330
265
100
AcDbEntity
  8
64647040_EINSATZ
  6
Continuous
 62
     7
100
AcDbLine
 10
265.9125448421
 20
421.6231096111
 30
0.0
 11
264.2734998647
 21
420.9608924549
 31
0.0
  0
LINE
  5
2BA
330
265
100
AcDbEntity
  8
64647040_EINSATZ
  6
Continuous
 62
     7
100
AcDbLine
 10
264.2589345321
 20
420.9550076786
 30
0.0
 11
262.7210659433
 21
420.3336684368
 31
0.0
  0
LINE
  5
2BB
330
265
100
AcDbEntity
  8
64647040_EINSATZ
  6
Continuous
 62
     7
100
AcDbLine
 10
279.599640888
 20
427.1530553692
 30
0.0
 11
279.6783111494
 21
427.184840218
 31
0.0
  0
LINE
  5
2BC
330
265
100
AcDbEntity
  8
64647040_EINSATZ
  6
Continuous
 62
     7
100
AcDbLine
 10
279.482655046
 20
427.105790021
 30
0.0
 11
277.9320724314
 21
426.4793139793
 31
0.0
  0
LINE
  5
2BD
330
265
100
AcDbEntity
  8
64647040_EINSATZ
  6
Continuous
 62
     7
100
AcDbLine
 10
277.9302211245
 20
426.4785660028
 30
0.0
 11
276.2911761471
 21
425.8163488466
 31
0.0
  0
LINE
  5
2BE
330
265
100
AcDbEntity
  8
64647040_EINSATZ
  6
Continuous
 62
     7
100
AcDbLine
 10
276.2084546649
 20
425.7829271984
 30
0.0
 11
272.2608403128
 21
424.1879874706
 31
0.0
  0
LINE
  5
2BF
330
265
100
AcDbEntity
  8
64647040_EINSATZ
  6
Continuous
 62
     7
100
AcDbLine
 10
272.2608403128
 20
424.1879874706
 30
0.0
 11
269.9428806764
 21
423.2514709871
 31
0.0
  0
LINE
  5
2C0
330
265
100
AcDbEntity
  8
64647040_EINSATZ
  6
Continuous
 62
     7
100
AcDbLine
 10
269.9428806764
 20
423.2514709871
 30
0.0
 11
265.9952663243
 21
421.6565312594
 31
0.0
  0
ARC
  5
2C1
330
265
100
AcDbEntity
  8
64647040_EINSATZ
  6
Continuous
 62
     7
100
AcDbCircle
 10
279.3471720575
 20
425.5411027007
 30
0.0
 40
0.1000000000000042
100
AcDbArc
 50
292.0
 51
4.0955524937
  0
ARC
  5
2C2
330
265
100
AcDbEntity
  8
64647040_EINSATZ
  6
Continuous
 62
     7
100
AcDbCircle
 10
263.9054473933
 20
419.3022409642
 30
0.0
 40
0.0999999999999931
100
AcDbArc
 50
219.9044475062
 51
292.0
  0
LINE
  5
2C3
330
265
100
AcDbEntity
  8
64647040_EINSATZ
  6
Continuous
 62
     7
100
AcDbLine
 10
262.864188556
 20
420.3914937258
 30
0.0
 11
263.8287358576
 21
419.2380900463
 31
0.0
  0
LINE
  5
2C4
330
265
100
AcDbEntity
  8
64647040_EINSATZ
  6
Continuous
 62
     7
100
AcDbLine
 10
279.4469166905
 20
425.5482447026
 30
0.0
 11
279.3395324333
 21
427.0479647319
 31
0.0
  0
ARC
  5
2C5
330
265
100
AcDbEntity
  8
64647040_EINSATZ
  6
Continuous
 62
     7
100
AcDbCircle
 10
262.4879491805
 20
420.3473366252
 30
0.0
 40
0.1000000000000042
100
AcDbArc
 50
202.0
 51
292.0
  0
LINE
  5
2C6
330
265
100
AcDbEntity
  8
64647040_EINSATZ
  6
Continuous
 62
     7
100
AcDbLine
 10
262.3015791467
 20
420.5416719295
 30
0.0
 11
262.3952307951
 21
420.3098759659
 31
0.0
  0
LINE
  5
2C7
330
265
100
AcDbEntity
  8
64647040_EINSATZ
  6
Continuous
 62
     7
100
AcDbLine
 10
279.7335688755
 20
427.3150192628
 30
0.0
 11
279.6399172271
 21
427.5468152264
 31
0.0
  0
ARC
  5
2C8
330
265
100
AcDbEntity
  8
64647040_EINSATZ
  6
Continuous
 62
     7
100
AcDbCircle
 10
279.64085049
 20
427.2775586034
 30
0.0
 40
0.0999999999999913
100
AcDbArc
 50
292.0
 51
22.0
  0
LINE
  5
2C9
330
265
100
AcDbEntity
  8
$DDT_AUDIT_GENERATED_(260)
  6
Continuous
 62
     7
100
AcDbLine
 10
162.342751629
 20
452.4948601108
 30
0.0
 11
160.5819518825
 21
452.4948601108
 31
0.0
  0
ARC
  5
2CA
330
265
100
AcDbEntity
  8
$DDT_AUDIT_GENERATED_(260)
  6
Continuous
 62
     7
100
AcDbCircle
 10
173.0819518825
 20
436.2467833016
 30
0.0
 40
20.5
100
AcDbArc
 50
24.189514154
 51
30.4619513078
  0
ARC
  5
2CB
330
265
100
AcDbEntity
  8
$DDT_AUDIT_GENERATED_(260)
  6
Continuous
 62
     7
100
AcDbCircle
 10
173.0819518825
 20
436.2467833016
 30
0.0
 40
20.50000000000001
100
AcDbArc
 50
127.5718693197
 51
155.810485846
  0
LINE
  5
2CD
330
265
100
AcDbEntity
  8
$DDT_AUDIT_GENERATED_(2CC)
  6
Continuous
 62
     7
100
AcDbLine
 10
153.7558434666
 20
471.9988245331
 30
0.0
 11
153.7636893762
 21
472.0985162665
 31
0.0
  0
LINE
  5
2CE
330
265
100
AcDbEntity
  8
$DDT_AUDIT_GENERATED_(2CC)
  6
Continuous
 62
     7
100
AcDbLine
 10
153.7645593727
 20
472.0984477963
 30
0.0
 11
153.7636893762
 21
472.0985162665
 31
0.0
  0
LINE
  5
2D0
330
265
100
AcDbEntity
  8
$DDT_AUDIT_GENERATED_(2CF)
  6
Continuous
 62
     7
100
AcDbLine
 10
144.7449821155
 20
383.5847607066
 30
0.0
 11
133.3746096995
 21
383.5847607066
 31
0.0
  0
LINE
  5
2D1
330
265
100
AcDbEntity
  8
$DDT_AUDIT_GENERATED_(2CF)
  6
Continuous
 62
     7
100
AcDbLine
 10
133.3746096995
 20
379.5847607066
 30
0.0
 11
144.7449821155
 21
379.5847607066
 31
0.0
  0
ARC
  5
2D2
330
265
100
AcDbEntity
  8
$DDT_AUDIT_GENERATED_(2CF)
  6
Continuous
 62
     7
100
AcDbCircle
 10
144.7449821155
 20
378.5847607066
 30
0.0
 40
1.000000000000001
100
AcDbArc
 50
18.0
 51
90.0
  0
ARC
  5
2D3
330
265
100
AcDbEntity
  8
$DDT_AUDIT_GENERATED_(2CF)
  6
Continuous
 62
     7
100
AcDbCircle
 10
144.7449821155
 20
378.5847607066
 30
0.0
 40
5.000000000000006
100
AcDbArc
 50
18.0
 51
90.0
  0
LINE
  5
2D4
330
265
100
AcDbEntity
  8
$DDT_AUDIT_GENERATED_(2CF)
  6
Continuous
 62
     7
100
AcDbLine
 10
151.5819518825
 20
373.7230712978
 30
0.0
 11
149.500264697
 21
380.1298456785
 31
0.0
  0
LINE
  5
2D5
330
265
100
AcDbEntity
  8
$DDT_AUDIT_GENERATED_(2CF)
  6
Continuous
 62
     7
100
AcDbLine
 10
145.6960386318
 20
378.893777701
 30
0.0
 11
151.5819518825
 21
360.7787993878
 31
0.0
  0
ARC
  5
2D6
330
265
100
AcDbEntity
  8
$DDT_AUDIT_GENERATED_(2CF)
  6
Continuous
 62
     7
100
AcDbCircle
 10
133.3746096995
 20
381.5847607066
 30
0.0
 40
2.000000000000002
100
AcDbArc
 50
90.0
 51
270.0
  0
ENDBLK
  5
2D8
330
265
100
AcDbEntity
  8
0
100
AcDbBlockEnd
  0
BLOCK
  5
32F
330
2D9
100
AcDbEntity
  8
0
100
AcDbBlockBegin
  2
SE2
 70
     0
 10
0.0
 20
0.0
 30
0.0
  3
SE2
  1

  0
LINE
  5
2DB
330
2D9
100
AcDbEntity
  8
$DDT_AUDIT_GENERATED_(74)
  6
Continuous
 62
     7
100
AcDbLine
 10
21.6746096995
 20
106.35
 30
0.0
 11
63.6746096995
 21
106.35
 31
0.0
  0
LINE
  5
2DC
330
2D9
100
AcDbEntity
  8
$DDT_AUDIT_GENERATED_(74)
  6
Continuous
 62
     7
100
AcDbLine
 10
21.1746096995
 20
106.85
 30
0.0
 11
21.1746096995
 21
237.35
 31
0.0
  0
LINE
  5
2DD
330
2D9
100
AcDbEntity
  8
$DDT_AUDIT_GENERATED_(74)
  6
Continuous
 62
     7
100
AcDbLine
 10
21.6746096995
 20
237.85
 30
0.0
 11
63.6746096995
 21
237.85
 31
0.0
  0
LINE
  5
2DE
330
2D9
100
AcDbEntity
  8
$DDT_AUDIT_GENERATED_(74)
  6
Continuous
 62
     7
100
AcDbLine
 10
64.1746096995
 20
237.35
 30
0.0
 11
64.1746096995
 21
106.85
 31
0.0
  0
ARC
  5
2DF
330
2D9
100
AcDbEntity
  8
$DDT_AUDIT_GENERATED_(74)
  6
Continuous
 62
     7
100
AcDbCircle
 10
21.6746096995
 20
106.85
 30
0.0
 40
0.5000000000000282
100
AcDbArc
 50
180.0
 51
270.0
  0
ARC
  5
2E0
330
2D9
100
AcDbEntity
  8
$DDT_AUDIT_GENERATED_(74)
  6
Continuous
 62
     7
100
AcDbCircle
 10
63.6746096995
 20
106.85
 30
0.0
 40
0.5000000000000525
100
AcDbArc
 50
270.0
 51
0.0
  0
ARC
  5
2E1
330
2D9
100
AcDbEntity
  8
$DDT_AUDIT_GENERATED_(74)
  6
Continuous
 62
     7
100
AcDbCircle
 10
21.6746096995
 20
237.35
 30
0.0
 40
0.4999999999999935
100
AcDbArc
 50
90.0
 51
180.0
  0
ARC
  5
2E2
330
2D9
100
AcDbEntity
  8
$DDT_AUDIT_GENERATED_(74)
  6
Continuous
 62
     7
100
AcDbCircle
 10
63.6746096995
 20
237.35
 30
0.0
 40
0.4999999999998686
100
AcDbArc
 50
0.0
 51
90.0
  0
LINE
  5
2E3
330
2D9
100
AcDbEntity
  8
$DDT_AUDIT_GENERATED_(87)
  6
Continuous
 62
     7
100
AcDbLine
 10
23.556107436
 20
235.0151590752
 30
0.0
 11
22.112912788
 21
236.4583537232
 31
0.0
  0
LINE
  5
2E4
330
2D9
100
AcDbEntity
  8
$DDT_AUDIT_GENERATED_(87)
  6
Continuous
 62
     7
100
AcDbLine
 10
60.2433735139
 20
137.1785023159
 30
0.0
 11
61.2950146139
 21
235.0760937469
 31
0.0
  0
ELLIPSE
  5
2E5
330
2D9
100
AcDbEntity
  8
$DDT_AUDIT_GENERATED_(87)
  6
Continuous
 62
     7
100
AcDbEllipse
 10
61.1248053959
 20
194.5538038573
 30
0.0
 11
-0.4999711539720419
 21
0.005370818702367387
 31
0.0
210
0.0
220
0.0
230
0.9999999999999999
 40
0.1218624168
 41
3.141579920793874
 42
3.229516084874374
  0
LINE
  5
2E6
330
2D9
100
AcDbEntity
  8
$DDT_AUDIT_GENERATED_(87)
  6
Continuous
 62
     7
100
AcDbLine
 10
23.556107436
 20
235.0151590752
 30
0.0
 11
24.6077485361
 21
137.1175676442
 31
0.0
  0
ELLIPSE
  5
2E7
330
2D9
100
AcDbEntity
  8
$DDT_AUDIT_GENERATED_(87)
  6
Continuous
 62
     7
100
AcDbEllipse
 10
24.2244140032
 20
194.5538038573
 30
0.0
 11
0.4999711540677118
 21
0.005370818705961733
 31
0.0
210
0.0
220
0.0
230
1.0
 40
0.1218624168
 41
3.053669222170293
 42
3.141592653589692
  0
LINE
  5
2E8
330
2D9
100
AcDbEntity
  8
$DDT_AUDIT_GENERATED_(87)
  6
Continuous
 62
     7
100
AcDbLine
 10
61.2950146139
 20
235.5132564242
 30
0.0
 11
24.0542047851
 21
235.5132564242
 31
0.0
  0
LINE
  5
2E9
330
2D9
100
AcDbEntity
  8
$DDT_AUDIT_GENERATED_(87)
  6
Continuous
 62
     7
100
AcDbLine
 10
64.1508312488
 20
195.4166299605
 30
0.0
 11
61.9535186107
 21
197.6139425998
 31
0.0
  0
ARC
  5
2EA
330
2D9
100
AcDbEntity
  8
$DDT_AUDIT_GENERATED_(87)
  6
Continuous
 62
     7
100
AcDbCircle
 10
21.6983787331
 20
195.4185231943
 30
0.0
 40
0.4999941672092474
100
AcDbArc
 50
180.2169516591
 51
269.7830483409
  0
LINE
  5
2EB
330
2D9
100
AcDbEntity
  8
$DDT_AUDIT_GENERATED_(87)
  6
Continuous
 62
     7
100
AcDbLine
 10
23.3957007883
 20
197.6139425996
 30
0.0
 11
21.1983881502
 21
195.4166299605
 31
0.0
  0
LINE
  5
2EC
330
2D9
100
AcDbEntity
  8
$DDT_AUDIT_GENERATED_(87)
  6
Continuous
 62
     7
100
AcDbLine
 10
31.1746096995
 20
170.8641368
 30
0.0
 11
31.1746096995
 21
152.0057465258
 31
0.0
  0
LINE
  5
2ED
330
2D9
100
AcDbEntity
  8
$DDT_AUDIT_GENERATED_(87)
  6
Continuous
 62
     7
100
AcDbLine
 10
54.1746096995
 20
152.0057465258
 30
0.0
 11
54.1746096995
 21
170.8641368
 31
0.0
  0
ARC
  5
2EE
330
2D9
100
AcDbEntity
  8
$DDT_AUDIT_GENERATED_(87)
  6
Continuous
 62
     7
100
AcDbCircle
 10
33.1671836311
 20
170.8566549631
 30
0.0
 40
1.992587978143952
100
AcDbArc
 50
174.4561749415
 51
179.7848633587
  0
ARC
  5
2EF
330
2D9
100
AcDbEntity
  8
$DDT_AUDIT_GENERATED_(87)
  6
Continuous
 62
     7
100
AcDbCircle
 10
52.1820357679
 20
170.8566549631
 30
0.0
 40
1.992587978144093
100
AcDbArc
 50
0.2151366413
 51
5.5438250589
  0
ARC
  5
2F0
330
2D9
100
AcDbEntity
  8
$DDT_AUDIT_GENERATED_(87)
  6
Continuous
 62
     7
100
AcDbCircle
 10
52.1820357679
 20
152.0132283627
 30
0.0
 40
1.992587978145323
100
AcDbArc
 50
353.054745559
 51
359.7848633587
  0
SPLINE
  5
2F1
330
2D9
100
AcDbEntity
  8
$DDT_AUDIT_GENERATED_(87)
  6
Continuous
 62
     7
100
AcDbSpline
210
0.0
220
0.0
230
1.0
 70
     8
 71
     3
 72
     8
 73
     4
 74
     0
 42
0.0000000796307553
 43
0.0000000001
 40
0.0
 40
0.0
 40
0.0
 40
0.0
 40
0.10629138355638
 40
0.10629138355638
 40
0.10629138355638
 40
0.10629138355638
 10
31.17460969950019
 20
170.8641367999739
 30
0.0
 10
31.17460969950021
 20
170.8675280605258
 30
0.0
 10
31.17217448917469
 20
170.8709148817511
 30
0.0
 10
31.16745021893327
 20
170.8742542634776
 30
0.0
  0
SPLINE
  5
2F2
330
2D9
100
AcDbEntity
  8
$DDT_AUDIT_GENERATED_(87)
  6
Continuous
 62
     7
100
AcDbSpline
210
0.0
220
0.0
230
1.0
 70
     8
 71
     3
 72
     8
 73
     4
 74
     0
 42
0.0000000796307553
 43
0.0000000001
 40
0.8937086163743477
 40
0.8937086163743477
 40
0.8937086163743477
 40
0.8937086163743477
 40
1.0
 40
1.0
 40
1.0
 40
1.0
 10
54.1817691800823
 20
170.874254263483
 30
0.0
 10
54.17704490983328
 20
170.8709148817547
 30
0.0
 10
54.17460969950264
 20
170.8675280605276
 30
0.0
 10
54.17460969950019
 20
170.8641367999739
 30
0.0
  0
LINE
  5
2F3
330
2D9
100
AcDbEntity
  8
$DDT_AUDIT_GENERATED_(87)
  6
Continuous
 62
     7
100
AcDbLine
 10
33.1746096995
 20
150.0242521104
 30
0.0
 11
33.1746096995
 21
150.0207716434
 31
0.0
  0
ARC
  5
2F4
330
2D9
100
AcDbEntity
  8
$DDT_AUDIT_GENERATED_(87)
  6
Continuous
 62
     7
100
AcDbCircle
 10
33.1670167417
 20
170.4912150755
 30
0.0
 40
1.992420465657956
100
AcDbArc
 50
89.7816497592
 51
173.5139142906
  0
ARC
  5
2F5
330
2D9
100
AcDbEntity
  8
$DDT_AUDIT_GENERATED_(87)
  6
Continuous
 62
     7
100
AcDbCircle
 10
33.1670167417
 20
170.4912150755
 30
0.0
 40
1.992420465657956
100
AcDbArc
 50
173.5139142906
 51
179.7896805615
  0
ARC
  5
2F6
330
2D9
100
AcDbEntity
  8
$DDT_AUDIT_GENERATED_(87)
  6
Continuous
 62
     7
100
AcDbCircle
 10
52.1822026573
 20
170.4912150755
 30
0.0
 40
1.99242046565778
100
AcDbArc
 50
0.2103194385
 51
6.9408933035
  0
ARC
  5
2F7
330
2D9
100
AcDbEntity
  8
$DDT_AUDIT_GENERATED_(87)
  6
Continuous
 62
     7
100
AcDbCircle
 10
52.1822026573
 20
170.4912150755
 30
0.0
 40
1.99242046565778
100
AcDbArc
 50
6.9408933035
 51
90.2183502408
  0
ELLIPSE
  5
2F8
330
2D9
100
AcDbEntity
  8
$DDT_AUDIT_GENERATED_(87)
  6
Continuous
 62
     7
100
AcDbEllipse
 10
42.6746096995
 20
235.9593753658
 30
0.0
 11
-3.250000000000035
 21
-6.938893903907226E-15
 31
0.0
210
0.0
220
0.0
230
1.0
 40
0.0871590615
 41
0.0
 42
6.283185307179586
  0
LINE
  5
2F9
330
2D9
100
AcDbEntity
  8
$DDT_AUDIT_GENERATED_(87)
  6
Continuous
 62
     7
100
AcDbLine
 10
63.236306611
 20
236.4583537232
 30
0.0
 11
61.793111963
 21
235.0151590752
 31
0.0
  0
ELLIPSE
  5
2FA
330
2D9
100
AcDbEntity
  8
$DDT_AUDIT_GENERATED_(87)
  6
Continuous
 62
     7
100
AcDbEllipse
 10
22.6128384076
 20
236.4565254526
 30
0.0
 11
0.4646057836809256
 21
0.1904787160993717
 31
0.0
210
0.0
220
0.0
230
1.0
 40
0.9710952386
 41
1.175177737602235
 42
2.738377867845006
  0
ELLIPSE
  5
2FB
330
2D9
100
AcDbEntity
  8
$DDT_AUDIT_GENERATED_(87)
  6
Continuous
 62
     7
100
AcDbEllipse
 10
62.7363809914
 20
236.4565254526
 30
0.0
 11
0.4646057836809742
 21
-0.1904787160994098
 31
0.0
210
0.0
220
0.0
230
1.0
 40
0.9710952386
 41
0.4032147857714438
 42
1.966414915961764
  0
ELLIPSE
  5
2FC
330
2D9
100
AcDbEntity
  8
$DDT_AUDIT_GENERATED_(87)
  6
Continuous
 62
     7
100
AcDbEllipse
 10
62.9872579365
 20
236.4583537232
 30
0.0
 11
-0.2497727077950644
 21
-0.01065806928009921
 31
0.0
210
0.0
220
0.0
230
1.0
 40
0.4380490987
 41
3.044487404942935
 42
3.141592653589906
  0
LINE
  5
2FD
330
2D9
100
AcDbEntity
  8
$DDT_AUDIT_GENERATED_(87)
  6
Continuous
 62
     7
100
AcDbLine
 10
62.7280170026
 20
236.9472101384
 30
0.0
 11
62.7280170026
 21
236.9462588129
 31
0.0
  0
LINE
  5
2FE
330
2D9
100
AcDbEntity
  8
$DDT_AUDIT_GENERATED_(87)
  6
Continuous
 62
     7
100
AcDbLine
 10
22.6212023964
 20
236.9472101384
 30
0.0
 11
22.6212023964
 21
236.9462588129
 31
0.0
  0
ELLIPSE
  5
2FF
330
2D9
100
AcDbEntity
  8
$DDT_AUDIT_GENERATED_(87)
  6
Continuous
 62
     7
100
AcDbEllipse
 10
22.3619614625
 20
236.4583537232
 30
0.0
 11
0.2497727077963689
 21
-0.01065806928155638
 31
0.0
210
0.0
220
0.0
230
1.0
 40
0.4380490987
 41
3.14159265358975
 42
3.238697902244041
  0
LINE
  5
300
330
2D9
100
AcDbEntity
  8
$DDT_AUDIT_GENERATED_(87)
  6
Continuous
 62
     7
100
AcDbLine
 10
64.1517825743
 20
195.4166299605
 30
0.0
 11
64.1517825742
 21
215.0263955424
 31
0.0
  0
LINE
  5
301
330
2D9
100
AcDbEntity
  8
$DDT_AUDIT_GENERATED_(87)
  6
Continuous
 62
     7
100
AcDbLine
 10
21.1974368248
 20
215.0263955424
 30
0.0
 11
21.1974368248
 21
195.4166299605
 31
0.0
  0
LINE
  5
302
330
2D9
100
AcDbEntity
  8
$DDT_AUDIT_GENERATED_(87)
  6
Continuous
 62
     7
100
AcDbLine
 10
61.0038542765
 20
136.7465887953
 30
0.0
 11
61.6247765499
 21
194.5484330386
 31
0.0
  0
LINE
  5
303
330
2D9
100
AcDbEntity
  8
$DDT_AUDIT_GENERATED_(87)
  6
Continuous
 62
     7
100
AcDbLine
 10
23.724442849
 20
194.5484330386
 30
0.0
 11
24.3453651228
 21
136.7465887953
 31
0.0
  0
LINE
  5
304
330
2D9
100
AcDbEntity
  8
$DDT_AUDIT_GENERATED_(87)
  6
Continuous
 62
     7
100
AcDbLine
 10
24.8453362762
 20
136.251959614
 30
0.0
 11
60.5038831228
 21
136.2519596139
 31
0.0
  0
ARC
  5
305
330
2D9
100
AcDbEntity
  8
$DDT_AUDIT_GENERATED_(87)
  6
Continuous
 62
     7
100
AcDbCircle
 10
60.5038831228
 20
136.751959614
 30
0.0
 40
0.5000000000002641
100
AcDbArc
 50
270.0
 51
359.3845376769
  0
ARC
  5
306
330
2D9
100
AcDbEntity
  8
$DDT_AUDIT_GENERATED_(87)
  6
Continuous
 62
     7
100
AcDbCircle
 10
24.8453362762
 20
136.751959614
 30
0.0
 40
0.4999999999957719
100
AcDbArc
 50
180.6154623234
 51
270.0
  0
LINE
  5
307
330
2D9
100
AcDbEntity
  8
$DDT_AUDIT_GENERATED_(87)
  6
Continuous
 62
     7
100
AcDbLine
 10
21.6964854993
 20
194.917581286
 30
0.0
 11
23.7206908399
 21
194.917581286
 31
0.0
  0
LINE
  5
308
330
2D9
100
AcDbEntity
  8
$DDT_AUDIT_GENERATED_(87)
  6
Continuous
 62
     7
100
AcDbLine
 10
61.6285285425
 20
194.917581286
 30
0.0
 11
63.6527338997
 21
194.917581286
 31
0.0
  0
ARC
  5
309
330
2D9
100
AcDbEntity
  8
$DDT_AUDIT_GENERATED_(87)
  6
Continuous
 62
     7
100
AcDbCircle
 10
63.6555065576
 20
195.4138573026
 30
0.0
 40
0.4937924447717994
100
AcDbArc
 50
291.8799195733
 51
338.1199429508
  0
ARC
  5
30A
330
2D9
100
AcDbEntity
  8
$DDT_AUDIT_GENERATED_(87)
  6
Continuous
 62
     7
100
AcDbCircle
 10
21.6937128413
 20
195.4138573026
 30
0.0
 40
0.4937924447717582
100
AcDbArc
 50
201.8799194693
 51
248.1199431601
  0
LINE
  5
30B
330
2D9
100
AcDbEntity
  8
$DDT_AUDIT_GENERATED_(87)
  6
Continuous
 62
     7
100
AcDbLine
 10
33.1721096995
 20
172.4798941489
 30
0.0
 11
52.1771096995
 21
172.4798941489
 31
0.0
  0
LINE
  5
30C
330
2D9
100
AcDbEntity
  8
$DDT_AUDIT_GENERATED_(87)
  6
Continuous
 62
     7
100
AcDbLine
 10
52.1771096995
 20
150.0243811466
 30
0.0
 11
33.1721096995
 21
150.0243811467
 31
0.0
  0
ARC
  5
30D
330
2D9
100
AcDbEntity
  8
$DDT_AUDIT_GENERATED_(87)
  6
Continuous
 62
     7
100
AcDbCircle
 10
33.1668996898
 20
170.4902742786
 30
0.0
 40
1.993017329276647
100
AcDbArc
 50
168.8520888059
 51
174.4110603104
  0
ARC
  5
30E
330
2D9
100
AcDbEntity
  8
$DDT_AUDIT_GENERATED_(87)
  6
Continuous
 62
     7
100
AcDbCircle
 10
33.1668996898
 20
170.4902742786
 30
0.0
 40
1.993017329276647
100
AcDbArc
 50
89.232622953
 51
103.1573140395
  0
LINE
  5
30F
330
2D9
100
AcDbEntity
  8
$DDT_AUDIT_GENERATED_(87)
  6
Continuous
 62
     7
100
AcDbLine
 10
54.1557716663
 20
170.7308261519
 30
0.0
 11
54.16586267
 21
170.6843757917
 31
0.0
  0
ARC
  5
310
330
2D9
100
AcDbEntity
  8
$DDT_AUDIT_GENERATED_(87)
  6
Continuous
 62
     7
100
AcDbCircle
 10
52.1902341361
 20
170.5049408949
 30
0.0
 40
1.978474647800244
100
AcDbArc
 50
78.4447594358
 51
91.0022440296
  0
ARC
  5
311
330
2D9
100
AcDbEntity
  8
$DDT_AUDIT_GENERATED_(87)
  6
Continuous
 62
     7
100
AcDbCircle
 10
52.1902341361
 20
170.5049408949
 30
0.0
 40
1.978474647800244
100
AcDbArc
 50
6.5558360556
 51
10.4894535996
  0
LINE
  5
312
330
2D9
100
AcDbEntity
  8
$DDT_AUDIT_GENERATED_(87)
  6
Continuous
 62
     7
100
AcDbLine
 10
31.166179697
 20
170.8565312375
 30
0.0
 11
31.183356729
 21
171.0499838222
 31
0.0
  0
LINE
  5
313
330
2D9
100
AcDbEntity
  8
$DDT_AUDIT_GENERATED_(87)
  6
Continuous
 62
     7
100
AcDbLine
 10
31.1931909952
 20
151.7629615265
 30
0.0
 11
31.183356729
 21
151.8198995039
 31
0.0
  0
ARC
  5
314
330
2D9
100
AcDbEntity
  8
$DDT_AUDIT_GENERATED_(87)
  6
Continuous
 62
     7
100
AcDbCircle
 10
33.1665197149
 20
152.0096688749
 30
0.0
 40
1.988690713015042
100
AcDbArc
 50
187.1261958581
 51
270.7799950426
  0
LINE
  5
315
330
2D9
100
AcDbEntity
  8
$DDT_AUDIT_GENERATED_(87)
  6
Continuous
 62
     7
100
AcDbLine
 10
54.16586267
 20
171.0499838222
 30
0.0
 11
54.183039702
 21
170.8565312377
 31
0.0
  0
ARC
  5
316
330
2D9
100
AcDbEntity
  8
$DDT_AUDIT_GENERATED_(87)
  6
Continuous
 62
     7
100
AcDbCircle
 10
52.1902341361
 20
151.9993344007
 30
0.0
 40
1.978474647800117
100
AcDbArc
 50
268.9977559704
 51
353.4441639444
  0
LINE
  5
317
330
2D9
100
AcDbEntity
  8
$DDT_AUDIT_GENERATED_(87)
  6
Continuous
 62
     7
100
AcDbLine
 10
54.16586267
 20
151.8198995038
 30
0.0
 11
54.1557716663
 21
151.7734491437
 31
0.0
  0
ARC
  5
318
330
2D9
100
AcDbEntity
  8
$DDT_AUDIT_GENERATED_(87)
  6
Continuous
 62
     7
100
AcDbCircle
 10
63.9017825742
 20
215.0263955424
 30
0.0
 40
0.250000000000021
100
AcDbArc
 50
0.0000000001
 51
2.4433900797
  0
LINE
  5
319
330
2D9
100
AcDbEntity
  8
$DDT_AUDIT_GENERATED_(87)
  6
Continuous
 62
     7
100
AcDbLine
 10
64.151555282
 20
215.0370536117
 30
0.0
 11
63.2370306443
 21
236.4690117925
 31
0.0
  0
LINE
  5
31A
330
2D9
100
AcDbEntity
  8
$DDT_AUDIT_GENERATED_(87)
  6
Continuous
 62
     7
100
AcDbLine
 10
62.7280170026
 20
236.9472101384
 30
0.0
 11
22.6212023964
 21
236.9472101384
 31
0.0
  0
LINE
  5
31B
330
2D9
100
AcDbEntity
  8
$DDT_AUDIT_GENERATED_(87)
  6
Continuous
 62
     7
100
AcDbLine
 10
22.1121887547
 20
236.4690117925
 30
0.0
 11
21.197664117
 21
215.0370536117
 31
0.0
  0
ARC
  5
31C
330
2D9
100
AcDbEntity
  8
$DDT_AUDIT_GENERATED_(87)
  6
Continuous
 62
     7
100
AcDbCircle
 10
21.4474368248
 20
215.0263955424
 30
0.0
 40
0.2499999999931152
100
AcDbArc
 50
177.5566099195
 51
180.0
  0
LINE
  5
31D
330
2D9
100
AcDbEntity
  8
$DDT_AUDIT_GENERATED_(AE)
  6
Continuous
 62
     7
100
AcDbLine
 10
67.0746096995
 20
190.35
 30
0.0
 11
64.1746096995
 21
190.35
 31
0.0
  0
LINE
  5
31E
330
2D9
100
AcDbEntity
  8
$DDT_AUDIT_GENERATED_(AE)
  6
Continuous
 62
     7
100
AcDbLine
 10
21.1746096995
 20
190.35
 30
0.0
 11
18.2746096995
 21
190.35
 31
0.0
  0
ARC
  5
31F
330
2D9
100
AcDbEntity
  8
$DDT_AUDIT_GENERATED_(AE)
  6
Continuous
 62
     7
100
AcDbCircle
 10
18.2746096995
 20
191.95
 30
0.0
 40
1.600000000000001
100
AcDbArc
 50
180.0
 51
270.0
  0
ARC
  5
320
330
2D9
100
AcDbEntity
  8
$DDT_AUDIT_GENERATED_(AE)
  6
Continuous
 62
     7
100
AcDbCircle
 10
67.0746096995
 20
191.95
 30
0.0
 40
1.600000000000001
100
AcDbArc
 50
270.0
 51
0.0
  0
LINE
  5
321
330
2D9
100
AcDbEntity
  8
$DDT_AUDIT_GENERATED_(AE)
  6
Continuous
 62
     7
100
AcDbLine
 10
16.6746096995
 20
191.95
 30
0.0
 11
16.6746096995
 21
240.75
 31
0.0
  0
LINE
  5
322
330
2D9
100
AcDbEntity
  8
$DDT_AUDIT_GENERATED_(AE)
  6
Continuous
 62
     7
100
AcDbLine
 10
68.6746096995
 20
240.75
 30
0.0
 11
68.6746096995
 21
191.95
 31
0.0
  0
ARC
  5
323
330
2D9
100
AcDbEntity
  8
$DDT_AUDIT_GENERATED_(AE)
  6
Continuous
 62
     7
100
AcDbCircle
 10
18.2746096995
 20
240.75
 30
0.0
 40
1.599999999999997
100
AcDbArc
 50
90.0
 51
180.0
  0
ARC
  5
324
330
2D9
100
AcDbEntity
  8
$DDT_AUDIT_GENERATED_(AE)
  6
Continuous
 62
     7
100
AcDbCircle
 10
67.0746096995
 20
240.75
 30
0.0
 40
1.600000000000001
100
AcDbArc
 50
0.0
 51
90.0
  0
LINE
  5
325
330
2D9
100
AcDbEntity
  8
$DDT_AUDIT_GENERATED_(AE)
  6
Continuous
 62
     7
100
AcDbLine
 10
18.2746096995
 20
242.35
 30
0.0
 11
40.6746096995
 21
242.35
 31
0.0
  0
LINE
  5
326
330
2D9
100
AcDbEntity
  8
$DDT_AUDIT_GENERATED_(AE)
  6
Continuous
 62
     7
100
AcDbLine
 10
44.6746096995
 20
242.35
 30
0.0
 11
67.0746096995
 21
242.35
 31
0.0
  0
ELLIPSE
  5
327
330
2D9
100
AcDbEntity
  8
$DDT_AUDIT_GENERATED_(2CF)
  6
Continuous
 62
     7
100
AcDbEllipse
 10
42.6746096995
 20
241.8338002182
 30
0.0
 11
2.0
 21
0.0
 31
0.0
210
0.0
220
0.0
230
1.0
 40
0.9510565163
 41
3.141592653589793
 42
6.283185307179586
  0
LINE
  5
328
330
2D9
100
AcDbEntity
  8
$DDT_AUDIT_GENERATED_(2CF)
  6
Continuous
 62
     7
100
AcDbLine
 10
44.6746096995
 20
244.6869697671
 30
0.0
 11
44.6746096995
 21
256.057342183
 31
0.0
  0
LINE
  5
329
330
2D9
100
AcDbEntity
  8
$DDT_AUDIT_GENERATED_(2CF)
  6
Continuous
 62
     7
100
AcDbLine
 10
40.6746096995
 20
256.057342183
 30
0.0
 11
40.6746096995
 21
244.6869697671
 31
0.0
  0
LINE
  5
32A
330
2D9
100
AcDbEntity
  8
$DDT_AUDIT_GENERATED_(2CF)
  6
Continuous
 62
     7
100
AcDbLine
 10
40.6746096995
 20
244.6869697671
 30
0.0
 11
40.6746096995
 21
241.8338002182
 31
0.0
  0
LINE
  5
32B
330
2D9
100
AcDbEntity
  8
$DDT_AUDIT_GENERATED_(2CF)
  6
Continuous
 62
     7
100
AcDbLine
 10
44.6746096995
 20
241.8338002182
 30
0.0
 11
44.6746096995
 21
244.6869697671
 31
0.0
  0
LINE
  5
32C
330
2D9
100
AcDbEntity
  8
$DDT_AUDIT_GENERATED_(2CF)
  6
Continuous
 62
     7
100
AcDbLine
 10
44.6746096995
 20
237.85
 30
0.0
 11
44.6746096995
 21
241.8338002182
 31
0.0
  0
LINE
  5
32D
330
2D9
100
AcDbEntity
  8
$DDT_AUDIT_GENERATED_(2CF)
  6
Continuous
 62
     7
100
AcDbLine
 10
40.6746096995
 20
241.8338002182
 30
0.0
 11
40.6746096995
 21
237.85
 31
0.0
  0
ARC
  5
32E
330
2D9
100
AcDbEntity
  8
$DDT_AUDIT_GENERATED_(2CF)
  6
Continuous
 62
     7
100
AcDbCircle
 10
42.6746096995
 20
256.057342183
 30
0.0
 40
2.000000000000002
100
AcDbArc
 50
0.0
 51
180.0
  0
ENDBLK
  5
330
330
2D9
100
AcDbEntity
  8
0
100
AcDbBlockEnd
  0
ENDSEC
  0
SECTION
  2
ENTITIES
  0
INSERT
  5
5F
330
1F
100
AcDbEntity
  8
Default
100
AcDbBlockReference
  2
SEANNOT_GROUP
 10
0.0
 20
0.0
 30
0.0
  0
INSERT
  5
66
330
1F
100
AcDbEntity
  8
Default
100
AcDbBlockReference
  2
SEANNOT_GROUP1
 10
0.0
 20
0.0
 30
0.0
  0
LINE
  5
6B
330
1F
100
AcDbEntity
  8
Default
  6
Continuous
 62
     7
100
AcDbLine
 10
39.0720902717
 20
216.35
 30
0.0
 11
46.2771291273
 21
216.35
 31
0.0
  0
INSERT
  5
6D
330
1F
100
AcDbEntity
  8
Default
100
AcDbBlockReference
  2
SEANNOT_GROUP2
 10
0.0
 20
0.0
 30
0.0
  0
INSERT
  5
73
330
1F
100
AcDbEntity
  8
Default
100
AcDbBlockReference
  2
SE
 10
0.0
 20
0.0
 30
0.0
  0
INSERT
  5
266
330
1F
100
AcDbEntity
  8
Default
100
AcDbBlockReference
  2
SE1
 10
0.0
 20
0.0
 30
0.0
  0
INSERT
  5
2DA
330
1F
100
AcDbEntity
  8
Default
100
AcDbBlockReference
  2
SE2
 10
0.0
 20
0.0
 30
0.0
  0
TEXT
  5
332
330
1F
100
AcDbEntity
  8
Default
  6
Continuous
 62
     7
100
AcDbText
 10
5.9362635081
 20
53.4225120485
 30
0.0
 40
10.0
  1
Grohe AG^J
  7
SEACAD_seiso_ttf
 11
5.9362635081
 21
63.4225120485
 31
0.0
100
AcDbText
 73
     3
  0
TEXT
  5
333
330
1F
100
AcDbEntity
  8
Default
  6
Continuous
 62
     7
100
AcDbText
 10
5.9362635081
 20
37.0588756849
 30
0.0
 40
10.0
  1
 
  7
SEACAD_seiso_ttf
 11
5.9362635081
 21
47.0588756849
 31
0.0
100
AcDbText
 73
     3
  0
TEXT
  5
334
330
1F
100
AcDbEntity
  8
Default
  6
Continuous
 62
     7
100
AcDbText
 10
5.9362635081
 20
20.6952393213
 30
0.0
 40
10.0
  1
ecn: 
  7
SEACAD_seiso_ttf
 11
5.9362635081
 21
30.6952393213
 31
0.0
100
AcDbText
 73
     3
  0
TEXT
  5
335
330
1F
100
AcDbEntity
  8
Default
  6
Continuous
 62
     7
100
AcDbText
 10
5.9362635081
 20
4.3316029576
 30
0.0
 40
10.0
  1
unit: mm
  7
SEACAD_seiso_ttf
 11
5.9362635081
 21
14.3316029576
 31
0.0
100
AcDbText
 73
     3
  0
LINE
  5
336
330
1F
100
AcDbEntity
  8
Default
  6
Continuous
 62
     7
100
AcDbLine
 10
0.0
 20
0.0
 30
0.0
 11
100.0
 21
0.0
 31
0.0
  0
LINE
  5
337
330
1F
100
AcDbEntity
  8
Default
  6
Continuous
 62
     7
100
AcDbLine
 10
0.0
 20
0.0
 30
0.0
 11
0.0
 21
100.0
 31
0.0
  0
TEXT
  5
338
330
1F
100
AcDbEntity
  8
Default
  6
Continuous
 62
     7
100
AcDbText
 10
24.3923665681
 20
-18.2375342018
 30
0.0
 40
10.0
  1
100 mm
  7
SEACAD_seiso_ttf
 11
24.3923665681
 21
-8.2375342018
 31
0.0
100
AcDbText
 73
     3
  0
TEXT
  5
339
330
1F
100
AcDbEntity
  8
Default
  6
Continuous
 62
     7
100
AcDbText
 10
-7.6150308803
 20
24.6231930421
 30
0.0
 40
10.0
  1
100 mm
 50
90.0
  7
SEACAD_seiso_ttf
 11
-17.6150308803
 21
24.6231930421
 31
0.0
100
AcDbText
 73
     3
  0
TEXT
  5
33A
330
1F
100
AcDbEntity
  8
Default
  6
Continuous
 62
     7
100
AcDbText
 10
28.4878128572
 20
20.0907663715
 30
0.0
 40
10.0
  1
219987
  7
SEACAD_seiso_ttf
 11
28.4878128572
 21
30.0907663715
 31
0.0
100
AcDbText
 73
     3
  0
TEXT
  5
33B
330
1F
100
AcDbEntity
  8
Default
  6
Continuous
 62
     7
100
AcDbText
 10
5.9012241913
 20
36.7242780188
 30
0.0
 40
10.0
  1
2312700E
  7
SEACAD_seiso_ttf
 11
5.9012241913
 21
46.7242780188
 31
0.0
100
AcDbText
 73
     3
  0
ENDSEC
  0
SECTION
  2
OBJECTS
  0
DICTIONARY
  5
C
330
0
100
AcDbDictionary
281
     1
  3
ACAD_GROUP
350
D
  3
ACAD_LAYOUT
350
1A
  3
ACAD_MLEADERSTYLE
350
33F
  3
ACAD_MLINESTYLE
350
17
  3
ACAD_PLOTSETTINGS
350
19
  3
ACAD_PLOTSTYLENAME
350
E
  3
ACAD_SCALELIST
350
3B
  3
ACAD_TABLESTYLE
350
33E
  3
ACAD_VISUALSTYLE
350
2A
  3
AcDbVariableDictionary
350
33C
  0
DICTIONARY
  5
D
102
{ACAD_REACTORS
330
C
102
}
330
C
100
AcDbDictionary
281
     1
  0
DICTIONARY
  5
1A
102
{ACAD_REACTORS
330
C
102
}
330
C
100
AcDbDictionary
281
     1
  3
Layout1
350
1E
  3
Model
350
22
  0
DICTIONARY
  5
33F
102
{ACAD_REACTORS
330
C
102
}
330
C
100
AcDbDictionary
281
     1
  0
DICTIONARY
  5
17
102
{ACAD_REACTORS
330
C
102
}
330
C
100
AcDbDictionary
281
     1
  3
Standard
350
18
  0
DICTIONARY
  5
19
102
{ACAD_REACTORS
330
C
102
}
330
C
100
AcDbDictionary
281
     1
  0
ACDBDICTIONARYWDFLT
  5
E
102
{ACAD_REACTORS
330
C
102
}
330
C
100
AcDbDictionary
281
     1
  3
Normal
350
F
100
AcDbDictionaryWithDefault
340
F
  0
DICTIONARY
  5
3B
102
{ACAD_REACTORS
330
C
102
}
330
C
100
AcDbDictionary
281
     1
  3
A0
350
3C
  3
A1
350
3D
  3
A2
350
3E
  3
A3
350
3F
  3
A4
350
40
  3
A5
350
41
  3
A6
350
42
  3
A7
350
43
  3
A8
350
44
  3
A9
350
45
  3
B0
350
46
  3
B1
350
47
  3
B2
350
48
  3
B3
350
49
  3
B4
350
4A
  3
B5
350
4B
  3
B6
350
4C
  3
B7
350
4D
  3
B8
350
4E
  3
B9
350
4F
  3
C0
350
50
  3
C1
350
51
  3
C2
350
52
  3
C3
350
53
  3
C4
350
54
  3
C5
350
55
  3
C6
350
56
  3
C7
350
57
  3
C8
350
58
  3
C9
350
59
  3
D0
350
5A
  3
D1
350
5B
  3
D2
350
5C
  0
DICTIONARY
  5
33E
102
{ACAD_REACTORS
330
C
102
}
330
C
100
AcDbDictionary
281
     1
  0
DICTIONARY
  5
2A
102
{ACAD_REACTORS
330
C
102
}
330
C
100
AcDbDictionary
281
     1
  3
2dWireframe
350
2F
  3
3D Hidden
350
31
  3
3dWireframe
350
30
  3
Basic
350
32
  3
Brighten
350
36
  3
ColorChange
350
3A
  3
Conceptual
350
34
  3
Dim
350
35
  3
Facepattern
350
39
  3
Flat
350
2B
  3
FlatWithEdges
350
2C
  3
Gouraud
350
2D
  3
GouraudWithEdges
350
2E
  3
Linepattern
350
38
  3
Realistic
350
33
  3
Thicken
350
37
  0
DICTIONARY
  5
33C
102
{ACAD_REACTORS
330
C
102
}
330
C
100
AcDbDictionary
281
     1
  3
CANNOSCALE
350
33D
  3
PSOLHEIGHT
350
341
  3
PSOLWIDTH
350
340
  0
LAYOUT
  5
1E
102
{ACAD_REACTORS
330
1A
102
}
330
1A
100
AcDbPlotSettings
  1

  2
none_device
  4

  6

 40
0.0
 41
0.0
 42
0.0
 43
0.0
 44
0.0
 45
0.0
 46
0.0
 47
0.0
 48
0.0
 49
0.0
140
0.0
141
0.0
142
1.0
143
1.0
 70
   688
 72
     0
 73
     0
 74
     5
  7

 75
    16
147
1.0
148
0.0
149
0.0
100
AcDbLayout
  1
Layout1
 70
     1
 71
     1
 10
0.0
 20
0.0
 11
1682.0
 21
2378.0
 12
0.0
 22
0.0
 32
0.0
 14
0.0
 24
0.0
 34
0.0
 15
1682.0
 25
2378.0
 35
0.0
146
0.0
 13
0.0
 23
0.0
 33
0.0
 16
1.0
 26
0.0
 36
0.0
 17
0.0
 27
1.0
 37
0.0
 76
     0
330
1B
  0
LAYOUT
  5
22
102
{ACAD_REACTORS
330
1A
102
}
330
1A
100
AcDbPlotSettings
  1

  2
none_device
  4

  6

 40
0.0
 41
0.0
 42
0.0
 43
0.0
 44
0.0
 45
0.0
 46
0.0
 47
0.0
 48
0.0
 49
0.0
140
0.0
141
0.0
142
1.0
143
1.0
 70
  1712
 72
     0
 73
     0
 74
     0
  7

 75
     0
147
1.0
148
0.0
149
0.0
100
AcDbLayout
  1
Model
 70
     1
 71
     0
 10
0.0
 20
0.0
 11
1682.0
 21
2378.0
 12
0.0
 22
0.0
 32
0.0
 14
0.0
 24
0.0
 34
0.0
 15
1682.0
 25
2378.0
 35
0.0
146
0.0
 13
0.0
 23
0.0
 33
0.0
 16
1.0
 26
0.0
 36
0.0
 17
0.0
 27
1.0
 37
0.0
 76
     0
330
1F
331
29
  0
MLINESTYLE
  5
18
102
{ACAD_REACTORS
330
17
102
}
330
17
100
AcDbMlineStyle
  2
Standard
 70
     0
  3

 62
   256
 51
90.0
 52
90.0
 71
     2
 49
0.5
 62
   256
  6
BYLAYER
 49
-0.5
 62
   256
  6
BYLAYER
  0
ACDBPLACEHOLDER
  5
F
102
{ACAD_REACTORS
330
E
102
}
330
E
  0
SCALE
  5
3C
102
{ACAD_REACTORS
330
3B
102
}
330
3B
100
AcDbScale
 70
     0
300
1:1
140
1.0
141
1.0
290
     1
  0
SCALE
  5
3D
102
{ACAD_REACTORS
330
3B
102
}
330
3B
100
AcDbScale
 70
     0
300
1:2
140
1.0
141
2.0
290
     0
  0
SCALE
  5
3E
102
{ACAD_REACTORS
330
3B
102
}
330
3B
100
AcDbScale
 70
     0
300
1:4
140
1.0
141
4.0
290
     0
  0
SCALE
  5
3F
102
{ACAD_REACTORS
330
3B
102
}
330
3B
100
AcDbScale
 70
     0
300
1:5
140
1.0
141
5.0
290
     0
  0
SCALE
  5
40
102
{ACAD_REACTORS
330
3B
102
}
330
3B
100
AcDbScale
 70
     0
300
1:8
140
1.0
141
8.0
290
     0
  0
SCALE
  5
41
102
{ACAD_REACTORS
330
3B
102
}
330
3B
100
AcDbScale
 70
     0
300
1:10
140
1.0
141
10.0
290
     0
  0
SCALE
  5
42
102
{ACAD_REACTORS
330
3B
102
}
330
3B
100
AcDbScale
 70
     0
300
1:16
140
1.0
141
16.0
290
     0
  0
SCALE
  5
43
102
{ACAD_REACTORS
330
3B
102
}
330
3B
100
AcDbScale
 70
     0
300
1:20
140
1.0
141
20.0
290
     0
  0
SCALE
  5
44
102
{ACAD_REACTORS
330
3B
102
}
330
3B
100
AcDbScale
 70
     0
300
1:30
140
1.0
141
30.0
290
     0
  0
SCALE
  5
45
102
{ACAD_REACTORS
330
3B
102
}
330
3B
100
AcDbScale
 70
     0
300
1:40
140
1.0
141
40.0
290
     0
  0
SCALE
  5
46
102
{ACAD_REACTORS
330
3B
102
}
330
3B
100
AcDbScale
 70
     0
300
1:50
140
1.0
141
50.0
290
     0
  0
SCALE
  5
47
102
{ACAD_REACTORS
330
3B
102
}
330
3B
100
AcDbScale
 70
     0
300
1:100
140
1.0
141
100.0
290
     0
  0
SCALE
  5
48
102
{ACAD_REACTORS
330
3B
102
}
330
3B
100
AcDbScale
 70
     0
300
2:1
140
2.0
141
1.0
290
     0
  0
SCALE
  5
49
102
{ACAD_REACTORS
330
3B
102
}
330
3B
100
AcDbScale
 70
     0
300
4:1
140
4.0
141
1.0
290
     0
  0
SCALE
  5
4A
102
{ACAD_REACTORS
330
3B
102
}
330
3B
100
AcDbScale
 70
     0
300
8:1
140
8.0
141
1.0
290
     0
  0
SCALE
  5
4B
102
{ACAD_REACTORS
330
3B
102
}
330
3B
100
AcDbScale
 70
     0
300
10:1
140
10.0
141
1.0
290
     0
  0
SCALE
  5
4C
102
{ACAD_REACTORS
330
3B
102
}
330
3B
100
AcDbScale
 70
     0
300
100:1
140
100.0
141
1.0
290
     0
  0
SCALE
  5
4D
102
{ACAD_REACTORS
330
3B
102
}
330
3B
100
AcDbScale
 70
     0
300
1/128" = 1'-0"
140
0.0078125
141
12.0
290
     0
  0
SCALE
  5
4E
102
{ACAD_REACTORS
330
3B
102
}
330
3B
100
AcDbScale
 70
     0
300
1/64" = 1'-0"
140
0.015625
141
12.0
290
     0
  0
SCALE
  5
4F
102
{ACAD_REACTORS
330
3B
102
}
330
3B
100
AcDbScale
 70
     0
300
1/32" = 1'-0"
140
0.03125
141
12.0
290
     0
  0
SCALE
  5
50
102
{ACAD_REACTORS
330
3B
102
}
330
3B
100
AcDbScale
 70
     0
300
1/16" = 1'-0"
140
0.0625
141
12.0
290
     0
  0
SCALE
  5
51
102
{ACAD_REACTORS
330
3B
102
}
330
3B
100
AcDbScale
 70
     0
300
3/32" = 1'-0"
140
0.09375
141
12.0
290
     0
  0
SCALE
  5
52
102
{ACAD_REACTORS
330
3B
102
}
330
3B
100
AcDbScale
 70
     0
300
1/8" = 1'-0"
140
0.125
141
12.0
290
     0
  0
SCALE
  5
53
102
{ACAD_REACTORS
330
3B
102
}
330
3B
100
AcDbScale
 70
     0
300
3/16" = 1'-0"
140
0.1875
141
12.0
290
     0
  0
SCALE
  5
54
102
{ACAD_REACTORS
330
3B
102
}
330
3B
100
AcDbScale
 70
     0
300
1/4" = 1'-0"
140
0.25
141
12.0
290
     0
  0
SCALE
  5
55
102
{ACAD_REACTORS
330
3B
102
}
330
3B
100
AcDbScale
 70
     0
300
3/8" = 1'-0"
140
0.375
141
12.0
290
     0
  0
SCALE
  5
56
102
{ACAD_REACTORS
330
3B
102
}
330
3B
100
AcDbScale
 70
     0
300
1/2" = 1'-0"
140
0.5
141
12.0
290
     0
  0
SCALE
  5
57
102
{ACAD_REACTORS
330
3B
102
}
330
3B
100
AcDbScale
 70
     0
300
3/4" = 1'-0"
140
0.75
141
12.0
290
     0
  0
SCALE
  5
58
102
{ACAD_REACTORS
330
3B
102
}
330
3B
100
AcDbScale
 70
     0
300
1" = 1'-0"
140
1.0
141
12.0
290
     0
  0
SCALE
  5
59
102
{ACAD_REACTORS
330
3B
102
}
330
3B
100
AcDbScale
 70
     0
300
1-1/2" = 1'-0"
140
1.5
141
12.0
290
     0
  0
SCALE
  5
5A
102
{ACAD_REACTORS
330
3B
102
}
330
3B
100
AcDbScale
 70
     0
300
3" = 1'-0"
140
3.0
141
12.0
290
     0
  0
SCALE
  5
5B
102
{ACAD_REACTORS
330
3B
102
}
330
3B
100
AcDbScale
 70
     0
300
6" = 1'-0"
140
6.0
141
12.0
290
     0
  0
SCALE
  5
5C
102
{ACAD_REACTORS
330
3B
102
}
330
3B
100
AcDbScale
 70
     0
300
1'-0" = 1'-0"
140
12.0
141
12.0
290
     0
  0
VISUALSTYLE
  5
2F
102
{ACAD_REACTORS
330
2A
102
}
330
2A
100
AcDbVisualStyle
  2
2dWireframe
 70
     4
 71
     0
 72
     2
 73
     0
 90
        0
 40
-0.6
 41
-30.0
 62
     5
 63
     7
 74
     1
 91
        4
 64
     7
 65
   257
 75
     1
175
     1
 42
1.0
 92
        0
 66
   257
 43
1.0
 76
     1
 77
     6
 78
     2
 67
     7
 79
     5
170
     0
171
     0
290
     0
174
     0
 93
        1
 44
0.0
173
     0
291
     0
 45
0.0
1001
ACAD
1000
AcDbSavedByObjectVersion
1070
     0
  0
VISUALSTYLE
  5
31
102
{ACAD_REACTORS
330
2A
102
}
330
2A
100
AcDbVisualStyle
  2
3D Hidden
 70
     6
 71
     1
 72
     2
 73
     2
 90
        0
 40
-0.6
 41
-30.0
 62
     5
 63
     7
 74
     2
 91
        2
 64
     7
 65
   257
 75
     2
175
     1
 42
40.0
 92
        0
 66
   257
 43
1.0
 76
     1
 77
     6
 78
     2
 67
     7
 79
     3
170
     0
171
     0
290
     0
174
     0
 93
        1
 44
0.0
173
     0
291
     0
 45
0.0
1001
ACAD
1000
AcDbSavedByObjectVersion
1070
     0
  0
VISUALSTYLE
  5
30
102
{ACAD_REACTORS
330
2A
102
}
330
2A
100
AcDbVisualStyle
  2
3dWireframe
 70
     5
 71
     0
 72
     2
 73
     0
 90
        0
 40
-0.6
 41
-30.0
 62
     5
 63
     7
 74
     1
 91
        4
 64
     7
 65
   257
 75
     1
175
     1
 42
1.0
 92
        0
 66
   257
 43
1.0
 76
     1
 77
     6
 78
     2
 67
     7
 79
     5
170
     0
171
     0
290
     0
174
     0
 93
        1
 44
0.0
173
     0
291
     0
 45
0.0
1001
ACAD
1000
AcDbSavedByObjectVersion
1070
     0
  0
VISUALSTYLE
  5
32
102
{ACAD_REACTORS
330
2A
102
}
330
2A
100
AcDbVisualStyle
  2
Basic
 70
     7
 71
     1
 72
     0
 73
     1
 90
        0
 40
-0.6
 41
-30.0
 62
     5
 63
     7
 74
     0
 91
        4
 64
     7
 65
   257
 75
     1
175
     1
 42
1.0
 92
        8
 66
     7
 43
1.0
 76
     1
 77
     6
 78
     2
 67
     7
 79
     5
170
     0
171
     0
290
     0
174
     0
 93
        1
 44
0.0
173
     0
291
     1
 45
0.0
1001
ACAD
1000
AcDbSavedByObjectVersion
1070
     0
  0
VISUALSTYLE
  5
36
102
{ACAD_REACTORS
330
2A
102
}
330
2A
100
AcDbVisualStyle
  2
Brighten
 70
    12
 71
     2
 72
     2
 73
     0
 90
        0
 40
-0.6
 41
-30.0
 62
     5
 63
     7
 74
     1
 91
        4
 64
     7
 65
   257
 75
     1
175
     1
 42
1.0
 92
        8
 66
     7
 43
1.0
 76
     1
 77
     6
 78
     2
 67
     7
 79
     5
170
     0
171
     0
290
     0
174
     0
 93
        1
 44
50.0
173
     0
291
     1
 45
0.0
1001
ACAD
1000
AcDbSavedByObjectVersion
1070
     0
  0
VISUALSTYLE
  5
3A
102
{ACAD_REACTORS
330
2A
102
}
330
2A
100
AcDbVisualStyle
  2
ColorChange
 70
    16
 71
     2
 72
     2
 73
     3
 90
        0
 40
-0.6
 41
-30.0
 62
     5
 63
     8
 74
     1
 91
        4
 64
     7
 65
   257
 75
     1
175
     1
 42
1.0
 92
        8
 66
     8
 43
1.0
 76
     1
 77
     6
 78
     2
 67
     7
 79
     5
170
     0
171
     0
290
     0
174
     0
 93
        1
 44
0.0
173
     0
291
     1
 45
0.0
1001
ACAD
1000
AcDbSavedByObjectVersion
1070
     0
  0
VISUALSTYLE
  5
34
102
{ACAD_REACTORS
330
2A
102
}
330
2A
100
AcDbVisualStyle
  2
Conceptual
 70
     9
 71
     3
 72
     2
 73
     0
 90
        0
 40
-0.6
 41
-30.0
 62
     5
 63
     7
 74
     2
 91
        2
 64
     7
 65
   257
 75
     1
175
     1
 42
40.0
 92
        8
 66
     7
 43
1.0
 76
     1
 77
     6
 78
     2
 67
     7
 79
     3
170
     0
171
     0
290
     0
174
     0
 93
        1
 44
0.0
173
     0
291
     0
 45
0.0
1001
ACAD
1000
AcDbSavedByObjectVersion
1070
     0
  0
VISUALSTYLE
  5
35
102
{ACAD_REACTORS
330
2A
102
}
330
2A
100
AcDbVisualStyle
  2
Dim
 70
    11
 71
     2
 72
     2
 73
     0
 90
        0
 40
-0.6
 41
-30.0
 62
     5
 63
     7
 74
     1
 91
        4
 64
     7
 65
   257
 75
     1
175
     1
 42
1.0
 92
        8
 66
     7
 43
1.0
 76
     1
 77
     6
 78
     2
 67
     7
 79
     5
170
     0
171
     0
290
     0
174
     0
 93
        1
 44
-50.0
173
     0
291
     1
 45
0.0
1001
ACAD
1000
AcDbSavedByObjectVersion
1070
     0
  0
VISUALSTYLE
  5
39
102
{ACAD_REACTORS
330
2A
102
}
330
2A
100
AcDbVisualStyle
  2
Facepattern
 70
    15
 71
     2
 72
     2
 73
     0
 90
        0
 40
-0.6
 41
-30.0
 62
     5
 63
     7
 74
     1
 91
        4
 64
     7
 65
   257
 75
     1
175
     1
 42
1.0
 92
        8
 66
     7
 43
1.0
 76
     1
 77
     6
 78
     2
 67
     7
 79
     5
170
     0
171
     0
290
     0
174
     0
 93
        1
 44
0.0
173
     0
291
     1
 45
0.0
1001
ACAD
1000
AcDbSavedByObjectVersion
1070
     0
  0
VISUALSTYLE
  5
2B
102
{ACAD_REACTORS
330
2A
102
}
330
2A
100
AcDbVisualStyle
  2
Flat
 70
     0
 71
     2
 72
     1
 73
     1
 90
        2
 40
-0.6
 41
30.0
 62
     5
 63
     7
 74
     0
 91
        4
 64
     7
 65
   257
 75
     1
175
     1
 42
1.0
 92
        8
 66
     7
 43
1.0
 76
     1
 77
     6
 78
     2
 67
     7
 79
     5
170
     0
171
     0
290
     0
174
     0
 93
       13
 44
0.0
173
     0
291
     1
 45
0.0
1001
ACAD
1000
AcDbSavedByObjectVersion
1070
     0
  0
VISUALSTYLE
  5
2C
102
{ACAD_REACTORS
330
2A
102
}
330
2A
100
AcDbVisualStyle
  2
FlatWithEdges
 70
     1
 71
     2
 72
     1
 73
     1
 90
        2
 40
-0.6
 41
30.0
 62
     5
 63
     7
 74
     1
 91
        4
 64
     7
 65
   257
 75
     1
175
     1
 42
1.0
 92
        0
 66
   257
 43
1.0
 76
     1
 77
     6
 78
     2
 67
     7
 79
     5
170
     0
171
     0
290
     0
174
     0
 93
       13
 44
0.0
173
     0
291
     1
 45
0.0
1001
ACAD
1000
AcDbSavedByObjectVersion
1070
     0
  0
VISUALSTYLE
  5
2D
102
{ACAD_REACTORS
330
2A
102
}
330
2A
100
AcDbVisualStyle
  2
Gouraud
 70
     2
 71
     2
 72
     2
 73
     1
 90
        2
 40
-0.6
 41
30.0
 62
     5
 63
     7
 74
     0
 91
        4
 64
     7
 65
   257
 75
     1
175
     1
 42
1.0
 92
        0
 66
     7
 43
1.0
 76
     1
 77
     6
 78
     2
 67
     7
 79
     5
170
     0
171
     0
290
     0
174
     0
 93
       13
 44
0.0
173
     0
291
     1
 45
0.0
1001
ACAD
1000
AcDbSavedByObjectVersion
1070
     0
  0
VISUALSTYLE
  5
2E
102
{ACAD_REACTORS
330
2A
102
}
330
2A
100
AcDbVisualStyle
  2
GouraudWithEdges
 70
     3
 71
     2
 72
     2
 73
     1
 90
        2
 40
-0.6
 41
30.0
 62
     5
 63
     7
 74
     1
 91
        4
 64
     7
 65
   257
 75
     1
175
     1
 42
1.0
 92
        0
 66
   257
 43
1.0
 76
     1
 77
     6
 78
     2
 67
     7
 79
     5
170
     0
171
     0
290
     0
174
     0
 93
       13
 44
0.0
173
     0
291
     1
 45
0.0
1001
ACAD
1000
AcDbSavedByObjectVersion
1070
     0
  0
VISUALSTYLE
  5
38
102
{ACAD_REACTORS
330
2A
102
}
330
2A
100
AcDbVisualStyle
  2
Linepattern
 70
    14
 71
     2
 72
     2
 73
     0
 90
        0
 40
-0.6
 41
-30.0
 62
     5
 63
     7
 74
     1
 91
        4
 64
     7
 65
   257
 75
     7
175
     7
 42
1.0
 92
        8
 66
     7
 43
1.0
 76
     1
 77
     6
 78
     2
 67
     7
 79
     5
170
     0
171
     0
290
     0
174
     0
 93
        1
 44
0.0
173
     0
291
     1
 45
0.0
1001
ACAD
1000
AcDbSavedByObjectVersion
1070
     0
  0
VISUALSTYLE
  5
33
102
{ACAD_REACTORS
330
2A
102
}
330
2A
100
AcDbVisualStyle
  2
Realistic
 70
     8
 71
     2
 72
     2
 73
     0
 90
        0
 40
-0.6
 41
-30.0
 62
     5
 63
     7
 74
     1
 91
        0
 64
     7
 65
   257
 75
     1
175
     1
 42
1.0
 92
        8
 66
     8
 43
1.0
 76
     1
 77
     6
 78
     2
 67
     7
 79
     5
170
     0
171
     0
290
     0
174
     0
 93
       13
 44
0.0
173
     0
291
     0
 45
0.0
1001
ACAD
1000
AcDbSavedByObjectVersion
1070
     0
  0
VISUALSTYLE
  5
37
102
{ACAD_REACTORS
330
2A
102
}
330
2A
100
AcDbVisualStyle
  2
Thicken
 70
    13
 71
     2
 72
     2
 73
     0
 90
        0
 40
-0.6
 41
-30.0
 62
     5
 63
     7
 74
     1
 91
        4
 64
     7
 65
   257
 75
     1
175
     1
 42
1.0
 92
       12
 66
     7
 43
1.0
 76
     1
 77
     6
 78
     2
 67
     7
 79
     5
170
     0
171
     0
290
     0
174
     0
 93
        1
 44
0.0
173
     0
291
     1
 45
0.0
1001
ACAD
1000
AcDbSavedByObjectVersion
1070
     0
  0
DICTIONARYVAR
  5
33D
102
{ACAD_REACTORS
330
33C
102
}
330
33C
100
DictionaryVariables
280
     0
  1
1:1
  0
DICTIONARYVAR
  5
341
102
{ACAD_REACTORS
330
33C
102
}
330
33C
100
DictionaryVariables
280
     0
  1
80.000000
  0
DICTIONARYVAR
  5
340
102
{ACAD_REACTORS
330
33C
102
}
330
33C
100
DictionaryVariables
280
     0
  1
5.000000
  0
ENDSEC
  0
EOF
