  0
SECTION
  2
HEADER
  9
$ACADVER
  1
AC1015
  9
$ACADMAINTVER
 70
     6
  9
$DWGCODEPAGE
  3
ANSI_1252
  9
$INSBASE
 10
0.0
 20
0.0
 30
0.0
  9
$EXTMIN
 10
0.0
 20
0.0
 30
0.0
  9
$EXTMAX
 10
3000.0
 20
4500.0
 30
0.0
  9
$LIMMIN
 10
0.0
 20
0.0
  9
$LIMMAX
 10
3000.0
 20
4500.0
  9
$ORTHOMODE
 70
     0
  9
$REGENMODE
 70
     1
  9
$FILLMODE
 70
     1
  9
$QTEXTMODE
 70
     0
  9
$MIRRTEXT
 70
     1
  9
$LTSCALE
 40
1.0
  9
$ATTMODE
 70
     1
  9
$TEXTSIZE
 40
2.5
  9
$TRACEWID
 40
1.0
  9
$TEXTSTYLE
  7
Standard
  9
$CLAYER
  8
0
  9
$CELTYPE
  6
ByLayer
  9
$CECOLOR
 62
   256
  9
$CELTSCALE
 40
1.0
  9
$DISPSILH
 70
     0
  9
$DIMSCALE
 40
1.0
  9
$DIMASZ
 40
2.5
  9
$DIMEXO
 40
0.625
  9
$DIMDLI
 40
3.75
  9
$DIMRND
 40
0.0
  9
$DIMDLE
 40
0.0
  9
$DIMEXE
 40
1.25
  9
$DIMTP
 40
0.0
  9
$DIMTM
 40
0.0
  9
$DIMTXT
 40
2.5
  9
$DIMCEN
 40
2.5
  9
$DIMTSZ
 40
0.0
  9
$DIMTOL
 70
     0
  9
$DIMLIM
 70
     0
  9
$DIMTIH
 70
     0
  9
$DIMTOH
 70
     0
  9
$DIMSE1
 70
     0
  9
$DIMSE2
 70
     0
  9
$DIMTAD
 70
     1
  9
$DIMZIN
 70
     8
  9
$DIMBLK
  1

  9
$DIMASO
 70
     1
  9
$DIMSHO
 70
     1
  9
$DIMPOST
  1

  9
$DIMAPOST
  1

  9
$DIMALT
 70
     0
  9
$DIMALTD
 70
     3
  9
$DIMALTF
 40
0.0393700787
  9
$DIMLFAC
 40
1.0
  9
$DIMTOFL
 70
     1
  9
$DIMTVP
 40
0.0
  9
$DIMTIX
 70
     0
  9
$DIMSOXD
 70
     0
  9
$DIMSAH
 70
     0
  9
$DIMBLK1
  1

  9
$DIMBLK2
  1

  9
$DIMSTYLE
  2
ISO-25
  9
$DIMCLRD
 70
     0
  9
$DIMCLRE
 70
     0
  9
$DIMCLRT
 70
     0
  9
$DIMTFAC
 40
1.0
  9
$DIMGAP
 40
0.625
  9
$DIMJUST
 70
     0
  9
$DIMSD1
 70
     0
  9
$DIMSD2
 70
     0
  9
$DIMTOLJ
 70
     0
  9
$DIMTZIN
 70
     8
  9
$DIMALTZ
 70
     0
  9
$DIMALTTZ
 70
     0
  9
$DIMUPT
 70
     0
  9
$DIMDEC
 70
     2
  9
$DIMTDEC
 70
     2
  9
$DIMALTU
 70
     2
  9
$DIMALTTD
 70
     3
  9
$DIMTXSTY
  7
Standard
  9
$DIMAUNIT
 70
     0
  9
$DIMADEC
 70
     0
  9
$DIMALTRND
 40
0.0
  9
$DIMAZIN
 70
     0
  9
$DIMDSEP
 70
    44
  9
$DIMATFIT
 70
     3
  9
$DIMFRAC
 70
     0
  9
$DIMLDRBLK
  1

  9
$DIMLUNIT
 70
     2
  9
$DIMLWD
 70
    -2
  9
$DIMLWE
 70
    -2
  9
$DIMTMOVE
 70
     0
  9
$LUNITS
 70
     2
  9
$LUPREC
 70
     4
  9
$SKETCHINC
 40
1.0
  9
$FILLETRAD
 40
10.0
  9
$AUNITS
 70
     0
  9
$AUPREC
 70
     0
  9
$MENU
  1
.
  9
$ELEVATION
 40
0.0
  9
$PELEVATION
 40
0.0
  9
$THICKNESS
 40
0.0
  9
$LIMCHECK
 70
     0
  9
$CHAMFERA
 40
10.0
  9
$CHAMFERB
 40
10.0
  9
$CHAMFERC
 40
20.0
  9
$CHAMFERD
 40
0.0
  9
$SKPOLY
 70
     0
  9
$TDCREATE
 40
2456748.438689028
  9
$TDUCREATE
 40
2456748.355355694
  9
$TDUPDATE
 40
2456748.43868904
  9
$TDUUPDATE
 40
2456748.355355706
  9
$TDINDWG
 40
0.0000000116
  9
$TDUSRTIMER
 40
0.0000000116
  9
$USRTIMER
 70
     1
  9
$ANGBASE
 50
0.0
  9
$ANGDIR
 70
     0
  9
$PDMODE
 70
     0
  9
$PDSIZE
 40
0.0
  9
$PLINEWID
 40
0.0
  9
$SPLFRAME
 70
     0
  9
$SPLINETYPE
 70
     6
  9
$SPLINESEGS
 70
     8
  9
$HANDSEED
  5
18B
  9
$SURFTAB1
 70
     6
  9
$SURFTAB2
 70
     6
  9
$SURFTYPE
 70
     6
  9
$SURFU
 70
     6
  9
$SURFV
 70
     6
  9
$UCSBASE
  2

  9
$UCSNAME
  2

  9
$UCSORG
 10
0.0
 20
0.0
 30
0.0
  9
$UCSXDIR
 10
1.0
 20
0.0
 30
0.0
  9
$UCSYDIR
 10
0.0
 20
1.0
 30
0.0
  9
$UCSORTHOREF
  2

  9
$UCSORTHOVIEW
 70
     0
  9
$UCSORGTOP
 10
0.0
 20
0.0
 30
0.0
  9
$UCSORGBOTTOM
 10
0.0
 20
0.0
 30
0.0
  9
$UCSORGLEFT
 10
0.0
 20
0.0
 30
0.0
  9
$UCSORGRIGHT
 10
0.0
 20
0.0
 30
0.0
  9
$UCSORGFRONT
 10
0.0
 20
0.0
 30
0.0
  9
$UCSORGBACK
 10
0.0
 20
0.0
 30
0.0
  9
$PUCSBASE
  2

  9
$PUCSNAME
  2

  9
$PUCSORG
 10
0.0
 20
0.0
 30
0.0
  9
$PUCSXDIR
 10
1.0
 20
0.0
 30
0.0
  9
$PUCSYDIR
 10
0.0
 20
1.0
 30
0.0
  9
$PUCSORTHOREF
  2

  9
$PUCSORTHOVIEW
 70
     0
  9
$PUCSORGTOP
 10
0.0
 20
0.0
 30
0.0
  9
$PUCSORGBOTTOM
 10
0.0
 20
0.0
 30
0.0
  9
$PUCSORGLEFT
 10
0.0
 20
0.0
 30
0.0
  9
$PUCSORGRIGHT
 10
0.0
 20
0.0
 30
0.0
  9
$PUCSORGFRONT
 10
0.0
 20
0.0
 30
0.0
  9
$PUCSORGBACK
 10
0.0
 20
0.0
 30
0.0
  9
$USERI1
 70
     0
  9
$USERI2
 70
     0
  9
$USERI3
 70
     0
  9
$USERI4
 70
     0
  9
$USERI5
 70
     0
  9
$USERR1
 40
0.0
  9
$USERR2
 40
0.0
  9
$USERR3
 40
0.0
  9
$USERR4
 40
0.0
  9
$USERR5
 40
0.0
  9
$WORLDVIEW
 70
     1
  9
$SHADEDGE
 70
     3
  9
$SHADEDIF
 70
    70
  9
$TILEMODE
 70
     1
  9
$MAXACTVP
 70
    64
  9
$PINSBASE
 10
0.0
 20
0.0
 30
0.0
  9
$PLIMCHECK
 70
     0
  9
$PEXTMIN
 10
0.0
 20
0.0
 30
0.0
  9
$PEXTMAX
 10
3000.0
 20
4500.0
 30
0.0
  9
$PLIMMIN
 10
0.0
 20
0.0
  9
$PLIMMAX
 10
3000.0
 20
4500.0
  9
$UNITMODE
 70
     0
  9
$VISRETAIN
 70
     1
  9
$PLINEGEN
 70
     0
  9
$PSLTSCALE
 70
     1
  9
$TREEDEPTH
 70
  3020
  9
$CMLSTYLE
  2
Standard
  9
$CMLJUST
 70
     0
  9
$CMLSCALE
 40
20.0
  9
$PROXYGRAPHICS
 70
     1
  9
$MEASUREMENT
 70
     1
  9
$CELWEIGHT
370
    -1
  9
$ENDCAPS
280
     0
  9
$JOINSTYLE
280
     0
  9
$LWDISPLAY
290
     0
  9
$INSUNITS
 70
     4
  9
$HYPERLINKBASE
  1

  9
$STYLESHEET
  1

  9
$XEDIT
290
     1
  9
$CEPSNTYPE
380
     0
  9
$PSTYLEMODE
290
     1
  9
$FINGERPRINTGUID
  2
{030E5310-7ECD-4839-97D7-FC8FC3F679B6}
  9
$VERSIONGUID
  2
{FAEB1C32-E019-11D5-929B-00C0DF256EC4}
  9
$EXTNAMES
290
     1
  9
$PSVPSCALE
 40
0.0
  9
$OLESTARTUP
290
     0
  0
ENDSEC
  0
SECTION
  2
CLASSES
  0
CLASS
  1
ACDBDICTIONARYWDFLT
  2
AcDbDictionaryWithDefault
  3
ObjectDBX Classes
 90
        0
280
     0
281
     0
  0
CLASS
  1
VISUALSTYLE
  2
AcDbVisualStyle
  3
ObjectDBX Classes
 90
     4095
280
     0
281
     0
  0
CLASS
  1
SCALE
  2
AcDbScale
  3
ObjectDBX Classes
 90
     1153
280
     0
281
     0
  0
CLASS
  1
DICTIONARYVAR
  2
AcDbDictionaryVar
  3
ObjectDBX Classes
 90
        0
280
     0
281
     0
  0
CLASS
  1
ACDBPLACEHOLDER
  2
AcDbPlaceHolder
  3
ObjectDBX Classes
 90
        0
280
     0
281
     0
  0
CLASS
  1
LAYOUT
  2
AcDbLayout
  3
ObjectDBX Classes
 90
        0
280
     0
281
     0
  0
ENDSEC
  0
SECTION
  2
TABLES
  0
TABLE
  2
VPORT
  5
8
330
0
100
AcDbSymbolTable
 70
     1
  0
VPORT
  5
29
330
8
100
AcDbSymbolTableRecord
100
AcDbViewportTableRecord
  2
*Active
 70
     0
 10
0.0
 20
0.0
 11
1.0
 21
1.0
 12
344.1869158879
 22
148.5
 13
0.0
 23
0.0
 14
10.0
 24
10.0
 15
10.0
 25
10.0
 16
0.0
 26
0.0
 36
1.0
 17
0.0
 27
0.0
 37
0.0
 40
297.0
 41
1.9729729729
 42
50.0
 43
0.0
 44
0.0
 50
0.0
 51
0.0
 71
     0
 72
   100
 73
     1
 74
     3
 75
     0
 76
     0
 77
     0
 78
     0
281
     0
 65
     1
110
0.0
120
0.0
130
0.0
111
1.0
121
0.0
131
0.0
112
0.0
122
1.0
132
0.0
 79
     0
146
0.0
  0
ENDTAB
  0
TABLE
  2
LTYPE
  5
5
330
0
100
AcDbSymbolTable
 70
     2
  0
LTYPE
  5
14
330
5
100
AcDbSymbolTableRecord
100
AcDbLinetypeTableRecord
  2
ByBlock
 70
     0
  3

 72
    65
 73
     0
 40
0.0
  0
LTYPE
  5
15
330
5
100
AcDbSymbolTableRecord
100
AcDbLinetypeTableRecord
  2
ByLayer
 70
     0
  3

 72
    65
 73
     0
 40
0.0
  0
LTYPE
  5
16
330
5
100
AcDbSymbolTableRecord
100
AcDbLinetypeTableRecord
  2
Continuous
 70
     0
  3
Solid line
 72
    65
 73
     0
 40
0.0
  0
LTYPE
  5
7B
330
5
100
AcDbSymbolTableRecord
100
AcDbLinetypeTableRecord
  2
CENTER2
 70
     0
  3
Center (.5x) ___ _ ___ _ ___ _ ___ _ ___ _ ___
 72
    65
 73
     4
 40
28.575
 49
19.05
 74
     4
 75
     0
340
0
 46
0.0
 50
0.0
 44
0.0
 45
0.0
 49
-3.175
 74
     4
 75
     0
340
0
 46
0.0
 50
0.0
 44
0.0
 45
0.0
 49
3.175
 74
     4
 75
     0
340
0
 46
0.0
 50
0.0
 44
0.0
 45
0.0
 49
-3.175
 74
     4
 75
     0
340
0
 46
0.0
 50
0.0
 44
0.0
 45
0.0
  0
ENDTAB
  0
TABLE
  2
LAYER
  5
2
330
0
100
AcDbSymbolTable
 70
    13
  0
LAYER
  5
10
330
2
100
AcDbSymbolTableRecord
100
AcDbLayerTableRecord
  2
0
 70
     0
 62
     7
  6
Continuous
370
    -3
390
F
  0
LAYER
  5
5D
330
2
100
AcDbSymbolTableRecord
100
AcDbLayerTableRecord
  2
Default
 70
     0
 62
     7
  6
Continuous
370
    -3
390
F
  0
LAYER
  5
60
330
2
100
AcDbSymbolTableRecord
100
AcDbLayerTableRecord
  2
$DDT_AUDIT_GENERATED_(60)
 70
     0
 62
     7
  6
Continuous
370
    -3
390
F
  0
LAYER
  5
68
330
2
100
AcDbSymbolTableRecord
100
AcDbLayerTableRecord
  2
$DDT_AUDIT_GENERATED_(68)
 70
     0
 62
     7
  6
Continuous
370
    -3
390
F
  0
LAYER
  5
6C
330
2
100
AcDbSymbolTableRecord
100
AcDbLayerTableRecord
  2
$DDT_AUDIT_GENERATED_(6C)
 70
     0
 62
     7
  6
Continuous
370
    -3
390
F
  0
LAYER
  5
7A
330
2
100
AcDbSymbolTableRecord
100
AcDbLayerTableRecord
  2
DV1_Default
 70
     0
 62
     7
  6
Continuous
370
    -3
390
F
  0
LAYER
  5
97
330
2
100
AcDbSymbolTableRecord
100
AcDbLayerTableRecord
  2
$DDT_AUDIT_GENERATED_(97)
 70
     0
 62
     7
  6
Continuous
370
    -3
390
F
  0
LAYER
  5
A6
330
2
100
AcDbSymbolTableRecord
100
AcDbLayerTableRecord
  2
$DDT_AUDIT_GENERATED_(A6)
 70
     0
 62
     7
  6
Continuous
370
    -3
390
F
  0
LAYER
  5
C8
330
2
100
AcDbSymbolTableRecord
100
AcDbLayerTableRecord
  2
$DDT_AUDIT_GENERATED_(C8)
 70
     0
 62
     7
  6
Continuous
370
    -3
390
F
  0
LAYER
  5
E4
330
2
100
AcDbSymbolTableRecord
100
AcDbLayerTableRecord
  2
$DDT_AUDIT_GENERATED_(E4)
 70
     0
 62
     7
  6
Continuous
370
    -3
390
F
  0
LAYER
  5
EE
330
2
100
AcDbSymbolTableRecord
100
AcDbLayerTableRecord
  2
$DDT_AUDIT_GENERATED_(EE)
 70
     0
 62
     7
  6
Continuous
370
    -3
390
F
  0
LAYER
  5
F0
330
2
100
AcDbSymbolTableRecord
100
AcDbLayerTableRecord
  2
DV2_Default
 70
     0
 62
     7
  6
Continuous
370
    -3
390
F
  0
LAYER
  5
173
330
2
100
AcDbSymbolTableRecord
100
AcDbLayerTableRecord
  2
DV3_Default
 70
     0
 62
     7
  6
Continuous
370
    -3
390
F
  0
ENDTAB
  0
TABLE
  2
STYLE
  5
3
330
0
100
AcDbSymbolTable
 70
     2
  0
STYLE
  5
11
330
3
100
AcDbSymbolTableRecord
100
AcDbTextStyleTableRecord
  2
Standard
 70
     0
 40
0.0
 41
1.0
 50
0.0
 71
     0
 42
2.5
  3
txt
  4

  0
STYLE
  5
17A
330
3
100
AcDbSymbolTableRecord
100
AcDbTextStyleTableRecord
  2
SEACAD_seiso_ttf
 70
     0
 40
0.0
 41
1.0
 50
0.0
 71
     0
 42
0.2
  3
seiso.ttf
  4

  0
ENDTAB
  0
TABLE
  2
VIEW
  5
6
330
0
100
AcDbSymbolTable
 70
     0
  0
ENDTAB
  0
TABLE
  2
UCS
  5
7
330
0
100
AcDbSymbolTable
 70
     0
  0
ENDTAB
  0
TABLE
  2
APPID
  5
9
330
0
100
AcDbSymbolTable
 70
     1
  0
APPID
  5
12
330
9
100
AcDbSymbolTableRecord
100
AcDbRegAppTableRecord
  2
ACAD
 70
     0
  0
ENDTAB
  0
TABLE
  2
DIMSTYLE
  5
A
330
0
100
AcDbSymbolTable
 70
     1
100
AcDbDimStyleTable
  0
DIMSTYLE
105
27
330
A
100
AcDbSymbolTableRecord
100
AcDbDimStyleTableRecord
  2
ISO-25
 70
     0
 41
2.5
 42
0.625
 43
3.75
 44
1.25
 73
     0
 74
     0
 77
     1
 78
     8
140
2.5
141
2.5
143
0.0393700787
147
0.625
171
     3
172
     1
271
     2
272
     2
274
     3
278
    44
283
     0
284
     8
340
11
  0
ENDTAB
  0
TABLE
  2
BLOCK_RECORD
  5
1
330
0
100
AcDbSymbolTable
 70
     4
  0
BLOCK_RECORD
  5
1F
330
1
100
AcDbSymbolTableRecord
100
AcDbBlockTableRecord
  2
*Model_Space
340
22
  0
BLOCK_RECORD
  5
1B
330
1
100
AcDbSymbolTableRecord
100
AcDbBlockTableRecord
  2
*Paper_Space
340
1E
  0
BLOCK_RECORD
  5
5E
330
1
100
AcDbSymbolTableRecord
100
AcDbBlockTableRecord
  2
SE
340
0
102
{BLKREFS
331
5F
102
}
  0
BLOCK_RECORD
  5
8A
330
1
100
AcDbSymbolTableRecord
100
AcDbBlockTableRecord
  2
SE1
340
0
102
{BLKREFS
331
8B
102
}
  0
BLOCK_RECORD
  5
F7
330
1
100
AcDbSymbolTableRecord
100
AcDbBlockTableRecord
  2
SE2
340
0
102
{BLKREFS
331
F8
102
}
  0
ENDTAB
  0
ENDSEC
  0
SECTION
  2
BLOCKS
  0
BLOCK
  5
20
330
1F
100
AcDbEntity
  8
0
100
AcDbBlockBegin
  2
*Model_Space
 70
     0
 10
0.0
 20
0.0
 30
0.0
  3
*Model_Space
  1

  0
ENDBLK
  5
21
330
1F
100
AcDbEntity
  8
0
100
AcDbBlockEnd
  0
BLOCK
  5
1C
330
1B
100
AcDbEntity
 67
     1
  8
0
100
AcDbBlockBegin
  2
*Paper_Space
 70
     0
 10
0.0
 20
0.0
 30
0.0
  3
*Paper_Space
  1

  0
ENDBLK
  5
1D
330
1B
100
AcDbEntity
 67
     1
  8
0
100
AcDbBlockEnd
  0
BLOCK
  5
88
330
5E
100
AcDbEntity
  8
0
100
AcDbBlockBegin
  2
SE
 70
     0
 10
0.0
 20
0.0
 30
0.0
  3
SE
  1

  0
LINE
  5
61
330
5E
100
AcDbEntity
  8
$DDT_AUDIT_GENERATED_(60)
  6
Continuous
 62
     7
100
AcDbLine
 10
95.9263635533
 20
408.3133543598
 30
0.0
 11
96.32308427
 21
407.8480195423
 31
0.0
  0
ARC
  5
62
330
5E
100
AcDbEntity
  8
$DDT_AUDIT_GENERATED_(60)
  6
Continuous
 62
     7
100
AcDbCircle
 10
116.3499976847
 20
425.4732620077
 30
0.0
 40
26.6755929946834
100
AcDbArc
 50
313.4085904313
 51
319.9647372062
  0
ARC
  5
63
330
5E
100
AcDbEntity
  8
$DDT_AUDIT_GENERATED_(60)
  6
Continuous
 62
     7
100
AcDbCircle
 10
116.3499976847
 20
425.4732620077
 30
0.0
 40
26.6755929946834
100
AcDbArc
 50
220.0369282365
 51
226.5345347345
  0
SPLINE
  5
64
330
5E
100
AcDbEntity
  8
$DDT_AUDIT_GENERATED_(60)
  6
Continuous
 62
     7
100
AcDbSpline
210
0.0
220
0.0
230
1.0
 70
     8
 71
     3
 72
    70
 73
    66
 74
     0
 42
0.0000000000290666
 43
0.0000000001
 40
0.0
 40
0.0
 40
0.0
 40
0.0
 40
0.0624999999999998
 40
0.0624999999999998
 40
0.0937499999999997
 40
0.0937499999999997
 40
0.1249999999999996
 40
0.1249999999999996
 40
0.1406249999999996
 40
0.1406249999999996
 40
0.1562499999999995
 40
0.1562499999999995
 40
0.1718749999999995
 40
0.1718749999999995
 40
0.1874999999999995
 40
0.1874999999999995
 40
0.2031249999999995
 40
0.2031249999999995
 40
0.2187499999999994
 40
0.2187499999999994
 40
0.2343749999999994
 40
0.2343749999999994
 40
0.2499999999999994
 40
0.2499999999999994
 40
0.2656249999999993
 40
0.2656249999999993
 40
0.2812499999999993
 40
0.2812499999999993
 40
0.3124999999999993
 40
0.3124999999999993
 40
0.3749999999999994
 40
0.3749999999999994
 40
0.4999999999999996
 40
0.4999999999999996
 40
0.6249999999999997
 40
0.6249999999999997
 40
0.6874999999999997
 40
0.6874999999999997
 40
0.7187499999999996
 40
0.7187499999999996
 40
0.7343749999999997
 40
0.7343749999999997
 40
0.7499999999999997
 40
0.7499999999999997
 40
0.7578124999999997
 40
0.7578124999999997
 40
0.7656249999999997
 40
0.7656249999999997
 40
0.7812499999999997
 40
0.7812499999999997
 40
0.8124999999999997
 40
0.8124999999999997
 40
0.8281249999999996
 40
0.8281249999999996
 40
0.8437499999999996
 40
0.8437499999999996
 40
0.8593749999999994
 40
0.8593749999999994
 40
0.8749999999999994
 40
0.8749999999999994
 40
0.9062499999999996
 40
0.9062499999999996
 40
0.9374999999999997
 40
0.9374999999999997
 40
1.0
 40
1.0
 40
1.0
 40
1.0
 10
89.0061399383615
 20
411.2710438900405
 30
0.0
 10
81.95534790168118
 20
411.4263741017812
 30
0.0
 10
74.90738991524839
 20
411.6510273454353
 30
0.0
 10
64.34487527158592
 20
412.2184677644763
 30
0.0
 10
60.82343949514637
 20
412.4463062916161
 30
0.0
 10
53.8042618299725
 20
413.0357262747239
 30
0.0
 10
50.30417856129328
 20
413.3895296718175
 30
0.0
 10
45.09409308865499
 20
414.169148595195
 30
0.0
 10
43.36423490304349
 20
414.4715250927611
 30
0.0
 10
39.93188483976111
 20
415.2464066935149
 30
0.0
 10
38.22871241214811
 20
415.7146810099644
 30
0.0
 10
34.88324910274816
 20
417.0297130145316
 30
0.0
 10
33.2834817144625
 20
417.8720388918279
 30
0.0
 10
30.44528248092089
 20
420.0977435113562
 30
0.0
 10
29.25111413450426
 20
421.4532631362844
 30
0.0
 10
27.40460201299785
 20
424.5433356984396
 30
0.0
 10
26.76100740236842
 20
426.2405303636531
 30
0.0
 10
26.0420600831258
 20
429.7855735562617
 30
0.0
 10
25.97399723021296
 20
431.5800590581366
 30
0.0
 10
26.45128649850864
 20
435.1648846502153
 30
0.0
 10
26.9878709896781
 20
436.8783146575332
 30
0.0
 10
28.67537659747604
 20
440.0742374876417
 30
0.0
 10
29.80253394446221
 20
441.4757640801265
 30
0.0
 10
32.5958611285845
 20
443.7865075415958
 30
0.0
 10
34.17315414966097
 20
444.6398907132069
 30
0.0
 10
37.49712607470626
 20
446.0208165141215
 30
0.0
 10
39.21790436899579
 20
446.5411276376814
 30
0.0
 10
44.39524069725709
 20
447.8701611743743
 30
0.0
 10
47.90564321691311
 20
448.4688322578144
 30
0.0
 10
58.48432089333582
 20
450.0330398104154
 30
0.0
 10
65.59461662243274
 20
450.7252796771438
 30
0.0
 10
86.88341786987549
 20
452.4738976805875
 30
0.0
 10
101.0943423442854
 20
453.1346055841597
 30
0.0
 10
129.5620518394206
 20
453.1965922006663
 30
0.0
 10
143.8377785424213
 20
452.5805213371083
 30
0.0
 10
165.1641533426084
 20
450.9072612186105
 30
0.0
 10
172.2639004643725
 20
450.2407533750085
 30
0.0
 10
182.8749823389412
 20
448.7781809653022
 30
0.0
 10
186.3938787715863
 20
448.2198924074018
 30
0.0
 10
191.5872471896379
 20
447.0507988451433
 30
0.0
 10
193.3039962773705
 20
446.6050006229696
 30
0.0
 10
196.6732155643444
 20
445.462524814409
 30
0.0
 10
198.3501912962415
 20
444.7577898906369
 30
0.0
 10
200.6732482127586
 20
443.2985086729889
 30
0.0
 10
201.3997830159691
 20
442.7526116162193
 30
0.0
 10
202.7373762684853
 20
441.5172011150614
 30
0.0
 10
203.3525706719512
 20
440.8192240514699
 30
0.0
 10
204.9398955939746
 20
438.5955111257381
 30
0.0
 10
205.7034555212168
 20
436.8955594872344
 30
0.0
 10
207.0422044517715
 20
431.5998867833005
 30
0.0
 10
206.6525735030778
 20
427.7305149856763
 30
0.0
 10
204.3709703370617
 20
422.7919249761638
 30
0.0
 10
203.2995634865023
 20
421.2568529504387
 30
0.0
 10
200.6941849407635
 20
418.7358719559795
 30
0.0
 10
199.1281915017521
 20
417.7200716354591
 30
0.0
 10
195.8443473051134
 20
416.1779085345319
 30
0.0
 10
194.0923118362744
 20
415.6153261942412
 30
0.0
 10
190.5680846918213
 20
414.7160744620967
 30
0.0
 10
188.7911140647198
 20
414.3758086415978
 30
0.0
 10
183.4394239016175
 20
413.5079562868842
 30
0.0
 10
179.8445071167925
 20
413.12903798271
 30
0.0
 10
172.6372559738695
 20
412.4994089244412
 30
0.0
 10
169.0220194417512
 20
412.2592560504663
 30
0.0
 10
158.174010990098
 20
411.6626807247408
 30
0.0
 10
150.9353857868388
 20
411.4305762987861
 30
0.0
 10
143.6938600616391
 20
411.2710438900405
 30
0.0
  0
ARC
  5
65
330
5E
100
AcDbEntity
  8
$DDT_AUDIT_GENERATED_(60)
  6
Continuous
 62
     7
100
AcDbCircle
 10
143.9148972575
 20
401.2668200232
 30
0.0
 40
10.00666540958767
100
AcDbArc
 50
91.265709208
 51
138.8767043058
  0
LINE
  5
66
330
5E
100
AcDbEntity
  8
$DDT_AUDIT_GENERATED_(60)
  6
Continuous
 62
     7
100
AcDbLine
 10
136.37691573
 20
407.8480195423
 30
0.0
 11
136.7741290441
 21
408.3139461581
 31
0.0
  0
ARC
  5
67
330
5E
100
AcDbEntity
  8
$DDT_AUDIT_GENERATED_(60)
  6
Continuous
 62
     7
100
AcDbCircle
 10
88.7851027425
 20
401.2668200232
 30
0.0
 40
10.0066654095934
100
AcDbArc
 50
41.1232956942
 51
88.7342907919
  0
ARC
  5
69
330
5E
100
AcDbEntity
  8
$DDT_AUDIT_GENERATED_(68)
  6
Continuous
 62
     7
100
AcDbCircle
 10
191.35
 20
430.7675251671
 30
0.0
 40
35.0
100
AcDbArc
 50
212.6260309582
 51
0.0
  0
ARC
  5
6A
330
5E
100
AcDbEntity
  8
$DDT_AUDIT_GENERATED_(68)
  6
Continuous
 62
     7
100
AcDbCircle
 10
191.35
 20
430.7675251671
 30
0.0
 40
35.0
100
AcDbArc
 50
0.0
 51
144.5185063365
  0
ARC
  5
6B
330
5E
100
AcDbEntity
  8
$DDT_AUDIT_GENERATED_(68)
  6
Continuous
 62
     7
100
AcDbCircle
 10
41.35
 20
430.7675251671
 30
0.0
 40
35.0
100
AcDbArc
 50
35.4948356963
 51
327.313468146
  0
ARC
  5
6D
330
5E
100
AcDbEntity
  8
$DDT_AUDIT_GENERATED_(6C)
  6
Continuous
 62
     7
100
AcDbCircle
 10
116.2263026266
 20
425.6364273085
 30
0.0
 40
23.86081066045725
100
AcDbArc
 50
179.4713151364
 51
209.1559291572
  0
ARC
  5
6E
330
5E
100
AcDbEntity
  8
$DDT_AUDIT_GENERATED_(6C)
  6
Continuous
 62
     7
100
AcDbCircle
 10
116.2389247852
 20
425.9132779486
 30
0.0
 40
23.87246896649358
100
AcDbArc
 50
89.7334098963
 51
180.1328654529
  0
ARC
  5
6F
330
5E
100
AcDbEntity
  8
$DDT_AUDIT_GENERATED_(6C)
  6
Continuous
 62
     7
100
AcDbCircle
 10
116.4610752148
 20
425.9132779486
 30
0.0
 40
23.87246896649356
100
AcDbArc
 50
359.8671345471
 51
90.2665901037
  0
ARC
  5
70
330
5E
100
AcDbEntity
  8
$DDT_AUDIT_GENERATED_(6C)
  6
Continuous
 62
     7
100
AcDbCircle
 10
116.4736973734
 20
425.6364273085
 30
0.0
 40
23.86081066045727
100
AcDbArc
 50
330.6356814322
 51
0.5286848642
  0
SPLINE
  5
71
330
5E
100
AcDbEntity
  8
$DDT_AUDIT_GENERATED_(6C)
  6
Continuous
 62
     7
100
AcDbSpline
210
0.0
220
0.0
230
1.0
 70
     8
 71
     3
 72
    11
 73
     7
 74
     0
 42
0.0000000018499153
 43
0.0000000001
 40
0.0
 40
0.0
 40
0.0
 40
0.0
 40
0.0494860427356785
 40
0.1499793372890238
 40
0.2390972546514156
 40
0.2456753893463347
 40
0.2456753893463347
 40
0.2456753893463347
 40
0.2456753893463347
 10
95.36343084526108
 20
413.9978327483914
 30
0.0
 10
95.40049644291621
 20
413.9313168659161
 30
0.0
 10
95.49724827704728
 20
413.7584237676297
 30
0.0
 10
95.7180354846173
 20
413.3916374747989
 30
0.0
 10
95.92932629460115
 20
413.0567001066754
 30
0.0
 10
96.04627685356259
 20
412.8765603584975
 30
0.0
 10
96.05438304476365
 20
412.8640969054779
 30
0.0
  0
SPLINE
  5
72
330
5E
100
AcDbEntity
  8
$DDT_AUDIT_GENERATED_(6C)
  6
Continuous
 62
     7
100
AcDbSpline
210
0.0
220
0.0
230
1.0
 70
     8
 71
     3
 72
    10
 73
     6
 74
     0
 42
0.0000000037482911
 43
0.0000000001
 40
0.8725822649147404
 40
0.8725822649147404
 40
0.8725822649147404
 40
0.8725822649147404
 40
0.9072458350301721
 40
0.9703406847438749
 40
1.0
 40
1.0
 40
1.0
 40
1.0
 10
95.56003594258277
 20
414.4626061234308
 30
0.0
 10
95.5599125515777
 20
414.4624311531076
 30
0.0
 10
95.58670755678169
 20
414.3893064741121
 30
0.0
 10
95.65656983469874
 20
414.1803879987381
 30
0.0
 10
95.66644567744201
 20
414.1532276839681
 30
0.0
 10
95.67068306311508
 20
414.1413063211431
 30
0.0
  0
SPLINE
  5
73
330
5E
100
AcDbEntity
  8
$DDT_AUDIT_GENERATED_(6C)
  6
Continuous
 62
     7
100
AcDbSpline
210
0.0
220
0.0
230
1.0
 70
     8
 71
     3
 72
    56
 73
    52
 74
     0
 42
0.0000000001281922
 43
0.0000000001
 40
0.0
 40
0.0
 40
0.0
 40
0.0
 40
0.0149701944085591
 40
0.0324432399206843
 40
0.051349819701626
 40
0.068263918329173
 40
0.0766184244792799
 40
0.0902845617321916
 40
0.1031688109774267
 40
0.1152786658277801
 40
0.126622951691595
 40
0.1372084881597606
 40
0.1567918273235446
 40
0.1734750971935823
 40
0.1863184177422279
 40
0.2019387646138505
 40
0.2196931907904162
 40
0.251477158983668
 40
0.276576056599822
 40
0.3013999784738906
 40
0.3292739378790056
 40
0.363472311983247
 40
0.3977206683906881
 40
0.4334987487032969
 40
0.4670911589474336
 40
0.4975628230906955
 40
0.5246078179442485
 40
0.5496644950567999
 40
0.5751159777080074
 40
0.595329530299087
 40
0.614977249529986
 40
0.6317491193195605
 40
0.649781673433857
 40
0.6694390011699155
 40
0.6827411264732218
 40
0.6998012365117212
 40
0.7194695289635689
 40
0.7380443666224574
 40
0.7548428348617258
 40
0.7663205177047441
 40
0.7769248999745553
 40
0.7927867239925417
 40
0.8090497235963655
 40
0.8256586917087009
 40
0.868308956735202
 40
0.911788088340352
 40
0.9274335419054456
 40
0.9451980805511457
 40
0.9632307841164655
 40
0.9815070720949791
 40
1.0
 40
1.0
 40
1.0
 40
1.0
 10
95.70414494156823
 20
414.0278634050571
 30
0.0
 10
95.81303835747134
 20
413.6671313936899
 30
0.0
 10
96.01235064008947
 20
413.0048542165086
 30
0.0
 10
96.38182763569256
 20
411.7969719516336
 30
0.0
 10
96.74966174308534
 20
410.5422812954751
 30
0.0
 10
97.05409334401443
 20
409.4853966145054
 30
0.0
 10
97.32022748844035
 20
408.5570831764438
 30
0.0
 10
97.56373322234398
 20
407.7098007021528
 30
0.0
 10
97.83144730650972
 20
406.7732018530241
 30
0.0
 10
98.08285047059026
 20
405.8890594692162
 30
0.0
 10
98.31718174991394
 20
405.0587951682168
 30
0.0
 10
98.60111998254837
 20
404.0433003033598
 30
0.0
 10
98.91732287269704
 20
402.8936252706848
 30
0.0
 10
99.2448310883782
 20
401.6795189780317
 30
0.0
 10
99.53553698581733
 20
400.5636499619065
 30
0.0
 10
99.81935349217379
 20
399.4137710801913
 30
0.0
 10
100.1904608733508
 20
397.7817378062104
 30
0.0
 10
100.5583510062444
 20
395.8919582060312
 30
0.0
 10
100.9200456499422
 20
393.807091329579
 30
0.0
 10
101.2245785268392
 20
391.8059390808029
 30
0.0
 10
101.5017261899925
 20
389.5572600692331
 30
0.0
 10
101.7411378777321
 20
387.0485859666757
 30
0.0
 10
101.9431265932575
 20
384.322523058982
 30
0.0
 10
102.1149465918326
 20
381.6035382511954
 30
0.0
 10
102.2718454945841
 20
378.9781345209119
 30
0.0
 10
102.4201769335516
 20
376.5797230353442
 30
0.0
 10
102.5443129783954
 20
374.4033902565902
 30
0.0
 10
102.6423338572309
 20
372.357045486724
 30
0.0
 10
102.7145483145256
 20
370.4893424795774
 30
0.0
 10
102.7670913742621
 20
368.7635712699897
 30
0.0
 10
102.8030608756329
 20
367.2667032461071
 30
0.0
 10
102.8290286476683
 20
365.8272812498005
 30
0.0
 10
102.8496039918728
 20
364.3875989053686
 30
0.0
 10
102.8639480483014
 20
363.0397722232764
 30
0.0
 10
102.8745732359604
 20
361.7178666960278
 30
0.0
 10
102.8830690482043
 20
360.3959312076897
 30
0.0
 10
102.8898286956974
 20
358.9351211171732
 30
0.0
 10
102.8944716608148
 20
357.4817600419584
 30
0.0
 10
102.8970985328217
 20
356.2451845049598
 30
0.0
 10
102.898825261849
 20
355.2193387134355
 30
0.0
 10
102.899955105733
 20
354.2184919738718
 30
0.0
 10
102.9032555155384
 20
353.0918914299014
 30
0.0
 10
102.9072596668516
 20
351.8075972379157
 30
0.0
 10
102.915561055132
 20
349.8184175738139
 30
0.0
 10
102.9326183190263
 20
347.1153008101915
 30
0.0
 10
102.9628528739191
 20
344.4416691259705
 30
0.0
 10
102.9951012420777
 20
342.4254439401884
 30
0.0
 10
103.0205692515132
 20
341.0752750300683
 30
0.0
 10
103.0515984316579
 20
339.6666585901513
 30
0.0
 10
103.0887355056423
 20
338.2048872177992
 30
0.0
 10
103.1155634269704
 20
337.3145784657518
 30
0.0
 10
103.1317143770643
 20
336.7830710027394
 30
0.0
  0
SPLINE
  5
74
330
5E
100
AcDbEntity
  8
$DDT_AUDIT_GENERATED_(6C)
  6
Continuous
 62
     7
100
AcDbSpline
210
0.0
220
0.0
230
1.0
 70
     8
 71
     3
 72
    12
 73
     8
 74
     0
 42
0.0000000033750825
 43
0.0000000001
 40
0.0
 40
0.0
 40
0.0
 40
0.0
 40
0.2888552984975761
 40
0.5260414164150043
 40
0.7060971454586421
 40
0.8295361180702057
 40
1.0
 40
1.0
 40
1.0
 40
1.0
 10
103.13169249735
 20
336.7833249280984
 30
0.0
 10
103.1523647077541
 20
336.4738531211817
 30
0.0
 10
103.1960061285976
 20
335.9972236952996
 30
0.0
 10
103.4531733448238
 20
335.330798977361
 30
0.0
 10
103.7650540166472
 20
334.9008501871877
 30
0.0
 10
104.1159790497735
 20
334.5784140098843
 30
0.0
 10
104.3532999457003
 20
334.4529438863385
 30
0.0
 10
104.5169049834288
 20
334.3695861519836
 30
0.0
  0
ARC
  5
75
330
5E
100
AcDbEntity
  8
$DDT_AUDIT_GENERATED_(6C)
  6
Continuous
 62
     7
100
AcDbCircle
 10
115.6060900951
 20
362.4965489855
 30
0.0
 40
30.2340758613308
100
AcDbArc
 50
248.4834879229
 51
271.547237219
  0
SPLINE
  5
76
330
5E
100
AcDbEntity
  8
$DDT_AUDIT_GENERATED_(6C)
  6
Continuous
 62
     7
100
AcDbSpline
210
0.0
220
0.0
230
1.0
 70
     8
 71
     3
 72
    10
 73
     6
 74
     0
 42
0.0000000017336434
 43
0.0000000001
 40
0.7856196671692856
 40
0.7856196671692856
 40
0.7856196671692856
 40
0.7856196671692856
 40
0.8443399706487853
 40
0.9497199326807427
 40
1.0
 40
1.0
 40
1.0
 40
1.0
 10
136.6523813523256
 20
412.8654675683617
 30
0.0
 10
136.7160740747526
 20
412.9634458819818
 30
0.0
 10
136.8896932452674
 20
413.2352100055704
 30
0.0
 10
137.1091584144937
 20
413.5933909973352
 30
0.0
 10
137.2429183795448
 20
413.8319091248802
 30
0.0
 10
137.2935355738802
 20
413.9224212698628
 30
0.0
  0
SPLINE
  5
77
330
5E
100
AcDbEntity
  8
$DDT_AUDIT_GENERATED_(6C)
  6
Continuous
 62
     7
100
AcDbSpline
210
0.0
220
0.0
230
1.0
 70
     8
 71
     3
 72
    56
 73
    52
 74
     0
 42
0.0000000001281929
 43
0.0000000001
 40
0.0
 40
0.0
 40
0.0
 40
0.0
 40
0.0246766918657264
 40
0.0487588320523764
 40
0.0721760290754112
 40
0.0920385538154784
 40
0.1096560891164522
 40
0.1269984504709545
 40
0.1439770969783545
 40
0.1553951501551694
 40
0.1665743880813382
 40
0.1774888312929616
 40
0.1881137397818991
 40
0.1984255482699163
 40
0.2084018125263158
 40
0.2180208818018557
 40
0.2264979640381165
 40
0.2404786931791594
 40
0.2570240256499073
 40
0.2773365013056767
 40
0.3015478849352675
 40
0.3237699195171439
 40
0.3432327357950808
 40
0.3702310547455888
 40
0.3956234134769137
 40
0.4240691728454966
 40
0.4516235255129353
 40
0.4783321262343515
 40
0.5068247918668765
 40
0.5380678855092287
 40
0.5628179052080579
 40
0.5862110334802243
 40
0.6078092684303318
 40
0.6286248759217177
 40
0.651696254017419
 40
0.6742266305822069
 40
0.6890858163050032
 40
0.7039976655456921
 40
0.7178942856865006
 40
0.7300004209652926
 40
0.7401974074038496
 40
0.7483467888591687
 40
0.7565370750335152
 40
0.7856387478847093
 40
0.8133920295716095
 40
0.8342113164651761
 40
0.8566363720804031
 40
0.889994369042466
 40
0.9320976282345743
 40
0.9631931597124245
 40
1.0
 40
1.0
 40
1.0
 40
1.0
 10
129.5682856229353
 20
336.7830710027394
 30
0.0
 10
129.5895746321239
 20
337.4922883566709
 30
0.0
 10
129.6246368639433
 20
338.6726825201932
 30
0.0
 10
129.669978782087
 20
340.5985140765019
 30
0.0
 10
129.7040815877448
 20
342.3542903672522
 30
0.0
 10
129.7291841546663
 20
343.9536290763664
 30
0.0
 10
129.7475307218732
 20
345.3923459820012
 30
0.0
 10
129.7617477749616
 20
346.756939022409
 30
0.0
 10
129.7718130517025
 20
347.9593586256306
 30
0.0
 10
129.7789303190052
 20
349.0003506347687
 30
0.0
 10
129.7840357174974
 20
349.882196902959
 30
0.0
 10
129.7882597965383
 20
350.7435144039744
 30
0.0
 10
129.7917508919647
 20
351.58230836185
 30
0.0
 10
129.7946377590353
 20
352.3966781703734
 30
0.0
 10
129.7970265320457
 20
353.1848037748169
 30
0.0
 10
129.7989696549677
 20
353.924799636956
 30
0.0
 10
129.8009972753232
 20
354.7705787450177
 30
0.0
 10
129.8019237688024
 20
355.7993194368036
 30
0.0
 10
129.8047186548271
 20
357.1407322541983
 30
0.0
 10
129.8093423315265
 20
358.7528560887361
 30
0.0
 10
129.8173984434539
 20
360.515632108599
 30
0.0
 10
129.8290531926431
 20
362.2566423129343
 30
0.0
 10
129.846215385137
 20
364.0717233624051
 30
0.0
 10
129.8720329885256
 20
365.9709027032058
 30
0.0
 10
129.9143621992571
 20
368.1074314600708
 30
0.0
 10
129.9763894614546
 20
370.2580159864216
 30
0.0
 10
130.06086345025
 20
372.4419813773975
 30
0.0
 10
130.1671105434742
 20
374.6251210362535
 30
0.0
 10
130.2996081594163
 20
376.902812223209
 30
0.0
 10
130.4367681196092
 20
379.126326864047
 30
0.0
 10
130.5620457849005
 20
381.2135727919292
 30
0.0
 10
130.6758085220898
 20
383.0445833931003
 30
0.0
 10
130.7908841359717
 20
384.7691287039359
 30
0.0
 10
130.9179080118284
 20
386.481335613239
 30
0.0
 10
131.0679175470434
 20
388.2135395059954
 30
0.0
 10
131.2302644775609
 20
389.7845610631249
 30
0.0
 10
131.3936424527926
 20
391.1384746055472
 30
0.0
 10
131.5468960926326
 20
392.2652365491827
 30
0.0
 10
131.7060745169807
 20
393.3173408233279
 30
0.0
 10
131.8581163649946
 20
394.2451122003141
 30
0.0
 10
131.9925285122731
 20
395.0232097992679
 30
0.0
 10
132.1135165794561
 20
395.6996831683105
 30
0.0
 10
132.3264336723557
 20
396.8530493563357
 30
0.0
 10
132.6604423611079
 20
398.4933735897109
 30
0.0
 10
133.1262244189018
 20
400.431321785528
 30
0.0
 10
133.5891520328539
 20
402.1834310953125
 30
0.0
 10
134.1035636775978
 20
404.0654228685855
 30
0.0
 10
134.7785684899806
 20
406.4591365519276
 30
0.0
 10
135.514207566416
 20
409.0337545256187
 30
0.0
 10
136.2857612831891
 20
411.6473537036734
 30
0.0
 10
136.7176675969311
 20
413.096639066709
 30
0.0
 10
136.9958550584315
 20
414.027863405057
 30
0.0
  0
SPLINE
  5
78
330
5E
100
AcDbEntity
  8
$DDT_AUDIT_GENERATED_(6C)
  6
Continuous
 62
     7
100
AcDbSpline
210
0.0
220
0.0
230
1.0
 70
     8
 71
     3
 72
    13
 73
     9
 74
     0
 42
0.0000000033774647
 43
0.0000000001
 40
0.0
 40
0.0
 40
0.0
 40
0.0
 40
0.113141999963362
 40
0.2072577463724587
 40
0.3637471236696384
 40
0.608967212935374
 40
0.8123284456304388
 40
1.0
 40
1.0
 40
1.0
 40
1.0
 10
128.1830950165708
 20
334.3695861519836
 30
0.0
 10
128.2928273837806
 20
334.4227060542678
 30
0.0
 10
128.4617368611507
 20
334.5067878002038
 30
0.0
 10
128.7543123687345
 20
334.7241886237864
 30
0.0
 10
129.090826263082
 20
335.0789748080686
 30
0.0
 10
129.3755232434659
 20
335.608231345731
 30
0.0
 10
129.5318161501914
 20
336.2270183067252
 30
0.0
 10
129.5571814760432
 20
336.5818727366948
 30
0.0
 10
129.5683075026495
 20
336.7833249280984
 30
0.0
  0
ARC
  5
79
330
5E
100
AcDbEntity
  8
$DDT_AUDIT_GENERATED_(6C)
  6
Continuous
 62
     7
100
AcDbCircle
 10
117.0783885963
 20
362.5847129271
 30
0.0
 40
30.32179384753148
100
AcDbArc
 50
268.4865792253
 51
291.4826956328
  0
LINE
  5
7C
330
5E
100
AcDbEntity
  8
DV1_Default
  6
CENTER2
 62
     7
100
AcDbLine
 10
61.349999553
 20
430.7675251671
 30
0.0
 11
21.350000447
 21
430.7675251671
 31
0.0
  0
LINE
  5
7D
330
5E
100
AcDbEntity
  8
DV1_Default
  6
CENTER2
 62
     7
100
AcDbLine
 10
41.35
 20
450.7675247201
 30
0.0
 11
41.35
 21
410.7675256141
 31
0.0
  0
LINE
  5
7E
330
5E
100
AcDbEntity
  8
DV1_Default
  6
CENTER2
 62
     7
100
AcDbLine
 10
66.3499994412
 20
430.7675251671
 30
0.0
 11
79.85
 21
430.7675251671
 31
0.0
  0
LINE
  5
7F
330
5E
100
AcDbEntity
  8
DV1_Default
  6
CENTER2
 62
     7
100
AcDbLine
 10
41.35
 20
455.7675246083
 30
0.0
 11
41.35
 21
469.2675251671
 31
0.0
  0
LINE
  5
80
330
5E
100
AcDbEntity
  8
DV1_Default
  6
CENTER2
 62
     7
100
AcDbLine
 10
16.3500005588
 20
430.7675251671
 30
0.0
 11
2.85
 21
430.7675251671
 31
0.0
  0
LINE
  5
81
330
5E
100
AcDbEntity
  8
DV1_Default
  6
CENTER2
 62
     7
100
AcDbLine
 10
41.35
 20
405.7675257259
 30
0.0
 11
41.35
 21
392.2675251671
 31
0.0
  0
LINE
  5
82
330
5E
100
AcDbEntity
  8
DV1_Default
  6
CENTER2
 62
     7
100
AcDbLine
 10
211.349999553
 20
430.7675251671
 30
0.0
 11
171.350000447
 21
430.7675251671
 31
0.0
  0
LINE
  5
83
330
5E
100
AcDbEntity
  8
DV1_Default
  6
CENTER2
 62
     7
100
AcDbLine
 10
191.35
 20
450.7675247201
 30
0.0
 11
191.35
 21
410.7675256141
 31
0.0
  0
LINE
  5
84
330
5E
100
AcDbEntity
  8
DV1_Default
  6
CENTER2
 62
     7
100
AcDbLine
 10
216.3499994412
 20
430.7675251671
 30
0.0
 11
229.85
 21
430.7675251671
 31
0.0
  0
LINE
  5
85
330
5E
100
AcDbEntity
  8
DV1_Default
  6
CENTER2
 62
     7
100
AcDbLine
 10
191.35
 20
455.7675246083
 30
0.0
 11
191.35
 21
469.2675251671
 31
0.0
  0
LINE
  5
86
330
5E
100
AcDbEntity
  8
DV1_Default
  6
CENTER2
 62
     7
100
AcDbLine
 10
166.3500005588
 20
430.7675251671
 30
0.0
 11
152.85
 21
430.7675251671
 31
0.0
  0
LINE
  5
87
330
5E
100
AcDbEntity
  8
DV1_Default
  6
CENTER2
 62
     7
100
AcDbLine
 10
191.35
 20
405.7675257259
 30
0.0
 11
191.35
 21
392.2675251671
 31
0.0
  0
ENDBLK
  5
89
330
5E
100
AcDbEntity
  8
0
100
AcDbBlockEnd
  0
BLOCK
  5
F5
330
8A
100
AcDbEntity
  8
0
100
AcDbBlockBegin
  2
SE1
 70
     0
 10
0.0
 20
0.0
 30
0.0
  3
SE1
  1

  0
SPLINE
  5
8C
330
8A
100
AcDbEntity
  8
$DDT_AUDIT_GENERATED_(60)
  6
Continuous
 62
     7
100
AcDbSpline
210
0.0
220
0.0
230
1.0
 70
     8
 71
     3
 72
    44
 73
    40
 74
     0
 42
0.0000000000882696
 43
0.0000000001
 40
0.5012193614151191
 40
0.5012193614151191
 40
0.5012193614151191
 40
0.5012193614151191
 40
0.5624999999999993
 40
0.5624999999999993
 40
0.6249999999999993
 40
0.6249999999999993
 40
0.6874999999999996
 40
0.6874999999999996
 40
0.7187499999999997
 40
0.7187499999999997
 40
0.7343749999999997
 40
0.7343749999999997
 40
0.7499999999999997
 40
0.7499999999999997
 40
0.7656249999999998
 40
0.7656249999999998
 40
0.7812499999999998
 40
0.7812499999999998
 40
0.7968749999999999
 40
0.7968749999999999
 40
0.8046874999999998
 40
0.8046874999999998
 40
0.8124999999999998
 40
0.8124999999999998
 40
0.8203124999999999
 40
0.8203124999999999
 40
0.828125
 40
0.828125
 40
0.84375
 40
0.84375
 40
0.859375
 40
0.859375
 40
0.8750000000000001
 40
0.8750000000000001
 40
0.9062500000000001
 40
0.9062500000000001
 40
0.9375
 40
0.9375
 40
1.0
 40
1.0
 40
1.0
 40
1.0
 10
379.4925497995804
 20
452.6455347226536
 30
0.0
 10
379.485413047272
 20
452.6456572589632
 30
0.0
 10
379.0674957098176
 20
452.5231043927379
 30
0.0
 10
377.5901503886126
 20
452.0430897354207
 30
0.0
 10
376.5228403606685
 20
451.6848480897096
 30
0.0
 10
374.0353354260672
 20
450.6732662348162
 30
0.0
 10
372.6117418431146
 20
450.0433161508792
 30
0.0
 10
370.4111128986838
 20
448.5358882994518
 30
0.0
 10
369.66663681363
 20
447.9473878526751
 30
0.0
 10
368.5611050166727
 20
446.6814103247352
 30
0.0
 10
368.1937706581321
 20
446.1936884254253
 30
0.0
 10
367.4791997285838
 20
444.9325308665545
 30
0.0
 10
367.1368682262716
 20
444.1656198194075
 30
0.0
 10
366.5200360230883
 20
442.0988661167708
 30
0.0
 10
366.2627253017886
 20
440.8366929214914
 30
0.0
 10
365.8458161219168
 20
437.7967845015435
 30
0.0
 10
365.6925748217759
 20
436.1198932326571
 30
0.0
 10
365.5211138839463
 20
432.5933787208201
 30
0.0
 10
365.5092493171406
 20
430.7722582593054
 30
0.0
 10
365.5883042149762
 20
428.0990285698088
 30
0.0
 10
365.6298774588109
 20
427.2256117073404
 30
0.0
 10
365.7392816179534
 20
425.5140815867119
 30
0.0
 10
365.8078033845518
 20
424.6700764310638
 30
0.0
 10
365.9651679967367
 20
423.0858130894404
 30
0.0
 10
366.054346589204
 20
422.3385238659624
 30
0.0
 10
366.2563599002817
 20
420.9405631354532
 30
0.0
 10
366.3704921119598
 20
420.2868915434363
 30
0.0
 10
366.739187996851
 20
418.557062338387
 30
0.0
 10
367.0294028620618
 20
417.6745036599196
 30
0.0
 10
367.6582701748872
 20
416.3251428019522
 30
0.0
 10
367.9968560232163
 20
415.8379664301712
 30
0.0
 10
368.7060271631744
 20
415.0325789510721
 30
0.0
 10
369.0747437450536
 20
414.7199510862104
 30
0.0
 10
370.2031772391427
 20
413.922098732394
 30
0.0
 10
370.9896152149872
 20
413.5684744540651
 30
0.0
 10
372.6039929393052
 20
412.9893768023306
 30
0.0
 10
373.4326873157014
 20
412.7723392836741
 30
0.0
 10
375.9368143078856
 20
412.2414962480623
 30
0.0
 10
377.6420168295109
 20
412.0461955133821
 30
0.0
 10
379.0726345633115
 20
411.9140458286143
 30
0.0
  0
SPLINE
  5
8D
330
8A
100
AcDbEntity
  8
$DDT_AUDIT_GENERATED_(60)
  6
Continuous
 62
     7
100
AcDbSpline
210
0.0
220
0.0
230
1.0
 70
     8
 71
     3
 72
    18
 73
    14
 74
     0
 42
0.0000000025890599
 43
0.0000000001
 40
0.0
 40
0.0
 40
0.0
 40
0.0
 40
0.25
 40
0.25
 40
0.3749999999999998
 40
0.3749999999999998
 40
0.4999999999999997
 40
0.4999999999999997
 40
0.6249999999999996
 40
0.6249999999999996
 40
0.7499999999999994
 40
0.7499999999999994
 40
1.0
 40
1.0
 40
1.0
 40
1.0
 10
379.0726345633115
 20
411.9140458286143
 30
0.0
 10
379.2171334464692
 20
411.9006981107676
 30
0.0
 10
379.3292773472192
 20
411.811949287726
 30
0.0
 10
379.4483012398384
 20
411.5652990495278
 30
0.0
 10
379.4797864547783
 20
411.463465592437
 30
0.0
 10
379.5245652147647
 20
411.2219404090598
 30
0.0
 10
379.5376978203671
 20
411.0837207739097
 30
0.0
 10
379.5456634604669
 20
410.7734940668906
 30
0.0
 10
379.540495236942
 20
410.6014838991161
 30
0.0
 10
379.5113648601804
 20
410.2236131484707
 30
0.0
 10
379.4871847186355
 20
410.0164219583625
 30
0.0
 10
379.3863318973684
 20
409.352699928241
 30
0.0
 10
379.2825670677506
 20
408.8579370946164
 30
0.0
 10
379.1418636058571
 20
408.3133543598076
 30
0.0
  0
ARC
  5
8E
330
8A
100
AcDbEntity
  8
$DDT_AUDIT_GENERATED_(60)
  6
Continuous
 62
     7
100
AcDbCircle
 10
486.3840988108
 20
377.9336572283
 30
0.0
 40
111.4279442932138
100
AcDbArc
 50
164.1835770476
 51
169.2173107347
  0
SPLINE
  5
8F
330
8A
100
AcDbEntity
  8
$DDT_AUDIT_GENERATED_(60)
  6
Continuous
 62
     7
100
AcDbSpline
210
0.0
220
0.0
230
1.0
 70
     8
 71
     3
 72
    40
 73
    36
 74
     0
 42
0.0000000001200578
 43
0.0000000001
 40
0.0
 40
0.0
 40
0.0
 40
0.0
 40
0.0624999999999998
 40
0.0624999999999998
 40
0.0937499999999997
 40
0.0937499999999997
 40
0.1249999999999996
 40
0.1249999999999996
 40
0.1406249999999996
 40
0.1406249999999996
 40
0.1562499999999995
 40
0.1562499999999995
 40
0.1718749999999995
 40
0.1718749999999995
 40
0.1874999999999995
 40
0.1874999999999995
 40
0.2031249999999995
 40
0.2031249999999995
 40
0.2187499999999994
 40
0.2187499999999994
 40
0.2343749999999994
 40
0.2343749999999994
 40
0.2499999999999994
 40
0.2499999999999994
 40
0.2656249999999993
 40
0.2656249999999993
 40
0.2812499999999993
 40
0.2812499999999993
 40
0.3124999999999993
 40
0.3124999999999993
 40
0.3749999999999994
 40
0.3749999999999994
 40
0.4999999999999996
 40
0.4999999999999996
 40
0.5029903640878491
 40
0.5029903640878491
 40
0.5029903640878491
 40
0.5029903640878491
 10
351.0707785616576
 20
411.2710438900405
 30
0.0
 10
351.0702869247975
 20
411.4263741017812
 30
0.0
 10
351.0702869247975
 20
411.6510273454353
 30
0.0
 10
351.0702869247975
 20
412.2184677644763
 30
0.0
 10
351.0702869247975
 20
412.4463062916161
 30
0.0
 10
351.0702869247975
 20
413.0357262747239
 30
0.0
 10
351.0702869247975
 20
413.3895296718175
 30
0.0
 10
351.0702869247975
 20
414.169148595195
 30
0.0
 10
351.0702869247975
 20
414.4715250927611
 30
0.0
 10
351.0702869247975
 20
415.2464066935149
 30
0.0
 10
351.0702869247975
 20
415.7146810099644
 30
0.0
 10
351.0702869247975
 20
417.0297130145316
 30
0.0
 10
351.0702869247975
 20
417.8720388918279
 30
0.0
 10
351.0702869247975
 20
420.0977435113562
 30
0.0
 10
351.0702869247975
 20
421.4532631362844
 30
0.0
 10
351.0702869247975
 20
424.5433356984396
 30
0.0
 10
351.0702869247975
 20
426.2405303636531
 30
0.0
 10
351.0702869247975
 20
429.7855735562617
 30
0.0
 10
351.0702869247975
 20
431.5800590581366
 30
0.0
 10
351.0702869247975
 20
435.1648846502153
 30
0.0
 10
351.0702869247975
 20
436.8783146575332
 30
0.0
 10
351.0702869247975
 20
440.0742374876417
 30
0.0
 10
351.0702869247975
 20
441.4757640801265
 30
0.0
 10
351.0702869247975
 20
443.7865075415958
 30
0.0
 10
351.0702869247975
 20
444.6398907132069
 30
0.0
 10
351.0702869247975
 20
446.0208165141215
 30
0.0
 10
351.0702869247975
 20
446.5411276376814
 30
0.0
 10
351.0702869247975
 20
447.8701611743743
 30
0.0
 10
351.0702869247975
 20
448.4688322578144
 30
0.0
 10
351.0702869247975
 20
450.0330398104154
 30
0.0
 10
351.0702869247975
 20
450.7252796771438
 30
0.0
 10
351.0702869247975
 20
452.4738976805875
 30
0.0
 10
351.0702869247975
 20
453.1346055841597
 30
0.0
 10
351.0702869247975
 20
453.1663403426207
 30
0.0
 10
351.0702869247975
 20
453.1667114742808
 30
0.0
 10
351.0702869247975
 20
453.1667143086049
 30
0.0
  0
LINE
  5
90
330
8A
100
AcDbEntity
  8
$DDT_AUDIT_GENERATED_(60)
  6
Continuous
 62
     7
100
AcDbLine
 10
351.0702869248
 20
398.7800995407
 30
0.0
 11
351.0702869248
 21
407.8480195423
 31
0.0
  0
ARC
  5
91
330
8A
100
AcDbEntity
  8
$DDT_AUDIT_GENERATED_(60)
  6
Continuous
 62
     7
100
AcDbCircle
 10
1598.8769709299
 20
409.3803136981
 30
0.0
 40
1247.807624825668
100
AcDbArc
 50
179.9131830104
 51
180.0703586101
  0
ARC
  5
92
330
8A
100
AcDbEntity
  8
$DDT_AUDIT_GENERATED_(60)
  6
Continuous
 62
     7
100
AcDbCircle
 10
339.249427785
 20
429.6552920404
 30
0.0
 40
46.33517458963541
100
AcDbArc
 50
25.0206171935
 51
29.7474456402
  0
ARC
  5
93
330
8A
100
AcDbEntity
  8
$DDT_AUDIT_GENERATED_(60)
  6
Continuous
 62
     7
100
AcDbCircle
 10
291.0230522157
 20
442.3740073572
 30
0.0
 40
96.31840664565922
100
AcDbArc
 50
333.1078781802
 51
335.4013369404
  0
LINE
  5
94
330
8A
100
AcDbEntity
  8
$DDT_AUDIT_GENERATED_(60)
  6
Continuous
 62
     7
100
AcDbLine
 10
379.4556765463
 20
452.6462111378
 30
0.0
 11
351.0713269163
 21
453.1666924019
 31
0.0
  0
LINE
  5
95
330
8A
100
AcDbEntity
  8
$DDT_AUDIT_GENERATED_(60)
  6
Continuous
 62
     7
100
AcDbLine
 10
351.0702869248
 20
398.7800995018
 30
0.0
 11
352.6202869248
 21
398.7800995018
 31
0.0
  0
LINE
  5
96
330
8A
100
AcDbEntity
  8
$DDT_AUDIT_GENERATED_(60)
  6
Continuous
 62
     7
100
AcDbLine
 10
370.6202869248
 20
398.7800995018
 30
0.0
 11
376.928160608
 21
398.7800995018
 31
0.0
  0
LINE
  5
98
330
8A
100
AcDbEntity
  8
$DDT_AUDIT_GENERATED_(97)
  6
Continuous
 62
     7
100
AcDbLine
 10
370.6202869248
 20
393.2775251671
 30
0.0
 11
352.6202869248
 21
393.2775251671
 31
0.0
  0
LINE
  5
99
330
8A
100
AcDbEntity
  8
$DDT_AUDIT_GENERATED_(97)
  6
Continuous
 62
     7
100
AcDbLine
 10
372.1002869248
 20
391.7975251671
 30
0.0
 11
351.1402869248
 21
391.7975251671
 31
0.0
  0
LINE
  5
9A
330
8A
100
AcDbEntity
  8
$DDT_AUDIT_GENERATED_(97)
  6
Continuous
 62
     7
100
AcDbLine
 10
370.9002869248
 20
384.3775251671
 30
0.0
 11
352.3402869248
 21
384.3775251671
 31
0.0
  0
LINE
  5
9B
330
8A
100
AcDbEntity
  8
$DDT_AUDIT_GENERATED_(97)
  6
Continuous
 62
     7
100
AcDbLine
 10
372.1002869248
 20
385.5775251671
 30
0.0
 11
351.1402869248
 21
385.5775251671
 31
0.0
  0
LINE
  5
9C
330
8A
100
AcDbEntity
  8
$DDT_AUDIT_GENERATED_(97)
  6
Continuous
 62
     7
100
AcDbLine
 10
351.1402869248
 20
391.7975251671
 30
0.0
 11
351.1402869248
 21
385.5775251671
 31
0.0
  0
LINE
  5
9D
330
8A
100
AcDbEntity
  8
$DDT_AUDIT_GENERATED_(97)
  6
Continuous
 62
     7
100
AcDbLine
 10
372.1002869248
 20
385.5775251671
 30
0.0
 11
372.1002869248
 21
391.7975251671
 31
0.0
  0
LINE
  5
9E
330
8A
100
AcDbEntity
  8
$DDT_AUDIT_GENERATED_(97)
  6
Continuous
 62
     7
100
AcDbLine
 10
352.6202869248
 20
398.7800995018
 30
0.0
 11
352.6202869248
 21
393.2775251671
 31
0.0
  0
LINE
  5
9F
330
8A
100
AcDbEntity
  8
$DDT_AUDIT_GENERATED_(97)
  6
Continuous
 62
     7
100
AcDbLine
 10
370.6202869248
 20
393.2775251671
 30
0.0
 11
370.6202869248
 21
398.7800995018
 31
0.0
  0
LINE
  5
A0
330
8A
100
AcDbEntity
  8
$DDT_AUDIT_GENERATED_(97)
  6
Continuous
 62
     7
100
AcDbLine
 10
372.1002869248
 20
391.7975251671
 30
0.0
 11
370.6202869248
 21
393.2775251671
 31
0.0
  0
LINE
  5
A1
330
8A
100
AcDbEntity
  8
$DDT_AUDIT_GENERATED_(97)
  6
Continuous
 62
     7
100
AcDbLine
 10
352.6202869248
 20
393.2775251671
 30
0.0
 11
351.1402869248
 21
391.7975251671
 31
0.0
  0
LINE
  5
A2
330
8A
100
AcDbEntity
  8
$DDT_AUDIT_GENERATED_(97)
  6
Continuous
 62
     7
100
AcDbLine
 10
351.1402869248
 20
385.5775251671
 30
0.0
 11
352.3402869248
 21
384.3775251671
 31
0.0
  0
LINE
  5
A3
330
8A
100
AcDbEntity
  8
$DDT_AUDIT_GENERATED_(97)
  6
Continuous
 62
     7
100
AcDbLine
 10
370.9002869248
 20
384.3775251671
 30
0.0
 11
372.1002869248
 21
385.5775251671
 31
0.0
  0
LINE
  5
A4
330
8A
100
AcDbEntity
  8
$DDT_AUDIT_GENERATED_(97)
  6
Continuous
 62
     7
100
AcDbLine
 10
370.9352869248
 20
392.9625251671
 30
0.0
 11
370.9352869248
 21
384.4125251671
 31
0.0
  0
LINE
  5
A5
330
8A
100
AcDbEntity
  8
$DDT_AUDIT_GENERATED_(97)
  6
Continuous
 62
     7
100
AcDbLine
 10
352.3052869248
 20
392.9625251671
 30
0.0
 11
352.3052869248
 21
384.4125251671
 31
0.0
  0
LINE
  5
A7
330
8A
100
AcDbEntity
  8
$DDT_AUDIT_GENERATED_(A6)
  6
Continuous
 62
     7
100
AcDbLine
 10
334.0702869248
 20
443.9875251671
 30
0.0
 11
332.5702869248
 21
443.9875251671
 31
0.0
  0
LINE
  5
A8
330
8A
100
AcDbEntity
  8
$DDT_AUDIT_GENERATED_(A6)
  6
Continuous
 62
     7
100
AcDbLine
 10
332.5702869248
 20
417.5475251671
 30
0.0
 11
334.0702869248
 21
417.5475251671
 31
0.0
  0
LINE
  5
A9
330
8A
100
AcDbEntity
  8
$DDT_AUDIT_GENERATED_(68)
  6
Continuous
 62
     7
100
AcDbLine
 10
306.5702869248
 20
465.7675251671
 30
0.0
 11
306.5702869248
 21
395.7675251671
 31
0.0
  0
LINE
  5
AA
330
8A
100
AcDbEntity
  8
$DDT_AUDIT_GENERATED_(68)
  6
Continuous
 62
     7
100
AcDbLine
 10
332.5702869248
 20
415.8999968256
 30
0.0
 11
332.5702869248
 21
445.6350535086
 31
0.0
  0
LINE
  5
AB
330
8A
100
AcDbEntity
  8
$DDT_AUDIT_GENERATED_(68)
  6
Continuous
 62
     7
100
AcDbLine
 10
306.5702869248
 20
395.7675251671
 30
0.0
 11
311.7566504687
 21
395.7675251671
 31
0.0
  0
LINE
  5
AC
330
8A
100
AcDbEntity
  8
$DDT_AUDIT_GENERATED_(68)
  6
Continuous
 62
     7
100
AcDbLine
 10
311.7566504687
 20
465.7675251671
 30
0.0
 11
306.5702869248
 21
465.7675251671
 31
0.0
  0
LINE
  5
AD
330
8A
100
AcDbEntity
  8
$DDT_AUDIT_GENERATED_(68)
  6
Continuous
 62
     7
100
AcDbLine
 10
313.152850741
 20
396.3355248879
 30
0.0
 11
332.117437129
 21
414.8259966162
 31
0.0
  0
LINE
  5
AE
330
8A
100
AcDbEntity
  8
$DDT_AUDIT_GENERATED_(68)
  6
Continuous
 62
     7
100
AcDbLine
 10
332.117437129
 20
446.709053718
 30
0.0
 11
313.152850741
 21
465.1995254463
 31
0.0
  0
ARC
  5
AF
330
8A
100
AcDbEntity
  8
$DDT_AUDIT_GENERATED_(68)
  6
Continuous
 62
     7
100
AcDbCircle
 10
331.0702869248
 20
415.8999968256
 30
0.0
 40
1.500000000000002
100
AcDbArc
 50
314.2747757009
 51
0.0
  0
ARC
  5
B0
330
8A
100
AcDbEntity
  8
$DDT_AUDIT_GENERATED_(68)
  6
Continuous
 62
     7
100
AcDbCircle
 10
331.0702869248
 20
445.6350535086
 30
0.0
 40
1.500000000000001
100
AcDbArc
 50
0.0
 51
45.7252242991
  0
ARC
  5
B1
330
8A
100
AcDbEntity
  8
$DDT_AUDIT_GENERATED_(68)
  6
Continuous
 62
     7
100
AcDbCircle
 10
311.7566504687
 20
463.7675251671
 30
0.0
 40
2.0
100
AcDbArc
 50
45.7252242991
 51
90.0
  0
ARC
  5
B2
330
8A
100
AcDbEntity
  8
$DDT_AUDIT_GENERATED_(68)
  6
Continuous
 62
     7
100
AcDbCircle
 10
311.7566504687
 20
397.7675251671
 30
0.0
 40
2.000000000000002
100
AcDbArc
 50
270.0
 51
314.2747757009
  0
ARC
  5
B3
330
8A
100
AcDbEntity
  8
$DDT_AUDIT_GENERATED_(6C)
  6
Continuous
 62
     7
100
AcDbCircle
 10
454.8286526756
 20
344.4403953266
 30
0.0
 40
10.21481608592697
100
AcDbArc
 50
172.6323810379
 51
183.868538475
  0
SPLINE
  5
B4
330
8A
100
AcDbEntity
  8
$DDT_AUDIT_GENERATED_(6C)
  6
Continuous
 62
     7
100
AcDbSpline
210
0.0
220
0.0
230
1.0
 70
     8
 71
     3
 72
     8
 73
     4
 74
     0
 42
0.0000000001581227
 43
0.0000000001
 40
0.0
 40
0.0
 40
0.0
 40
0.0
 40
0.0043033902992594
 40
0.0043033902992594
 40
0.0043033902992594
 40
0.0043033902992594
 10
444.6981722198332
 20
345.7502935687564
 30
0.0
 10
444.7098086999953
 20
345.8402625828643
 30
0.0
 10
444.7214196294341
 20
345.9302348630825
 30
0.0
 10
444.7330044682973
 20
346.0202104457939
 30
0.0
  0
SPLINE
  5
B5
330
8A
100
AcDbEntity
  8
$DDT_AUDIT_GENERATED_(6C)
  6
Continuous
 62
     7
100
AcDbSpline
210
0.0
220
0.0
230
1.0
 70
     8
 71
     3
 72
    20
 73
    16
 74
     0
 42
0.0000000001578412
 43
0.0000000001
 40
0.1412286104024174
 40
0.1412286104024174
 40
0.1412286104024174
 40
0.1412286104024174
 40
0.2499999999999999
 40
0.2499999999999999
 40
0.4999999999999998
 40
0.4999999999999998
 40
0.6249999999999999
 40
0.6249999999999999
 40
0.7500000000000001
 40
0.7500000000000001
 40
0.8125000000000001
 40
0.8125000000000001
 40
0.875
 40
0.875
 40
0.9021536764664428
 40
0.9021536764664428
 40
0.9021536764664428
 40
0.9021536764664428
 10
445.7421924397461
 20
354.619938565534
 30
0.0
 10
445.9792284013642
 20
356.900381191425
 30
0.0
 10
446.18862229014
 20
359.1836732217478
 30
0.0
 10
446.7593587590491
 20
366.7262165312799
 30
0.0
 10
446.9383098885158
 20
371.9992656792959
 30
0.0
 10
446.6328976716715
 20
379.8948723191522
 30
0.0
 10
446.4741589808708
 20
382.5221303085649
 30
0.0
 10
445.8477962850747
 20
387.7516309907213
 30
0.0
 10
445.3717935906299
 20
390.3635302894287
 30
0.0
 10
444.0591319534719
 20
394.1077079699187
 30
0.0
 10
443.5474296114414
 20
395.3229491759833
 30
0.0
 10
442.1961981527185
 20
397.5777175672867
 30
0.0
 10
441.3281428724576
 20
398.6188269475537
 30
0.0
 10
439.7726257460354
 20
399.7193713635534
 30
0.0
 10
439.2663098511259
 20
399.994475435415
 30
0.0
 10
438.7367099092325
 20
400.2185362445277
 30
0.0
  0
SPLINE
  5
B6
330
8A
100
AcDbEntity
  8
$DDT_AUDIT_GENERATED_(6C)
  6
Continuous
 62
     7
100
AcDbSpline
210
0.0
220
0.0
230
1.0
 70
     8
 71
     3
 72
    10
 73
     6
 74
     0
 42
0.0000000009239077
 43
0.0000000001
 40
0.0
 40
0.0
 40
0.0
 40
0.0
 40
0.1249999999999986
 40
0.1249999999999986
 40
0.125719616427951
 40
0.125719616427951
 40
0.125719616427951
 40
0.125719616427951
 10
446.46646139696
 20
333.1352896942523
 30
0.0
 10
446.3145618798903
 20
333.5596106899021
 30
0.0
 10
446.1757068127353
 20
333.9898357614796
 30
0.0
 10
446.0486543467689
 20
334.4244311595649
 30
0.0
 10
446.0479275046713
 20
334.4269188675227
 30
0.0
 10
446.0472010657677
 20
334.4294066684848
 30
0.0
  0
SPLINE
  5
B7
330
8A
100
AcDbEntity
  8
$DDT_AUDIT_GENERATED_(6C)
  6
Continuous
 62
     7
100
AcDbSpline
210
0.0
220
0.0
230
1.0
 70
     8
 71
     3
 72
    10
 73
     6
 74
     0
 42
0.0000000009246554
 43
0.0000000001
 40
0.4444352227727357
 40
0.4444352227727357
 40
0.4444352227727357
 40
0.4444352227727357
 40
0.4999999999999982
 40
0.4999999999999982
 40
1.0
 40
1.0
 40
1.0
 40
1.0
 10
445.2902312513768
 20
337.7829566229245
 30
0.0
 10
445.2567309989124
 20
337.9802618770116
 30
0.0
 10
445.2247897163398
 20
338.1779267362284
 30
0.0
 10
444.9196167598467
 20
340.1575537668649
 30
0.0
 10
444.7587729943928
 20
341.9529648211341
 30
0.0
 10
444.6371112921551
 20
343.7512277859882
 30
0.0
  0
ARC
  5
B8
330
8A
100
AcDbEntity
  8
$DDT_AUDIT_GENERATED_(6C)
  6
Continuous
 62
     7
100
AcDbCircle
 10
499.2278717937
 20
348.8359545635
 30
0.0
 40
54.82705152149089
100
AcDbArc
 50
185.3213263159
 51
185.7110411312
  0
ARC
  5
B9
330
8A
100
AcDbEntity
  8
$DDT_AUDIT_GENERATED_(6C)
  6
Continuous
 62
     7
100
AcDbCircle
 10
425.9518087909
 20
446.274345085
 30
0.0
 40
2.99990200529002
100
AcDbArc
 50
36.4087918176
 51
87.4496523145
  0
ARC
  5
BA
330
8A
100
AcDbEntity
  8
$DDT_AUDIT_GENERATED_(6C)
  6
Continuous
 62
     7
100
AcDbCircle
 10
447.6904071999
 20
333.5734338466
 30
0.0
 40
1.299993090671075
100
AcDbArc
 50
199.6961870736
 51
349.3036351311
  0
LINE
  5
BB
330
8A
100
AcDbEntity
  8
$DDT_AUDIT_GENERATED_(6C)
  6
Continuous
 62
     7
100
AcDbLine
 10
412.1490667884
 20
425.8565485656
 30
0.0
 11
412.1490667884
 21
449.4856430694
 31
0.0
  0
LINE
  5
BC
330
8A
100
AcDbEntity
  8
$DDT_AUDIT_GENERATED_(6C)
  6
Continuous
 62
     7
100
AcDbLine
 10
412.1490667884
 20
402.0759037048
 30
0.0
 11
412.1490667884
 21
425.8565485656
 31
0.0
  0
SPLINE
  5
BD
330
8A
100
AcDbEntity
  8
$DDT_AUDIT_GENERATED_(6C)
  6
Continuous
 62
     7
100
AcDbSpline
210
0.0
220
0.0
230
1.0
 70
     8
 71
     3
 72
    10
 73
     6
 74
     0
 42
0.0000000007333295
 43
0.0000000001
 40
0.0
 40
0.0
 40
0.0
 40
0.0
 40
0.4124143445164808
 40
0.9932138897538934
 40
1.0
 40
1.0
 40
1.0
 40
1.0
 10
412.4586956380575
 20
449.7854885050526
 30
0.0
 10
413.9927200027111
 20
449.7362268248264
 30
0.0
 10
417.711615337259
 20
449.6124844273569
 30
0.0
 10
422.8062063087202
 20
449.4171181908643
 30
0.0
 10
426.0478225764282
 20
449.2729448393728
 30
0.0
 10
426.0852962311907
 20
449.2712757055399
 30
0.0
  0
ARC
  5
BE
330
8A
100
AcDbEntity
  8
$DDT_AUDIT_GENERATED_(6C)
  6
Continuous
 62
     7
100
AcDbCircle
 10
412.4490667884
 20
449.4856430694
 30
0.0
 40
0.3000000000000017
100
AcDbArc
 50
88.1607092924
 51
180.0
  0
ARC
  5
BF
330
8A
100
AcDbEntity
  8
$DDT_AUDIT_GENERATED_(6C)
  6
Continuous
 62
     7
100
AcDbCircle
 10
412.4490667884
 20
402.0759037048
 30
0.0
 40
0.2999999999999997
100
AcDbArc
 50
180.0
 51
269.1427672964
  0
SPLINE
  5
C0
330
8A
100
AcDbEntity
  8
$DDT_AUDIT_GENERATED_(6C)
  6
Continuous
 62
     7
100
AcDbSpline
210
0.0
220
0.0
230
1.0
 70
     8
 71
     3
 72
    10
 73
     6
 74
     0
 42
0.0000000030855503
 43
0.0000000001
 40
0.0
 40
0.0
 40
0.0
 40
0.0
 40
0.5
 40
0.5
 40
1.0
 40
1.0
 40
1.0
 40
1.0
 10
432.5963246676196
 20
401.2301702130086
 30
0.0
 10
432.0568972217955
 20
401.2581815750514
 30
0.0
 10
431.5173408714168
 20
401.2835770340955
 30
0.0
 10
430.4383349603723
 20
401.3365350713485
 30
0.0
 10
429.898793014965
 20
401.3624490800842
 30
0.0
 10
429.3591573283275
 20
401.3857009471013
 30
0.0
  0
ARC
  5
C1
330
8A
100
AcDbEntity
  8
$DDT_AUDIT_GENERATED_(6C)
  6
Continuous
 62
     7
100
AcDbCircle
 10
424.8731863798
 20
376.3947847506
 30
0.0
 40
25.3903491053144
100
AcDbArc
 50
79.8235521009
 51
96.7461113127
  0
ARC
  5
C2
330
8A
100
AcDbEntity
  8
$DDT_AUDIT_GENERATED_(6C)
  6
Continuous
 62
     7
100
AcDbCircle
 10
483.0460245982
 20
344.8330694675
 30
0.0
 40
38.38808239342632
100
AcDbArc
 50
182.1982139537
 51
197.5359020628
  0
SPLINE
  5
C3
330
8A
100
AcDbEntity
  8
$DDT_AUDIT_GENERATED_(6C)
  6
Continuous
 62
     7
100
AcDbSpline
210
0.0
220
0.0
230
1.0
 70
     8
 71
     3
 72
    45
 73
    41
 74
     0
 42
0.0000000000834676
 43
0.0000000001
 40
0.0
 40
0.0
 40
0.0
 40
0.0
 40
0.0147696787426237
 40
0.0325512969710253
 40
0.0480554256917064
 40
0.0611590677252205
 40
0.0717668523101895
 40
0.0798069855878853
 40
0.0849895550801248
 40
0.0878155373584557
 40
0.0891315644582057
 40
0.0906593636816322
 40
0.0924479318363607
 40
0.0993243200800172
 40
0.1085526015813447
 40
0.1201742207248742
 40
0.1353371663500751
 40
0.1533696703605725
 40
0.1743413909568169
 40
0.1976861006336963
 40
0.2212250049333625
 40
0.2736531718649343
 40
0.3256979544519818
 40
0.3771177019363497
 40
0.4277105953551743
 40
0.4600410505079157
 40
0.4919128119842101
 40
0.5233051023825721
 40
0.5559944846917747
 40
0.5912145032987823
 40
0.6289097655783917
 40
0.6690070252917768
 40
0.7059901191216105
 40
0.744664364501085
 40
0.7849381487189036
 40
0.826703270662672
 40
0.8698328641813995
 40
0.9141789053472253
 40
0.9595692270587476
 40
1.0
 40
1.0
 40
1.0
 40
1.0
 10
448.9650418685845
 20
333.3326639596758
 30
0.0
 10
449.085227480531
 20
333.9701342995963
 30
0.0
 10
449.3081377774465
 20
335.1567760574869
 30
0.0
 10
449.6421443799816
 20
337.0886525380927
 30
0.0
 10
449.9387989471984
 20
338.9067899774131
 30
0.0
 10
450.1771543231317
 20
340.4565026763294
 30
0.0
 10
450.3605120041588
 20
341.7105515477596
 30
0.0
 10
450.4926409138285
 20
342.6529217539739
 30
0.0
 10
450.5789624868106
 20
343.2878682812224
 30
0.0
 10
450.6281824183927
 20
343.6569164751341
 30
0.0
 10
450.6578159654049
 20
343.8813543502101
 30
0.0
 10
450.6818621350177
 20
344.0647483375791
 30
0.0
 10
450.7343470172979
 20
344.4683293374234
 30
0.0
 10
450.8245355861045
 20
345.1770630563191
 30
0.0
 10
450.9586604396151
 20
346.2759781790552
 30
0.0
 10
451.1233742451719
 20
347.7044580694645
 30
0.0
 10
451.3130981510592
 20
349.4838702368997
 30
0.0
 10
451.5193951751104
 20
351.636861617982
 30
0.0
 10
451.7254785520177
 20
354.117880106719
 30
0.0
 10
451.9105846021272
 20
356.8210129045
 30
0.0
 10
452.1201486382853
 20
360.7809449930846
 30
0.0
 10
452.2606523633247
 20
365.8914851797141
 30
0.0
 10
452.2087146996722
 20
372.1171317599229
 30
0.0
 10
451.9330166976791
 20
378.263574060842
 30
0.0
 10
451.4942698739307
 20
383.6110230833031
 30
0.0
 10
450.9778426226545
 20
388.1658288728624
 30
0.0
 10
450.4549366390631
 20
391.9471657524514
 30
0.0
 10
449.8366632886733
 20
395.7285973977134
 30
0.0
 10
449.0972711567053
 20
399.62445674273
 30
0.0
 10
448.1968413901658
 20
403.7444144421308
 30
0.0
 10
447.099762349677
 20
408.122198028641
 30
0.0
 10
445.8381736033158
 20
412.5289010076666
 30
0.0
 10
444.4156404492276
 20
416.9273222836291
 30
0.0
 10
442.8407267517101
 20
421.2810118915644
 30
0.0
 10
441.0343388617148
 20
425.7513815465816
 30
0.0
 10
438.9798766477248
 20
430.3067614734649
 30
0.0
 10
436.6558174120871
 20
434.924560736874
 30
0.0
 10
434.0680955745344
 20
439.5241656206214
 30
0.0
 10
431.2537852603941
 20
444.0250429170493
 30
0.0
 10
429.3945608952001
 20
446.6074112528228
 30
0.0
 10
428.3523603597007
 20
448.0451736170444
 30
0.0
  0
SPLINE
  5
C4
330
8A
100
AcDbEntity
  8
$DDT_AUDIT_GENERATED_(6C)
  6
Continuous
 62
     7
100
AcDbSpline
210
0.0
220
0.0
230
1.0
 70
     8
 71
     3
 72
    32
 73
    28
 74
     0
 42
0.0000000001947376
 43
0.0000000001
 40
0.0
 40
0.0
 40
0.0
 40
0.0
 40
0.0076366543589032
 40
0.0199630005215783
 40
0.0461146380503741
 40
0.0732504817591653
 40
0.099925192862477
 40
0.1254724593982178
 40
0.1381630111889215
 40
0.1512757420796783
 40
0.1652070819397658
 40
0.1802591070490615
 40
0.2145248794445304
 40
0.2552145761652426
 40
0.3029002298738219
 40
0.3578463916665721
 40
0.3985126280674606
 40
0.4425124217400895
 40
0.4904831848821676
 40
0.5430876831189265
 40
0.6011730016641498
 40
0.6656024693537339
 40
0.7252348242912903
 40
0.7904183681379625
 40
0.861648711575324
 40
0.9394391005982903
 40
1.0
 40
1.0
 40
1.0
 40
1.0
 10
442.9122231273989
 20
396.3778426239726
 30
0.0
 10
442.9792563653252
 20
396.2644657986334
 30
0.0
 10
443.1277541127629
 20
396.0128487987647
 30
0.0
 10
443.4369340896689
 20
395.431346754963
 30
0.0
 10
443.7963202810163
 20
394.6985637632595
 30
0.0
 10
444.1845475890549
 20
393.8392888722661
 30
0.0
 10
444.5602893228471
 20
392.94074669167
 30
0.0
 10
444.8766277220113
 20
392.0703500746642
 30
0.0
 10
445.1234216315792
 20
391.2710984632518
 30
0.0
 10
445.3051990623299
 20
390.6090146255625
 30
0.0
 10
445.4815518643267
 20
389.884120999822
 30
0.0
 10
445.7185040010899
 20
388.7798442332198
 30
0.0
 10
445.9927890326947
 20
387.2007137836257
 30
0.0
 10
446.2703397088785
 20
385.0629722812956
 30
0.0
 10
446.5030997529194
 20
382.5673600773324
 30
0.0
 10
446.6613541480654
 20
380.0655370431614
 30
0.0
 10
446.7689085962012
 20
377.6187776886842
 30
0.0
 10
446.8379742339764
 20
375.2862662899552
 30
0.0
 10
446.8615097585635
 20
372.7340198904536
 30
0.0
 10
446.824748005708
 20
369.9244354620049
 30
0.0
 10
446.7144215506721
 20
366.8185451587867
 30
0.0
 10
446.5308134768614
 20
363.5859897314791
 30
0.0
 10
446.2802925167782
 20
360.229958630333
 30
0.0
 10
445.9676621012258
 20
356.7491404892194
 30
0.0
 10
445.5767707736666
 20
352.9762697114717
 30
0.0
 10
445.1372873140773
 20
349.1852877438003
 30
0.0
 10
444.8474179843536
 20
346.9115132242373
 30
0.0
 10
444.6963475587344
 20
345.7341095565813
 30
0.0
  0
SPLINE
  5
C5
330
8A
100
AcDbEntity
  8
$DDT_AUDIT_GENERATED_(6C)
  6
Continuous
 62
     7
100
AcDbSpline
210
0.0
220
0.0
230
1.0
 70
     8
 71
     3
 72
    15
 73
    11
 74
     0
 42
0.0000000010490606
 43
0.0000000001
 40
0.0
 40
0.0
 40
0.0
 40
0.0
 40
0.0362247109600076
 40
0.1310056882717958
 40
0.2163696702527364
 40
0.4155895758446295
 40
0.5980832221522945
 40
0.76528767157057
 40
0.9198848338737085
 40
1.0
 40
1.0
 40
1.0
 40
1.0
 10
429.3317923184148
 20
401.3900516573912
 30
0.0
 10
429.4584875122329
 20
401.384882996856
 30
0.0
 10
429.8490101984056
 20
401.3689334084261
 30
0.0
 10
430.5558589622799
 20
401.3352487676604
 30
0.0
 10
431.7545309021351
 20
401.2765275102018
 30
0.0
 10
433.2429058768395
 20
401.2058099557785
 30
0.0
 10
434.9893226490378
 20
401.0844070478718
 30
0.0
 10
436.5660031164046
 20
400.8757485617926
 30
0.0
 10
437.8464199630048
 20
400.591768133852
 30
0.0
 10
438.4757312007494
 20
400.3123255682586
 30
0.0
 10
438.7272795718377
 20
400.1994287573015
 30
0.0
  0
ARC
  5
C6
330
8A
100
AcDbEntity
  8
$DDT_AUDIT_GENERATED_(6C)
  6
Continuous
 62
     7
100
AcDbCircle
 10
393.7027647946
 20
-929.0042419398
 30
0.0
 40
1330.911453753156
100
AcDbArc
 50
88.7851344165
 51
89.1707555632
  0
ARC
  5
C7
330
8A
100
AcDbEntity
  8
$DDT_AUDIT_GENERATED_(6C)
  6
Continuous
 62
     7
100
AcDbCircle
 10
393.6639976535
 20
-931.2465724526
 30
0.0
 40
1333.154110494557
100
AcDbArc
 50
88.7908421879
 51
89.1704843375
  0
LINE
  5
C9
330
8A
100
AcDbEntity
  8
$DDT_AUDIT_GENERATED_(C8)
  6
Continuous
 62
     7
100
AcDbLine
 10
334.0702869248
 20
416.2675251671
 30
0.0
 11
334.0702869248
 21
445.2675251671
 31
0.0
  0
LINE
  5
CA
330
8A
100
AcDbEntity
  8
$DDT_AUDIT_GENERATED_(C8)
  6
Continuous
 62
     7
100
AcDbLine
 10
337.5702869248
 20
447.0175251671
 30
0.0
 11
337.5702869248
 21
446.8829062239
 31
0.0
  0
LINE
  5
CB
330
8A
100
AcDbEntity
  8
$DDT_AUDIT_GENERATED_(C8)
  6
Continuous
 62
     7
100
AcDbLine
 10
337.5702869248
 20
440.6329062239
 30
0.0
 11
337.5702869248
 21
437.0175251671
 31
0.0
  0
LINE
  5
CC
330
8A
100
AcDbEntity
  8
$DDT_AUDIT_GENERATED_(C8)
  6
Continuous
 62
     7
100
AcDbLine
 10
337.5702869248
 20
424.5175251671
 30
0.0
 11
337.5702869248
 21
420.9021441103
 31
0.0
  0
LINE
  5
CD
330
8A
100
AcDbEntity
  8
$DDT_AUDIT_GENERATED_(C8)
  6
Continuous
 62
     7
100
AcDbLine
 10
337.5702869248
 20
414.6521441103
 30
0.0
 11
337.5702869248
 21
414.5175251671
 31
0.0
  0
SPLINE
  5
CE
330
8A
100
AcDbEntity
  8
$DDT_AUDIT_GENERATED_(C8)
  6
Continuous
 62
     7
100
AcDbSpline
210
0.0
220
0.0
230
1.0
 70
     8
 71
     3
 72
    14
 73
    10
 74
     0
 42
0.0000000011014719
 43
0.0000000001
 40
0.0
 40
0.0
 40
0.0
 40
0.0
 40
0.25
 40
0.25
 40
0.5
 40
0.5
 40
0.75
 40
0.75
 40
1.0
 40
1.0
 40
1.0
 40
1.0
 10
337.5702869247975
 20
420.9021441103318
 30
0.0
 10
336.5924803563443
 20
420.5548262617045
 30
0.0
 10
335.8956218621635
 20
420.0568989491211
 30
0.0
 10
334.9889399102938
 20
418.9669908845528
 30
0.0
 10
334.7749928099747
 20
418.3731167031478
 30
0.0
 10
334.7741256569328
 20
417.1847115997589
 30
0.0
 10
334.9814442152019
 20
416.5991578173619
 30
0.0
 10
335.8920427111252
 20
415.4988760742554
 30
0.0
 10
336.593557523641
 20
414.9990793480816
 30
0.0
 10
337.5702869247975
 20
414.6521441103317
 30
0.0
  0
SPLINE
  5
CF
330
8A
100
AcDbEntity
  8
$DDT_AUDIT_GENERATED_(C8)
  6
Continuous
 62
     7
100
AcDbSpline
210
0.0
220
0.0
230
1.0
 70
     8
 71
     3
 72
    14
 73
    10
 74
     0
 42
0.0000000006969408
 43
0.0000000001
 40
0.0
 40
0.0
 40
0.0
 40
0.0
 40
0.25
 40
0.25
 40
0.5
 40
0.5
 40
0.75
 40
0.75
 40
1.0
 40
1.0
 40
1.0
 40
1.0
 10
337.5702869247975
 20
437.0175251670984
 30
0.0
 10
336.5946584820277
 20
436.3244368145862
 30
0.0
 10
335.8886797933803
 20
435.3168766467554
 30
0.0
 10
334.9829660289841
 20
433.1262311943816
 30
0.0
 10
334.7726636322942
 20
431.9420168908922
 30
0.0
 10
334.7764784704312
 20
429.5619288820677
 30
0.0
 10
334.9917777129809
 20
428.3789052725241
 30
0.0
 10
335.8969640276192
 20
426.2069022326817
 30
0.0
 10
336.601997989091
 20
425.2053995194483
 30
0.0
 10
337.5702869247975
 20
424.5175251670984
 30
0.0
  0
SPLINE
  5
D0
330
8A
100
AcDbEntity
  8
$DDT_AUDIT_GENERATED_(C8)
  6
Continuous
 62
     7
100
AcDbSpline
210
0.0
220
0.0
230
1.0
 70
     8
 71
     3
 72
    14
 73
    10
 74
     0
 42
0.0000000011014719
 43
0.0000000001
 40
0.0
 40
0.0
 40
0.0
 40
0.0
 40
0.25
 40
0.25
 40
0.5
 40
0.5
 40
0.75
 40
0.75
 40
1.0
 40
1.0
 40
1.0
 40
1.0
 10
337.5702869247975
 20
446.8829062238649
 30
0.0
 10
336.5924803563443
 20
446.5355883752376
 30
0.0
 10
335.8956218621635
 20
446.0376610626543
 30
0.0
 10
334.9889399102938
 20
444.947752998086
 30
0.0
 10
334.7749928099747
 20
444.353878816681
 30
0.0
 10
334.7741256569328
 20
443.165473713292
 30
0.0
 10
334.9814442152019
 20
442.579919930895
 30
0.0
 10
335.8920427111252
 20
441.4796381877886
 30
0.0
 10
336.593557523641
 20
440.9798414616147
 30
0.0
 10
337.5702869247975
 20
440.6329062238649
 30
0.0
  0
LINE
  5
D1
330
8A
100
AcDbEntity
  8
$DDT_AUDIT_GENERATED_(C8)
  6
Continuous
 62
     7
100
AcDbLine
 10
347.5702869248
 20
446.8829062239
 30
0.0
 11
347.5702869248
 21
447.0175251671
 31
0.0
  0
LINE
  5
D2
330
8A
100
AcDbEntity
  8
$DDT_AUDIT_GENERATED_(C8)
  6
Continuous
 62
     7
100
AcDbLine
 10
347.5702869248
 20
440.6329062239
 30
0.0
 11
347.5702869248
 21
437.0175251671
 31
0.0
  0
LINE
  5
D3
330
8A
100
AcDbEntity
  8
$DDT_AUDIT_GENERATED_(C8)
  6
Continuous
 62
     7
100
AcDbLine
 10
347.5702869248
 20
424.5175251671
 30
0.0
 11
347.5702869248
 21
420.9021441103
 31
0.0
  0
LINE
  5
D4
330
8A
100
AcDbEntity
  8
$DDT_AUDIT_GENERATED_(C8)
  6
Continuous
 62
     7
100
AcDbLine
 10
347.5702869248
 20
414.6521441103
 30
0.0
 11
347.5702869248
 21
414.5175251671
 31
0.0
  0
LINE
  5
D5
330
8A
100
AcDbEntity
  8
$DDT_AUDIT_GENERATED_(C8)
  6
Continuous
 62
     7
100
AcDbLine
 10
337.5702869248
 20
446.8829062239
 30
0.0
 11
347.5702869248
 21
446.8829062239
 31
0.0
  0
SPLINE
  5
D6
330
8A
100
AcDbEntity
  8
$DDT_AUDIT_GENERATED_(C8)
  6
Continuous
 62
     7
100
AcDbSpline
210
0.0
220
0.0
230
1.0
 70
     8
 71
     3
 72
    14
 73
    10
 74
     0
 42
0.0000000011014719
 43
0.0000000001
 40
0.0
 40
0.0
 40
0.0
 40
0.0
 40
0.2499999999999999
 40
0.2499999999999999
 40
0.4999999999999999
 40
0.4999999999999999
 40
0.7499999999999999
 40
0.7499999999999999
 40
1.0
 40
1.0
 40
1.0
 40
1.0
 10
347.5702869247975
 20
446.8829062238649
 30
0.0
 10
348.5480934932506
 20
446.5355883752376
 30
0.0
 10
349.2449519874314
 20
446.0376610626543
 30
0.0
 10
350.1516339393012
 20
444.947752998086
 30
0.0
 10
350.3655810396202
 20
444.353878816681
 30
0.0
 10
350.3664481926621
 20
443.165473713292
 30
0.0
 10
350.159129634393
 20
442.5799199308951
 30
0.0
 10
349.2485311384697
 20
441.4796381877886
 30
0.0
 10
348.5470163259538
 20
440.9798414616147
 30
0.0
 10
347.5702869247975
 20
440.6329062238649
 30
0.0
  0
LINE
  5
D7
330
8A
100
AcDbEntity
  8
$DDT_AUDIT_GENERATED_(C8)
  6
Continuous
 62
     7
100
AcDbLine
 10
347.5702869248
 20
440.6329062239
 30
0.0
 11
337.5702869248
 21
440.6329062239
 31
0.0
  0
LINE
  5
D8
330
8A
100
AcDbEntity
  8
$DDT_AUDIT_GENERATED_(C8)
  6
Continuous
 62
     7
100
AcDbLine
 10
337.5702869248
 20
437.0175251671
 30
0.0
 11
347.5702869248
 21
437.0175251671
 31
0.0
  0
SPLINE
  5
D9
330
8A
100
AcDbEntity
  8
$DDT_AUDIT_GENERATED_(C8)
  6
Continuous
 62
     7
100
AcDbSpline
210
0.0
220
0.0
230
1.0
 70
     8
 71
     3
 72
    14
 73
    10
 74
     0
 42
0.0000000006969408
 43
0.0000000001
 40
0.0
 40
0.0
 40
0.0
 40
0.0
 40
0.25
 40
0.25
 40
0.5
 40
0.5
 40
0.75
 40
0.75
 40
1.0
 40
1.0
 40
1.0
 40
1.0
 10
347.5702869247975
 20
437.0175251670984
 30
0.0
 10
348.5459153675672
 20
436.3244368145862
 30
0.0
 10
349.2518940562146
 20
435.3168766467554
 30
0.0
 10
350.1576078206108
 20
433.1262311943816
 30
0.0
 10
350.3679102173007
 20
431.9420168908922
 30
0.0
 10
350.3640953791638
 20
429.5619288820677
 30
0.0
 10
350.148796136614
 20
428.3789052725241
 30
0.0
 10
349.2436098219758
 20
426.2069022326817
 30
0.0
 10
348.5385758605038
 20
425.2053995194483
 30
0.0
 10
347.5702869247975
 20
424.5175251670984
 30
0.0
  0
LINE
  5
DA
330
8A
100
AcDbEntity
  8
$DDT_AUDIT_GENERATED_(C8)
  6
Continuous
 62
     7
100
AcDbLine
 10
347.5702869248
 20
424.5175251671
 30
0.0
 11
337.5702869248
 21
424.5175251671
 31
0.0
  0
LINE
  5
DB
330
8A
100
AcDbEntity
  8
$DDT_AUDIT_GENERATED_(C8)
  6
Continuous
 62
     7
100
AcDbLine
 10
337.5702869248
 20
420.9021441103
 30
0.0
 11
347.5702869248
 21
420.9021441103
 31
0.0
  0
SPLINE
  5
DC
330
8A
100
AcDbEntity
  8
$DDT_AUDIT_GENERATED_(C8)
  6
Continuous
 62
     7
100
AcDbSpline
210
0.0
220
0.0
230
1.0
 70
     8
 71
     3
 72
    14
 73
    10
 74
     0
 42
0.0000000011014719
 43
0.0000000001
 40
0.0
 40
0.0
 40
0.0
 40
0.0
 40
0.2500000000000001
 40
0.2500000000000001
 40
0.5000000000000001
 40
0.5000000000000001
 40
0.7500000000000002
 40
0.7500000000000002
 40
1.0
 40
1.0
 40
1.0
 40
1.0
 10
347.5702869247975
 20
420.9021441103318
 30
0.0
 10
348.5480934932506
 20
420.5548262617045
 30
0.0
 10
349.2449519874314
 20
420.0568989491211
 30
0.0
 10
350.1516339393012
 20
418.9669908845528
 30
0.0
 10
350.3655810396202
 20
418.3731167031478
 30
0.0
 10
350.3664481926621
 20
417.1847115997589
 30
0.0
 10
350.159129634393
 20
416.5991578173619
 30
0.0
 10
349.2485311384697
 20
415.4988760742554
 30
0.0
 10
348.5470163259538
 20
414.9990793480816
 30
0.0
 10
347.5702869247975
 20
414.6521441103317
 30
0.0
  0
LINE
  5
DD
330
8A
100
AcDbEntity
  8
$DDT_AUDIT_GENERATED_(C8)
  6
Continuous
 62
     7
100
AcDbLine
 10
347.5702869248
 20
414.6521441103
 30
0.0
 11
337.5702869248
 21
414.6521441103
 31
0.0
  0
LINE
  5
DE
330
8A
100
AcDbEntity
  8
$DDT_AUDIT_GENERATED_(C8)
  6
Continuous
 62
     7
100
AcDbLine
 10
337.5702869248
 20
414.5175251671
 30
0.0
 11
347.5702869248
 21
414.5175251671
 31
0.0
  0
ARC
  5
DF
330
8A
100
AcDbEntity
  8
$DDT_AUDIT_GENERATED_(C8)
  6
Continuous
 62
     7
100
AcDbCircle
 10
344.9345857266
 20
437.3711227707
 30
0.0
 40
10.0
100
AcDbArc
 50
52.1519040322
 51
74.7179936136
  0
ARC
  5
E0
330
8A
100
AcDbEntity
  8
$DDT_AUDIT_GENERATED_(C8)
  6
Continuous
 62
     7
100
AcDbCircle
 10
344.9345857266
 20
424.1639275635
 30
0.0
 40
9.999999999999995
100
AcDbArc
 50
285.2820063864
 51
307.8480959678
  0
ARC
  5
E1
330
8A
100
AcDbEntity
  8
$DDT_AUDIT_GENERATED_(C8)
  6
Continuous
 62
     7
100
AcDbCircle
 10
340.205988123
 20
437.3711227707
 30
0.0
 40
10.0
100
AcDbArc
 50
105.2820063864
 51
127.8480959678
  0
ARC
  5
E2
330
8A
100
AcDbEntity
  8
$DDT_AUDIT_GENERATED_(C8)
  6
Continuous
 62
     7
100
AcDbCircle
 10
340.205988123
 20
424.1639275635
 30
0.0
 40
10.0
100
AcDbArc
 50
232.1519040322
 51
254.7179936136
  0
LINE
  5
E3
330
8A
100
AcDbEntity
  8
$DDT_AUDIT_GENERATED_(C8)
  6
Continuous
 62
     7
100
AcDbLine
 10
347.5702869248
 20
447.0175251671
 30
0.0
 11
337.5702869248
 21
447.0175251671
 31
0.0
  0
LINE
  5
E5
330
8A
100
AcDbEntity
  8
$DDT_AUDIT_GENERATED_(E4)
  6
Continuous
 62
     7
100
AcDbLine
 10
410.0702869248
 20
403.0568883218
 30
0.0
 11
410.0702869248
 21
448.4965853313
 31
0.0
  0
ARC
  5
E6
330
8A
100
AcDbEntity
  8
$DDT_AUDIT_GENERATED_(E4)
  6
Continuous
 62
     7
100
AcDbCircle
 10
409.5702869248
 20
403.0568883218
 30
0.0
 40
0.5000000000000013
100
AcDbArc
 50
270.5
 51
0.0
  0
ARC
  5
E7
330
8A
100
AcDbEntity
  8
$DDT_AUDIT_GENERATED_(E4)
  6
Continuous
 62
     7
100
AcDbCircle
 10
409.5702869248
 20
448.4965853313
 30
0.0
 40
0.5000000000000004
100
AcDbArc
 50
0.0
 51
89.5
  0
LINE
  5
E8
330
8A
100
AcDbEntity
  8
$DDT_AUDIT_GENERATED_(E4)
  6
Continuous
 62
     7
100
AcDbLine
 10
378.5872616821
 20
402.2864845176
 30
0.0
 11
409.5746501925
 21
402.5569073603
 31
0.0
  0
LINE
  5
E9
330
8A
100
AcDbEntity
  8
$DDT_AUDIT_GENERATED_(E4)
  6
Continuous
 62
     7
100
AcDbLine
 10
409.5746501925
 20
448.9965662928
 30
0.0
 11
381.218208449
 21
449.2440292109
 31
0.0
  0
ARC
  5
EA
330
8A
100
AcDbEntity
  8
$DDT_AUDIT_GENERATED_(E4)
  6
Continuous
 62
     7
100
AcDbCircle
 10
404.6702869248
 20
425.6197101139
 30
0.0
 40
21.6
100
AcDbArc
 50
69.6906656079
 51
74.5160560935
  0
ARC
  5
EB
330
8A
100
AcDbEntity
  8
$DDT_AUDIT_GENERATED_(E4)
  6
Continuous
 62
     7
100
AcDbCircle
 10
404.6702869248
 20
425.9337635392
 30
0.0
 40
21.59999999999999
100
AcDbArc
 50
285.4839439065
 51
290.3049059772
  0
ARC
  5
EC
330
8A
100
AcDbEntity
  8
$DDT_AUDIT_GENERATED_(E4)
  6
Continuous
 62
     7
100
AcDbCircle
 10
410.5702869248
 20
446.917597333
 30
0.0
 40
0.5000000000000042
100
AcDbArc
 50
180.0
 51
254.5160560935
  0
ARC
  5
ED
330
8A
100
AcDbEntity
  8
$DDT_AUDIT_GENERATED_(E4)
  6
Continuous
 62
     7
100
AcDbCircle
 10
410.5702869248
 20
404.63587632
 30
0.0
 40
0.5000000000000004
100
AcDbArc
 50
105.4839439065
 51
180.0
  0
LINE
  5
EF
330
8A
100
AcDbEntity
  8
$DDT_AUDIT_GENERATED_(EE)
  6
Continuous
 62
     7
100
AcDbLine
 10
426.9320354067
 20
401.7041986663
 30
0.0
 11
421.7776026697
 21
401.5692250949
 31
0.0
  0
LINE
  5
F1
330
8A
100
AcDbEntity
  8
DV2_Default
  6
CENTER2
 62
     7
100
AcDbLine
 10
381.6202864778
 20
384.3775251671
 30
0.0
 11
341.6202873718
 21
384.3775251671
 31
0.0
  0
LINE
  5
F2
330
8A
100
AcDbEntity
  8
DV2_Default
  6
CENTER2
 62
     7
100
AcDbLine
 10
361.6202869248
 20
404.3775247201
 30
0.0
 11
361.6202869248
 21
364.3775256141
 31
0.0
  0
LINE
  5
F3
330
8A
100
AcDbEntity
  8
DV2_Default
  6
CENTER2
 62
     7
100
AcDbLine
 10
326.5702864778
 20
430.7675251671
 30
0.0
 11
286.5702873718
 21
430.7675251671
 31
0.0
  0
LINE
  5
F4
330
8A
100
AcDbEntity
  8
DV2_Default
  6
CENTER2
 62
     7
100
AcDbLine
 10
306.5702869248
 20
450.7675247201
 30
0.0
 11
306.5702869248
 21
410.7675256141
 31
0.0
  0
ENDBLK
  5
F6
330
8A
100
AcDbEntity
  8
0
100
AcDbBlockEnd
  0
BLOCK
  5
178
330
F7
100
AcDbEntity
  8
0
100
AcDbBlockBegin
  2
SE2
 70
     0
 10
0.0
 20
0.0
 30
0.0
  3
SE2
  1

  0
SPLINE
  5
F9
330
F7
100
AcDbEntity
  8
$DDT_AUDIT_GENERATED_(60)
  6
Continuous
 62
     7
100
AcDbSpline
210
0.0
220
0.0
230
1.0
 70
    24
 71
     3
 72
    40
 73
    36
 74
     0
 42
0.0000000000321116
 43
0.0000000001
 40
0.2126165754006057
 40
0.2126165754006057
 40
0.2126165754006057
 40
0.2126165754006057
 40
0.2187499999999994
 40
0.2187499999999994
 40
0.2343749999999994
 40
0.2343749999999994
 40
0.2499999999999994
 40
0.2499999999999994
 40
0.2656249999999993
 40
0.2656249999999993
 40
0.2812499999999993
 40
0.2812499999999993
 40
0.3124999999999993
 40
0.3124999999999993
 40
0.3749999999999994
 40
0.3749999999999994
 40
0.4999999999999996
 40
0.4999999999999996
 40
0.6249999999999997
 40
0.6249999999999997
 40
0.6874999999999997
 40
0.6874999999999997
 40
0.7187499999999996
 40
0.7187499999999996
 40
0.7343749999999997
 40
0.7343749999999997
 40
0.7499999999999997
 40
0.7499999999999997
 40
0.7578124999999997
 40
0.7578124999999997
 40
0.7656249999999997
 40
0.7656249999999997
 40
0.7812499999999997
 40
0.7812499999999997
 40
0.7923971229928545
 40
0.7923971229928545
 40
0.7923971229928545
 40
0.7923971229928545
 10
26.07246345166803
 20
207.5133263218655
 30
0.0
 10
26.07254676665657
 20
207.5133263218655
 30
0.0
 10
26.11896449670667
 20
207.5133263218655
 30
0.0
 10
26.45128649850864
 20
207.5133263218655
 30
0.0
 10
26.9878709896781
 20
207.5133263218655
 30
0.0
 10
28.67537659747604
 20
207.5133263218655
 30
0.0
 10
29.80253394446221
 20
207.5133263218655
 30
0.0
 10
32.5958611285845
 20
207.5133263218655
 30
0.0
 10
34.17315414966097
 20
207.5133263218655
 30
0.0
 10
37.49712607470626
 20
207.5133263218655
 30
0.0
 10
39.21790436899579
 20
207.5133263218655
 30
0.0
 10
44.39524069725709
 20
207.5133263218655
 30
0.0
 10
47.90564321691311
 20
207.5133263218655
 30
0.0
 10
58.48432089333582
 20
207.5133263218655
 30
0.0
 10
65.59461662243274
 20
207.5133263218655
 30
0.0
 10
86.88341786987549
 20
207.5133263218655
 30
0.0
 10
101.0943423442854
 20
207.5133263218655
 30
0.0
 10
129.5620518394206
 20
207.5133263218655
 30
0.0
 10
143.8377785424213
 20
207.5133263218655
 30
0.0
 10
165.1641533426084
 20
207.5133263218655
 30
0.0
 10
172.2639004643725
 20
207.5133263218655
 30
0.0
 10
182.8749823389412
 20
207.5133263218655
 30
0.0
 10
186.3938787715863
 20
207.5133263218655
 30
0.0
 10
191.5872471896379
 20
207.5133263218655
 30
0.0
 10
193.3039962773705
 20
207.5133263218655
 30
0.0
 10
196.6732155643444
 20
207.5133263218655
 30
0.0
 10
198.3501912962415
 20
207.5133263218655
 30
0.0
 10
200.6732482127586
 20
207.5133263218655
 30
0.0
 10
201.3997830159691
 20
207.5133263218655
 30
0.0
 10
202.7373762684853
 20
207.5133263218655
 30
0.0
 10
203.3525706719512
 20
207.5133263218655
 30
0.0
 10
204.9398955939746
 20
207.5133263218655
 30
0.0
 10
205.7034555212168
 20
207.5133263218655
 30
0.0
 10
206.4680667430912
 20
207.5133263218655
 30
0.0
 10
206.6232893632323
 20
207.5133263218655
 30
0.0
 10
206.6222126091008
 20
207.5133263218655
 30
0.0
  0
SPLINE
  5
FA
330
F7
100
AcDbEntity
  8
$DDT_AUDIT_GENERATED_(60)
  6
Continuous
 62
     7
100
AcDbSpline
210
0.0
220
0.0
230
1.0
 70
     8
 71
     3
 72
    17
 73
    13
 74
     0
 42
0.0000000000543844
 43
0.0000000001
 40
0.0
 40
0.0
 40
0.0
 40
0.0
 40
0.0357749439669914
 40
0.0818523368423711
 40
0.1298311261855879
 40
0.1790811830503229
 40
0.2288042620199794
 40
0.2773080066223416
 40
0.3253142791463852
 40
0.3729543242186321
 40
0.4205299462763644
 40
0.4205348403145526
 40
0.4205348403145526
 40
0.4205348403145526
 40
0.4205348403145526
 10
26.98735315082891
 20
193.0472212500197
 30
0.0
 10
29.28013212099598
 20
192.2991020212961
 30
0.0
 10
33.71581351652139
 20
190.8546102276295
 30
0.0
 10
41.47069280914695
 20
188.4125992458059
 30
0.0
 10
49.82240860394504
 20
185.8678283051135
 30
0.0
 10
58.48207821534127
 20
183.3390342040528
 30
0.0
 10
67.18995354449878
 20
180.9299844464917
 30
0.0
 10
75.87015973756695
 20
178.6936994350177
 30
0.0
 10
84.47984596930172
 20
176.7114561799866
 30
0.0
 10
93.1002726181172
 20
175.0501043594925
 30
0.0
 10
98.87898380732497
 20
174.2187754994774
 30
0.0
 10
101.7764193633395
 20
173.8895966136238
 30
0.0
 10
101.7767173879597
 20
173.889562755844
 30
0.0
  0
SPLINE
  5
FB
330
F7
100
AcDbEntity
  8
$DDT_AUDIT_GENERATED_(60)
  6
Continuous
 62
     7
100
AcDbSpline
210
0.0
220
0.0
230
1.0
 70
     8
 71
     3
 72
    19
 73
    15
 74
     0
 42
0.0000000000543861
 43
0.0000000001
 40
0.5793182001020295
 40
0.5793182001020295
 40
0.5793182001020295
 40
0.5793182001020295
 40
0.5826421235232296
 40
0.6186688871829319
 40
0.6567787858141946
 40
0.6883977677180755
 40
0.7217893971190122
 40
0.7571884157930467
 40
0.7948208745906437
 40
0.8346623832936885
 40
0.8757338210132469
 40
0.9184924870320026
 40
0.9626745768940533
 40
1.0
 40
1.0
 40
1.0
 40
1.0
 10
130.9077679359895
 20
173.8773191116475
 30
0.0
 10
131.1102014840967
 20
173.9002063526297
 30
0.0
 10
133.506159557931
 20
174.1761728197989
 30
0.0
 10
138.2086726417872
 20
174.8347486630678
 30
0.0
 10
144.5885278852406
 20
175.9830503608679
 30
0.0
 10
150.772829076311
 20
177.2857788290579
 30
0.0
 10
156.7646752168726
 20
178.6889219081764
 30
0.0
 10
163.0862930900008
 20
180.2943305871896
 30
0.0
 10
169.7662292650311
 20
182.0956871090281
 30
0.0
 10
176.7547016601933
 20
184.072785698682
 30
0.0
 10
184.0359025853377
 20
186.219006487705
 30
0.0
 10
191.4974373707115
 20
188.4979983212687
 30
0.0
 10
198.9166375613064
 20
190.8330772454824
 30
0.0
 10
203.3286981477997
 20
192.2695786561798
 30
0.0
 10
205.7209835639709
 20
193.0499986243593
 30
0.0
  0
LINE
  5
FC
330
F7
100
AcDbEntity
  8
$DDT_AUDIT_GENERATED_(60)
  6
Continuous
 62
     7
100
AcDbLine
 10
205.7567335505
 20
193.040599841
 30
0.0
 11
206.6260704126
 21
207.5102839015
 31
0.0
  0
LINE
  5
FD
330
F7
100
AcDbEntity
  8
$DDT_AUDIT_GENERATED_(60)
  6
Continuous
 62
     7
100
AcDbLine
 10
26.0738364099
 20
207.5118347948
 30
0.0
 11
26.9433402258
 21
193.0393718702
 31
0.0
  0
LINE
  5
FE
330
F7
100
AcDbEntity
  8
$DDT_AUDIT_GENERATED_(A6)
  6
Continuous
 62
     7
100
AcDbLine
 10
180.35
 20
225.5133263219
 30
0.0
 11
178.13
 21
224.638845066
 31
0.0
  0
LINE
  5
FF
330
F7
100
AcDbEntity
  8
$DDT_AUDIT_GENERATED_(A6)
  6
Continuous
 62
     7
100
AcDbLine
 10
180.35
 20
226.0133263219
 30
0.0
 11
180.35
 21
225.5133263219
 31
0.0
  0
LINE
  5
100
330
F7
100
AcDbEntity
  8
$DDT_AUDIT_GENERATED_(A6)
  6
Continuous
 62
     7
100
AcDbLine
 10
202.35
 20
225.5133263219
 30
0.0
 11
204.57
 21
224.638845066
 31
0.0
  0
LINE
  5
101
330
F7
100
AcDbEntity
  8
$DDT_AUDIT_GENERATED_(A6)
  6
Continuous
 62
     7
100
AcDbLine
 10
202.35
 20
226.0133263219
 30
0.0
 11
202.35
 21
225.5133263219
 31
0.0
  0
LINE
  5
102
330
F7
100
AcDbEntity
  8
$DDT_AUDIT_GENERATED_(A6)
  6
Continuous
 62
     7
100
AcDbLine
 10
204.57
 20
224.5133263219
 30
0.0
 11
204.57
 21
224.638845066
 31
0.0
  0
LINE
  5
103
330
F7
100
AcDbEntity
  8
$DDT_AUDIT_GENERATED_(A6)
  6
Continuous
 62
     7
100
AcDbLine
 10
178.13
 20
224.638845066
 30
0.0
 11
178.13
 21
224.5133263219
 31
0.0
  0
LINE
  5
104
330
F7
100
AcDbEntity
  8
$DDT_AUDIT_GENERATED_(A6)
  6
Continuous
 62
     7
100
AcDbLine
 10
203.4
 20
225.0997203225
 30
0.0
 11
203.4
 21
224.5133263219
 31
0.0
  0
LINE
  5
105
330
F7
100
AcDbEntity
  8
$DDT_AUDIT_GENERATED_(A6)
  6
Continuous
 62
     7
100
AcDbLine
 10
179.3
 20
225.0997203225
 30
0.0
 11
179.3
 21
224.5133263219
 31
0.0
  0
LINE
  5
106
330
F7
100
AcDbEntity
  8
$DDT_AUDIT_GENERATED_(68)
  6
Continuous
 62
     7
100
AcDbLine
 10
226.35
 20
252.0133263219
 30
0.0
 11
156.35
 21
252.0133263219
 31
0.0
  0
LINE
  5
107
330
F7
100
AcDbEntity
  8
$DDT_AUDIT_GENERATED_(68)
  6
Continuous
 62
     7
100
AcDbLine
 10
176.4824716585
 20
226.0133263219
 30
0.0
 11
206.2175283415
 21
226.0133263219
 31
0.0
  0
LINE
  5
108
330
F7
100
AcDbEntity
  8
$DDT_AUDIT_GENERATED_(68)
  6
Continuous
 62
     7
100
AcDbLine
 10
156.35
 20
252.0133263219
 30
0.0
 11
156.35
 21
246.826962778
 31
0.0
  0
LINE
  5
109
330
F7
100
AcDbEntity
  8
$DDT_AUDIT_GENERATED_(68)
  6
Continuous
 62
     7
100
AcDbLine
 10
226.35
 20
246.826962778
 30
0.0
 11
226.35
 21
252.0133263219
 31
0.0
  0
LINE
  5
10A
330
F7
100
AcDbEntity
  8
$DDT_AUDIT_GENERATED_(68)
  6
Continuous
 62
     7
100
AcDbLine
 10
156.9179997208
 20
245.4307625057
 30
0.0
 11
175.4084714491
 21
226.4661761177
 31
0.0
  0
LINE
  5
10B
330
F7
100
AcDbEntity
  8
$DDT_AUDIT_GENERATED_(68)
  6
Continuous
 62
     7
100
AcDbLine
 10
207.2915285509
 20
226.4661761177
 30
0.0
 11
225.7820002792
 21
245.4307625057
 31
0.0
  0
ARC
  5
10C
330
F7
100
AcDbEntity
  8
$DDT_AUDIT_GENERATED_(68)
  6
Continuous
 62
     7
100
AcDbCircle
 10
176.4824716585
 20
227.5133263219
 30
0.0
 40
1.500000000000002
100
AcDbArc
 50
224.2747757009
 51
270.0
  0
ARC
  5
10D
330
F7
100
AcDbEntity
  8
$DDT_AUDIT_GENERATED_(68)
  6
Continuous
 62
     7
100
AcDbCircle
 10
206.2175283415
 20
227.5133263219
 30
0.0
 40
1.500000000000001
100
AcDbArc
 50
270.0
 51
315.7252242991
  0
ARC
  5
10E
330
F7
100
AcDbEntity
  8
$DDT_AUDIT_GENERATED_(68)
  6
Continuous
 62
     7
100
AcDbCircle
 10
224.35
 20
246.826962778
 30
0.0
 40
2.0
100
AcDbArc
 50
315.7252242991
 51
0.0
  0
ARC
  5
10F
330
F7
100
AcDbEntity
  8
$DDT_AUDIT_GENERATED_(68)
  6
Continuous
 62
     7
100
AcDbCircle
 10
158.35
 20
246.826962778
 30
0.0
 40
2.000000000000002
100
AcDbArc
 50
180.0
 51
224.2747757009
  0
LINE
  5
110
330
F7
100
AcDbEntity
  8
$DDT_AUDIT_GENERATED_(A6)
  6
Continuous
 62
     7
100
AcDbLine
 10
28.13
 20
224.638845066
 30
0.0
 11
30.35
 21
225.5133263219
 31
0.0
  0
LINE
  5
111
330
F7
100
AcDbEntity
  8
$DDT_AUDIT_GENERATED_(A6)
  6
Continuous
 62
     7
100
AcDbLine
 10
30.35
 20
226.0133263219
 30
0.0
 11
30.35
 21
225.5133263219
 31
0.0
  0
LINE
  5
112
330
F7
100
AcDbEntity
  8
$DDT_AUDIT_GENERATED_(A6)
  6
Continuous
 62
     7
100
AcDbLine
 10
52.35
 20
225.5133263219
 30
0.0
 11
54.57
 21
224.638845066
 31
0.0
  0
LINE
  5
113
330
F7
100
AcDbEntity
  8
$DDT_AUDIT_GENERATED_(A6)
  6
Continuous
 62
     7
100
AcDbLine
 10
52.35
 20
226.0133263219
 30
0.0
 11
52.35
 21
225.5133263219
 31
0.0
  0
LINE
  5
114
330
F7
100
AcDbEntity
  8
$DDT_AUDIT_GENERATED_(A6)
  6
Continuous
 62
     7
100
AcDbLine
 10
54.57
 20
224.5133263219
 30
0.0
 11
54.57
 21
224.638845066
 31
0.0
  0
LINE
  5
115
330
F7
100
AcDbEntity
  8
$DDT_AUDIT_GENERATED_(A6)
  6
Continuous
 62
     7
100
AcDbLine
 10
28.13
 20
224.638845066
 30
0.0
 11
28.13
 21
224.5133263219
 31
0.0
  0
LINE
  5
116
330
F7
100
AcDbEntity
  8
$DDT_AUDIT_GENERATED_(A6)
  6
Continuous
 62
     7
100
AcDbLine
 10
53.4
 20
225.0997203225
 30
0.0
 11
53.4
 21
224.5133263219
 31
0.0
  0
LINE
  5
117
330
F7
100
AcDbEntity
  8
$DDT_AUDIT_GENERATED_(A6)
  6
Continuous
 62
     7
100
AcDbLine
 10
29.3
 20
225.0997203225
 30
0.0
 11
29.3
 21
224.5133263219
 31
0.0
  0
LINE
  5
118
330
F7
100
AcDbEntity
  8
$DDT_AUDIT_GENERATED_(68)
  6
Continuous
 62
     7
100
AcDbLine
 10
76.35
 20
252.0133263219
 30
0.0
 11
6.35
 21
252.0133263219
 31
0.0
  0
LINE
  5
119
330
F7
100
AcDbEntity
  8
$DDT_AUDIT_GENERATED_(68)
  6
Continuous
 62
     7
100
AcDbLine
 10
26.4824716585
 20
226.0133263219
 30
0.0
 11
56.2175283415
 21
226.0133263219
 31
0.0
  0
LINE
  5
11A
330
F7
100
AcDbEntity
  8
$DDT_AUDIT_GENERATED_(68)
  6
Continuous
 62
     7
100
AcDbLine
 10
6.35
 20
252.0133263219
 30
0.0
 11
6.35
 21
246.826962778
 31
0.0
  0
LINE
  5
11B
330
F7
100
AcDbEntity
  8
$DDT_AUDIT_GENERATED_(68)
  6
Continuous
 62
     7
100
AcDbLine
 10
76.35
 20
246.826962778
 30
0.0
 11
76.35
 21
252.0133263219
 31
0.0
  0
LINE
  5
11C
330
F7
100
AcDbEntity
  8
$DDT_AUDIT_GENERATED_(68)
  6
Continuous
 62
     7
100
AcDbLine
 10
6.9179997208
 20
245.4307625057
 30
0.0
 11
25.4084714491
 21
226.4661761177
 31
0.0
  0
LINE
  5
11D
330
F7
100
AcDbEntity
  8
$DDT_AUDIT_GENERATED_(68)
  6
Continuous
 62
     7
100
AcDbLine
 10
57.2915285509
 20
226.4661761177
 30
0.0
 11
75.7820002792
 21
245.4307625057
 31
0.0
  0
ARC
  5
11E
330
F7
100
AcDbEntity
  8
$DDT_AUDIT_GENERATED_(68)
  6
Continuous
 62
     7
100
AcDbCircle
 10
26.4824716585
 20
227.5133263219
 30
0.0
 40
1.500000000000002
100
AcDbArc
 50
224.2747757009
 51
270.0
  0
ARC
  5
11F
330
F7
100
AcDbEntity
  8
$DDT_AUDIT_GENERATED_(68)
  6
Continuous
 62
     7
100
AcDbCircle
 10
56.2175283415
 20
227.5133263219
 30
0.0
 40
1.500000000000001
100
AcDbArc
 50
270.0
 51
315.7252242991
  0
ARC
  5
120
330
F7
100
AcDbEntity
  8
$DDT_AUDIT_GENERATED_(68)
  6
Continuous
 62
     7
100
AcDbCircle
 10
74.35
 20
246.826962778
 30
0.0
 40
2.0
100
AcDbArc
 50
315.7252242991
 51
0.0
  0
ARC
  5
121
330
F7
100
AcDbEntity
  8
$DDT_AUDIT_GENERATED_(68)
  6
Continuous
 62
     7
100
AcDbCircle
 10
8.35
 20
246.826962778
 30
0.0
 40
2.000000000000002
100
AcDbArc
 50
180.0
 51
224.2747757009
  0
LINE
  5
122
330
F7
100
AcDbEntity
  8
$DDT_AUDIT_GENERATED_(C8)
  6
Continuous
 62
     7
100
AcDbLine
 10
201.2153810568
 20
211.0133263219
 30
0.0
 11
197.6
 21
211.0133263219
 31
0.0
  0
LINE
  5
123
330
F7
100
AcDbEntity
  8
$DDT_AUDIT_GENERATED_(C8)
  6
Continuous
 62
     7
100
AcDbLine
 10
176.85
 20
224.5133263219
 30
0.0
 11
205.85
 21
224.5133263219
 31
0.0
  0
LINE
  5
124
330
F7
100
AcDbEntity
  8
$DDT_AUDIT_GENERATED_(C8)
  6
Continuous
 62
     7
100
AcDbLine
 10
201.2153810568
 20
221.0133263219
 30
0.0
 11
197.6
 21
221.0133263219
 31
0.0
  0
LINE
  5
125
330
F7
100
AcDbEntity
  8
$DDT_AUDIT_GENERATED_(C8)
  6
Continuous
 62
     7
100
AcDbLine
 10
185.1
 20
221.0133263219
 30
0.0
 11
181.4846189432
 21
221.0133263219
 31
0.0
  0
LINE
  5
126
330
F7
100
AcDbEntity
  8
$DDT_AUDIT_GENERATED_(C8)
  6
Continuous
 62
     7
100
AcDbLine
 10
175.2346189432
 20
221.0133263219
 30
0.0
 11
175.1
 21
221.0133263219
 31
0.0
  0
LINE
  5
127
330
F7
100
AcDbEntity
  8
$DDT_AUDIT_GENERATED_(C8)
  6
Continuous
 62
     7
100
AcDbLine
 10
207.4653810568
 20
221.0133263219
 30
0.0
 11
207.6
 21
221.0133263219
 31
0.0
  0
SPLINE
  5
128
330
F7
100
AcDbEntity
  8
$DDT_AUDIT_GENERATED_(C8)
  6
Continuous
 62
     7
100
AcDbSpline
210
0.0
220
0.0
230
1.0
 70
     8
 71
     3
 72
    14
 73
    10
 74
     0
 42
0.0000000011014719
 43
0.0000000001
 40
0.0
 40
0.0
 40
0.0
 40
0.0
 40
0.25
 40
0.25
 40
0.5
 40
0.5
 40
0.75
 40
0.75
 40
1.0
 40
1.0
 40
1.0
 40
1.0
 10
207.4653810567666
 20
221.0133263218655
 30
0.0
 10
207.1180632081393
 20
221.9911328903187
 30
0.0
 10
206.6201358955559
 20
222.6879913844995
 30
0.0
 10
205.5302278309877
 20
223.5946733363692
 30
0.0
 10
204.9363536495827
 20
223.8086204366883
 30
0.0
 10
203.7479485461938
 20
223.8094875897302
 30
0.0
 10
203.1623947637967
 20
223.6021690314611
 30
0.0
 10
202.0621130206902
 20
222.6915705355377
 30
0.0
 10
201.5623162945164
 20
221.990055723022
 30
0.0
 10
201.2153810567666
 20
221.0133263218655
 30
0.0
  0
SPLINE
  5
129
330
F7
100
AcDbEntity
  8
$DDT_AUDIT_GENERATED_(C8)
  6
Continuous
 62
     7
100
AcDbSpline
210
0.0
220
0.0
230
1.0
 70
     8
 71
     3
 72
    14
 73
    10
 74
     0
 42
0.0000000011014719
 43
0.0000000001
 40
0.0
 40
0.0
 40
0.0
 40
0.0
 40
0.25
 40
0.25
 40
0.5
 40
0.5
 40
0.75
 40
0.75
 40
1.0
 40
1.0
 40
1.0
 40
1.0
 10
181.4846189432334
 20
221.0133263218655
 30
0.0
 10
181.1373010946062
 20
221.9911328903187
 30
0.0
 10
180.6393737820228
 20
222.6879913844995
 30
0.0
 10
179.5494657174545
 20
223.5946733363692
 30
0.0
 10
178.9555915360495
 20
223.8086204366883
 30
0.0
 10
177.7671864326606
 20
223.8094875897302
 30
0.0
 10
177.1816326502635
 20
223.6021690314611
 30
0.0
 10
176.0813509071571
 20
222.6915705355377
 30
0.0
 10
175.5815541809832
 20
221.990055723022
 30
0.0
 10
175.2346189432334
 20
221.0133263218655
 30
0.0
  0
SPLINE
  5
12A
330
F7
100
AcDbEntity
  8
$DDT_AUDIT_GENERATED_(C8)
  6
Continuous
 62
     7
100
AcDbSpline
210
0.0
220
0.0
230
1.0
 70
     8
 71
     3
 72
    14
 73
    10
 74
     0
 42
0.0000000006969408
 43
0.0000000001
 40
0.0
 40
0.0
 40
0.0
 40
0.0
 40
0.25
 40
0.25
 40
0.5
 40
0.5
 40
0.75
 40
0.75
 40
1.0
 40
1.0
 40
1.0
 40
1.0
 10
197.6
 20
221.0133263218655
 30
0.0
 10
196.9069116474878
 20
221.9889547646353
 30
0.0
 10
195.899351479657
 20
222.6949334532827
 30
0.0
 10
193.7087060272832
 20
223.6006472176789
 30
0.0
 10
192.5244917237939
 20
223.8109496143688
 30
0.0
 10
190.1444037149694
 20
223.8071347762318
 30
0.0
 10
188.9613801054258
 20
223.5918355336821
 30
0.0
 10
186.7893770655833
 20
222.6866492190439
 30
0.0
 10
185.78787435235
 20
221.9816152575719
 30
0.0
 10
185.1
 20
221.0133263218655
 30
0.0
  0
LINE
  5
12B
330
F7
100
AcDbEntity
  8
$DDT_AUDIT_GENERATED_(C8)
  6
Continuous
 62
     7
100
AcDbLine
 10
185.1
 20
211.0133263219
 30
0.0
 11
181.4846189432
 21
211.0133263219
 31
0.0
  0
LINE
  5
12C
330
F7
100
AcDbEntity
  8
$DDT_AUDIT_GENERATED_(C8)
  6
Continuous
 62
     7
100
AcDbLine
 10
175.2346189432
 20
211.0133263219
 30
0.0
 11
175.1
 21
211.0133263219
 31
0.0
  0
LINE
  5
12D
330
F7
100
AcDbEntity
  8
$DDT_AUDIT_GENERATED_(C8)
  6
Continuous
 62
     7
100
AcDbLine
 10
207.4653810568
 20
211.0133263219
 30
0.0
 11
207.6
 21
211.0133263219
 31
0.0
  0
LINE
  5
12E
330
F7
100
AcDbEntity
  8
$DDT_AUDIT_GENERATED_(C8)
  6
Continuous
 62
     7
100
AcDbLine
 10
197.6
 20
221.0133263219
 30
0.0
 11
197.6
 21
211.0133263219
 31
0.0
  0
SPLINE
  5
12F
330
F7
100
AcDbEntity
  8
$DDT_AUDIT_GENERATED_(C8)
  6
Continuous
 62
     7
100
AcDbSpline
210
0.0
220
0.0
230
1.0
 70
     8
 71
     3
 72
    14
 73
    10
 74
     0
 42
0.0000000006969408
 43
0.0000000001
 40
0.0
 40
0.0
 40
0.0
 40
0.0
 40
0.25
 40
0.25
 40
0.5
 40
0.5
 40
0.75
 40
0.75
 40
1.0
 40
1.0
 40
1.0
 40
1.0
 10
197.6
 20
211.0133263218655
 30
0.0
 10
196.9069116474879
 20
210.0376978790958
 30
0.0
 10
195.899351479657
 20
209.3317191904484
 30
0.0
 10
193.7087060272832
 20
208.4260054260522
 30
0.0
 10
192.5244917237939
 20
208.2157030293622
 30
0.0
 10
190.1444037149694
 20
208.2195178674993
 30
0.0
 10
188.9613801054258
 20
208.434817110049
 30
0.0
 10
186.7893770655833
 20
209.3400034246872
 30
0.0
 10
185.78787435235
 20
210.0450373861592
 30
0.0
 10
185.1
 20
211.0133263218655
 30
0.0
  0
LINE
  5
130
330
F7
100
AcDbEntity
  8
$DDT_AUDIT_GENERATED_(C8)
  6
Continuous
 62
     7
100
AcDbLine
 10
185.1
 20
211.0133263219
 30
0.0
 11
185.1
 21
221.0133263219
 31
0.0
  0
LINE
  5
131
330
F7
100
AcDbEntity
  8
$DDT_AUDIT_GENERATED_(C8)
  6
Continuous
 62
     7
100
AcDbLine
 10
181.4846189432
 20
221.0133263219
 30
0.0
 11
181.4846189432
 21
211.0133263219
 31
0.0
  0
SPLINE
  5
132
330
F7
100
AcDbEntity
  8
$DDT_AUDIT_GENERATED_(C8)
  6
Continuous
 62
     7
100
AcDbSpline
210
0.0
220
0.0
230
1.0
 70
     8
 71
     3
 72
    14
 73
    10
 74
     0
 42
0.0000000011014719
 43
0.0000000001
 40
0.0
 40
0.0
 40
0.0
 40
0.0
 40
0.2500000000000001
 40
0.2500000000000001
 40
0.5000000000000001
 40
0.5000000000000001
 40
0.7500000000000002
 40
0.7500000000000002
 40
1.0
 40
1.0
 40
1.0
 40
1.0
 10
181.4846189432334
 20
211.0133263218655
 30
0.0
 10
181.1373010946062
 20
210.0355197534124
 30
0.0
 10
180.6393737820228
 20
209.3386612592316
 30
0.0
 10
179.5494657174545
 20
208.4319793073618
 30
0.0
 10
178.9555915360495
 20
208.2180322070428
 30
0.0
 10
177.7671864326606
 20
208.2171650540009
 30
0.0
 10
177.1816326502635
 20
208.4244836122699
 30
0.0
 10
176.0813509071571
 20
209.3350821081933
 30
0.0
 10
175.5815541809832
 20
210.0365969207091
 30
0.0
 10
175.2346189432334
 20
211.0133263218655
 30
0.0
  0
LINE
  5
133
330
F7
100
AcDbEntity
  8
$DDT_AUDIT_GENERATED_(C8)
  6
Continuous
 62
     7
100
AcDbLine
 10
175.2346189432
 20
211.0133263219
 30
0.0
 11
175.2346189432
 21
221.0133263219
 31
0.0
  0
LINE
  5
134
330
F7
100
AcDbEntity
  8
$DDT_AUDIT_GENERATED_(C8)
  6
Continuous
 62
     7
100
AcDbLine
 10
207.4653810568
 20
221.0133263219
 30
0.0
 11
207.4653810568
 21
211.0133263219
 31
0.0
  0
SPLINE
  5
135
330
F7
100
AcDbEntity
  8
$DDT_AUDIT_GENERATED_(C8)
  6
Continuous
 62
     7
100
AcDbSpline
210
0.0
220
0.0
230
1.0
 70
     8
 71
     3
 72
    14
 73
    10
 74
     0
 42
0.0000000011014719
 43
0.0000000001
 40
0.0
 40
0.0
 40
0.0
 40
0.0
 40
0.2499999999999999
 40
0.2499999999999999
 40
0.4999999999999999
 40
0.4999999999999999
 40
0.7499999999999999
 40
0.7499999999999999
 40
1.0
 40
1.0
 40
1.0
 40
1.0
 10
207.4653810567666
 20
211.0133263218655
 30
0.0
 10
207.1180632081393
 20
210.0355197534124
 30
0.0
 10
206.6201358955559
 20
209.3386612592316
 30
0.0
 10
205.5302278309877
 20
208.4319793073618
 30
0.0
 10
204.9363536495827
 20
208.2180322070428
 30
0.0
 10
203.7479485461938
 20
208.2171650540009
 30
0.0
 10
203.1623947637967
 20
208.4244836122699
 30
0.0
 10
202.0621130206902
 20
209.3350821081933
 30
0.0
 10
201.5623162945164
 20
210.0365969207091
 30
0.0
 10
201.2153810567666
 20
211.0133263218655
 30
0.0
  0
LINE
  5
136
330
F7
100
AcDbEntity
  8
$DDT_AUDIT_GENERATED_(C8)
  6
Continuous
 62
     7
100
AcDbLine
 10
201.2153810568
 20
211.0133263219
 30
0.0
 11
201.2153810568
 21
221.0133263219
 31
0.0
  0
LINE
  5
137
330
F7
100
AcDbEntity
  8
$DDT_AUDIT_GENERATED_(C8)
  6
Continuous
 62
     7
100
AcDbLine
 10
207.6
 20
211.0133263219
 30
0.0
 11
207.6
 21
221.0133263219
 31
0.0
  0
ARC
  5
138
330
F7
100
AcDbEntity
  8
$DDT_AUDIT_GENERATED_(C8)
  6
Continuous
 62
     7
100
AcDbCircle
 10
197.9535976036
 20
213.6490275201
 30
0.0
 40
9.999999999999998
100
AcDbArc
 50
322.1519040322
 51
344.7179936136
  0
ARC
  5
139
330
F7
100
AcDbEntity
  8
$DDT_AUDIT_GENERATED_(C8)
  6
Continuous
 62
     7
100
AcDbCircle
 10
184.7464023964
 20
213.6490275201
 30
0.0
 40
9.999999999999991
100
AcDbArc
 50
195.2820063864
 51
217.8480959678
  0
ARC
  5
13A
330
F7
100
AcDbEntity
  8
$DDT_AUDIT_GENERATED_(C8)
  6
Continuous
 62
     7
100
AcDbCircle
 10
197.9535976036
 20
218.3776251237
 30
0.0
 40
9.999999999999993
100
AcDbArc
 50
15.2820063864
 51
37.8480959678
  0
ARC
  5
13B
330
F7
100
AcDbEntity
  8
$DDT_AUDIT_GENERATED_(C8)
  6
Continuous
 62
     7
100
AcDbCircle
 10
184.7464023964
 20
218.3776251237
 30
0.0
 40
9.999999999999998
100
AcDbArc
 50
142.1519040322
 51
164.7179936136
  0
LINE
  5
13C
330
F7
100
AcDbEntity
  8
$DDT_AUDIT_GENERATED_(C8)
  6
Continuous
 62
     7
100
AcDbLine
 10
175.1
 20
221.0133263219
 30
0.0
 11
175.1
 21
211.0133263219
 31
0.0
  0
SPLINE
  5
13D
330
F7
100
AcDbEntity
  8
$DDT_AUDIT_GENERATED_(6C)
  6
Continuous
 62
     7
100
AcDbSpline
210
0.0
220
0.0
230
1.0
 70
     8
 71
     3
 72
     8
 73
     4
 74
     0
 42
0.0000000051012861
 43
0.0000000001
 40
0.6659722404189939
 40
0.6659722404189939
 40
0.6659722404189939
 40
0.6659722404189939
 40
0.667808934789664
 40
0.667808934789664
 40
0.667808934789664
 40
0.667808934789664
 10
103.9030068643847
 20
107.3228064076081
 30
0.0
 10
103.9042193357333
 20
107.3226738233827
 30
0.0
 10
103.9054147988666
 20
107.3225715422036
 30
0.0
 10
103.9065935226202
 20
107.3224994875898
 30
0.0
  0
SPLINE
  5
13E
330
F7
100
AcDbEntity
  8
$DDT_AUDIT_GENERATED_(6C)
  6
Continuous
 62
     7
100
AcDbSpline
210
0.0
220
0.0
230
1.0
 70
     8
 71
     3
 72
     8
 73
     4
 74
     0
 42
0.0000000006629905
 43
0.0000000001
 40
0.012641587269243
 40
0.012641587269243
 40
0.012641587269243
 40
0.012641587269243
 40
0.0306273807696986
 40
0.0306273807696986
 40
0.0306273807696986
 40
0.0306273807696986
 10
93.31328276767897
 20
122.8716242281725
 30
0.0
 10
93.30867511880508
 20
122.9616033006826
 30
0.0
 10
93.30560039623273
 20
123.0521001859837
 30
0.0
 10
93.30594304048381
 20
123.1427362874546
 30
0.0
  0
SPLINE
  5
13F
330
F7
100
AcDbEntity
  8
$DDT_AUDIT_GENERATED_(6C)
  6
Continuous
 62
     7
100
AcDbSpline
210
0.0
220
0.0
230
1.0
 70
     8
 71
     3
 72
    24
 73
    20
 74
     0
 42
0.000000000364051
 43
0.0000000001
 40
0.0306273807696986
 40
0.0306273807696986
 40
0.0306273807696986
 40
0.0306273807696986
 40
0.0360164712509025
 40
0.073410762502335
 40
0.1121961292946605
 40
0.1741401131262277
 40
0.2461336804668229
 40
0.3123587812106964
 40
0.3336121495194811
 40
0.3414706201797163
 40
0.3582108874654499
 40
0.4745132361859786
 40
0.5940288808301033
 40
0.6449069022687355
 40
0.720058659424919
 40
0.7883266079722843
 40
0.8548507388606189
 40
0.9264185584935678
 40
1.0
 40
1.0
 40
1.0
 40
1.0
 10
93.30594304048381
 20
123.1427362874546
 30
0.0
 10
93.30604570711745
 20
123.1698936186937
 30
0.0
 10
93.3092964613588
 20
123.3855918345134
 30
0.0
 10
93.35845191456887
 20
123.7971098148368
 30
0.0
 10
93.5368838478879
 20
124.4901739628623
 30
0.0
 10
93.92956252891071
 20
125.3475331953658
 30
0.0
 10
94.63517864687707
 20
126.3098311701685
 30
0.0
 10
95.39573489189384
 20
127.0447331902306
 30
0.0
 10
95.92070831431423
 20
127.4744365037827
 30
0.0
 10
96.18268369351617
 20
127.6866226560897
 30
0.0
 10
97.02582058550799
 20
128.2907604440967
 30
0.0
 10
98.81254872429653
 20
129.3449398906947
 30
0.0
 10
101.3733134611683
 20
130.3321339204209
 30
0.0
 10
103.8478134785029
 20
131.0371874647246
 30
0.0
 10
105.9600966045434
 20
131.5150858941562
 30
0.0
 10
108.3986222562433
 20
131.9212369273813
 30
0.0
 10
110.9073979822348
 20
132.2206653127723
 30
0.0
 10
113.5625517197265
 20
132.4243830571441
 30
0.0
 10
115.4122968787524
 20
132.4734454854912
 30
0.0
 10
116.3499999999999
 20
132.4983170154723
 30
0.0
  0
LINE
  5
140
330
F7
100
AcDbEntity
  8
$DDT_AUDIT_GENERATED_(6C)
  6
Continuous
 62
     7
100
AcDbLine
 10
92.6663472908
 20
146.4345464582
 30
0.0
 11
116.35
 21
146.4345464582
 31
0.0
  0
ARC
  5
141
330
F7
100
AcDbEntity
  8
$DDT_AUDIT_GENERATED_(6C)
  6
Continuous
 62
     7
100
AcDbCircle
 10
1411.325687598
 20
188.2919989347
 30
0.0
 40
1319.633052246234
100
AcDbArc
 50
181.8311431822
 51
182.5288190096
  0
ARC
  5
142
330
F7
100
AcDbEntity
  8
$DDT_AUDIT_GENERATED_(6C)
  6
Continuous
 62
     7
100
AcDbCircle
 10
92.6659876289
 20
146.1348950364
 30
0.0
 40
0.2996516376833709
100
AcDbArc
 50
89.9312297498
 51
182.0080634769
  0
ARC
  5
143
330
F7
100
AcDbEntity
  8
$DDT_AUDIT_GENERATED_(6C)
  6
Continuous
 62
     7
100
AcDbCircle
 10
-1235.5764828209
 20
190.6196695945
 30
0.0
 40
1376.629236656649
100
AcDbArc
 50
357.4788206823
 51
358.1477688648
  0
SPLINE
  5
144
330
F7
100
AcDbEntity
  8
$DDT_AUDIT_GENERATED_(6C)
  6
Continuous
 62
     7
100
AcDbSpline
210
0.0
220
0.0
230
1.0
 70
    12
 71
     3
 72
     8
 73
     4
 74
     0
 42
0.0000000007665138
 43
0.0000000001
 40
0.0147240420183861
 40
0.0147240420183861
 40
0.0147240420183861
 40
0.0147240420183861
 40
0.0356064430616872
 40
0.0356064430616872
 40
0.0356064430616872
 40
0.0356064430616872
 10
139.3898013257914
 20
122.870680445038
 30
0.0
 41
0.9999999999995796
 10
139.3945087615922
 20
122.960317982855
 30
0.0
 41
0.9999999999995819
 10
139.3961732446249
 20
123.0510967924418
 30
0.0
 41
0.9999999999995843
 10
139.3945702567502
 20
123.1429611509258
 30
0.0
 41
0.9999999999995868
  0
SPLINE
  5
145
330
F7
100
AcDbEntity
  8
$DDT_AUDIT_GENERATED_(6C)
  6
Continuous
 62
     7
100
AcDbSpline
210
0.0
220
0.0
230
1.0
 70
    12
 71
     3
 72
   104
 73
   100
 74
     0
 42
0.0000000003625142
 43
0.0000000001
 40
0.0356064430616872
 40
0.0356064430616872
 40
0.0356064430616872
 40
0.0356064430616872
 40
0.130922740305746
 40
0.130922740305746
 40
0.1965773733160289
 40
0.1965773733160289
 40
0.2294046898211703
 40
0.2294046898211703
 40
0.230430543461956
 40
0.230430543461956
 40
0.2314563971027417
 40
0.2314563971027417
 40
0.2335081043843131
 40
0.2335081043843131
 40
0.2376115189474557
 40
0.2376115189474557
 40
0.2458183480737411
 40
0.2458183480737411
 40
0.2622320063263118
 40
0.2622320063263118
 40
0.3278866393365947
 40
0.3278866393365947
 40
0.3443002975891655
 40
0.3443002975891655
 40
0.3525071267154508
 40
0.3525071267154508
 40
0.3566105412785935
 40
0.3566105412785935
 40
0.3586622485601648
 40
0.3586622485601648
 40
0.3596881022009505
 40
0.3596881022009505
 40
0.3607139558417361
 40
0.3607139558417361
 40
0.3935412723468776
 40
0.3935412723468776
 40
0.4591959053571606
 40
0.4591959053571606
 40
0.4756095636097312
 40
0.4756095636097312
 40
0.4838163927360166
 40
0.4838163927360166
 40
0.485868100017588
 40
0.485868100017588
 40
0.4868939536583735
 40
0.4868939536583735
 40
0.4879198072991592
 40
0.4879198072991592
 40
0.492023221862302
 40
0.492023221862302
 40
0.5248505383674436
 40
0.5248505383674436
 40
0.5905051713777263
 40
0.5905051713777263
 40
0.6069188296302971
 40
0.6069188296302971
 40
0.6151256587565823
 40
0.6151256587565823
 40
0.6171773660381538
 40
0.6171773660381538
 40
0.6192290733197251
 40
0.6192290733197251
 40
0.6233324878828678
 40
0.6233324878828678
 40
0.6561598043880094
 40
0.6561598043880094
 40
0.7218144373982923
 40
0.7218144373982923
 40
0.738228095650863
 40
0.738228095650863
 40
0.7423315102140058
 40
0.7423315102140058
 40
0.7443832174955771
 40
0.7443832174955771
 40
0.7464349247771483
 40
0.7464349247771483
 40
0.7546417539034338
 40
0.7546417539034338
 40
0.7874690704085751
 40
0.7874690704085751
 40
0.853123703418858
 40
0.853123703418858
 40
0.8695373616714288
 40
0.8695373616714288
 40
0.8715890689530001
 40
0.8715890689530001
 40
0.8736407762345716
 40
0.8736407762345716
 40
0.877744190797714
 40
0.877744190797714
 40
0.8859510199239995
 40
0.8859510199239995
 40
0.918778336429141
 40
0.918778336429141
 40
0.9844329694394238
 40
0.9844329694394238
 40
0.9926397985657092
 40
0.9926397985657092
 40
1.0
 40
1.0
 40
1.0
 40
1.0
 10
139.3945702567502
 20
123.1429611509258
 30
0.0
 41
0.9999999999995868
 10
139.3872535277767
 20
123.5622697582664
 30
0.0
 41
0.9999999999995978
 10
139.3118621842137
 20
124.0041947330933
 30
0.0
 41
0.9999999999996089
 10
139.0335185255909
 20
124.7797669032651
 30
0.0
 41
0.9999999999996283
 10
138.8776033222501
 20
125.1042880118541
 30
0.0
 41
0.9999999999996365
 10
138.5697311198164
 20
125.5996560589585
 30
0.0
 41
0.9999999999996487
 10
138.4547755220751
 20
125.7662022089311
 30
0.0
 41
0.9999999999996529
 10
138.3226197257334
 20
125.9390461226272
 30
0.0
 41
0.9999999999996572
 10
138.3186021182838
 20
125.9442848486944
 30
0.0
 41
0.9999999999996574
 10
138.3105410778917
 20
125.954764340655
 30
0.0
 41
0.9999999999996576
 10
138.3043106649732
 20
125.9627569582269
 30
0.0
 41
0.9999999999996578
 10
138.2875104372283
 20
125.9842521419415
 30
0.0
 41
0.9999999999996583
 10
138.2762936745206
 20
125.9984869107214
 30
0.0
 41
0.9999999999996587
 10
138.2426023581463
 20
126.0409065933753
 30
0.0
 41
0.9999999999996598
 10
138.2200868229983
 20
126.0688068854713
 30
0.0
 41
0.9999999999996605
 10
138.1524449743315
 20
126.1513806929285
 30
0.0
 41
0.9999999999996625
 10
138.1072241359336
 20
126.2049271766507
 30
0.0
 41
0.9999999999996638
 10
137.9717061601262
 20
126.3611485171728
 30
0.0
 41
0.9999999999996678
 10
137.8815642002296
 20
126.459405962248
 30
0.0
 41
0.9999999999996703
 10
137.4381821983275
 20
126.9224045462694
 30
0.0
 41
0.9999999999996816
 10
137.1098604062946
 20
127.2025859445605
 30
0.0
 41
0.9999999999996885
 10
136.8023637578546
 20
127.4558737962035
 30
0.0
 41
0.9999999999996945
 10
136.7458311402901
 20
127.5016640140034
 30
0.0
 41
0.9999999999996956
 10
136.6692546660058
 20
127.5632922952276
 30
0.0
 41
0.9999999999996969
 10
136.6450972966742
 20
127.5826587211034
 30
0.0
 41
0.9999999999996974
 10
136.6109864992753
 20
127.6099749543013
 30
0.0
 41
0.999999999999698
 10
136.5999702652202
 20
127.6187914782421
 30
0.0
 41
0.9999999999996982
 10
136.5839842745547
 20
127.6315871052683
 30
0.0
 41
0.9999999999996985
 10
136.5787453241288
 20
127.6357807900984
 30
0.0
 41
0.9999999999996985
 10
136.5710222462055
 20
127.6419645862022
 30
0.0
 41
0.9999999999996987
 10
136.5629979616139
 20
127.647967718023
 30
0.0
 41
0.9999999999996989
 10
136.5499713982228
 20
127.6577607971064
 30
0.0
 41
0.9999999999996991
 10
136.5434550038963
 20
127.6626495008573
 30
0.0
 41
0.9999999999996991
 10
136.3283137039277
 20
127.8237185829679
 30
0.0
 41
0.9999999999997031
 10
136.1166035141647
 20
127.9718951461959
 30
0.0
 41
0.9999999999997067
 10
135.4789985632483
 20
128.3937231683172
 30
0.0
 41
0.9999999999997167
 10
135.0508582627799
 20
128.6446596364119
 30
0.0
 41
0.9999999999997224
 10
134.5306668036937
 20
128.9251565270858
 30
0.0
 41
0.9999999999997289
 10
134.4273594588621
 20
128.9795982217111
 30
0.0
 41
0.99999999999973
 10
134.273794300075
 20
129.0588644510307
 30
0.0
 41
0.9999999999997318
 10
134.2228383409036
 20
129.084887148582
 30
0.0
 41
0.9999999999997324
 10
134.1594634998005
 20
129.1169257354222
 30
0.0
 41
0.9999999999997331
 10
134.1468045327468
 20
129.1233089635747
 30
0.0
 41
0.9999999999997333
 10
134.127840625816
 20
129.1328472492862
 30
0.0
 41
0.9999999999997335
 10
134.1215234140529
 20
129.1360205850776
 30
0.0
 41
0.9999999999997335
 10
134.1088972613209
 20
129.1423551007182
 30
0.0
 41
0.9999999999997338
 10
134.0999547520014
 20
129.1467433797667
 30
0.0
 41
0.9999999999997338
 10
134.0587351785973
 20
129.1670163585691
 30
0.0
 41
0.9999999999997342
 10
134.0256981258628
 20
129.1831498793348
 30
0.0
 41
0.9999999999997347
 10
133.7278312674296
 20
129.3275916576665
 30
0.0
 41
0.999999999999738
 10
133.4592742716498
 20
129.450578586922
 30
0.0
 41
0.9999999999997407
 10
132.6453777495723
 20
129.8040195224265
 30
0.0
 41
0.9999999999997482
 10
132.091880072337
 20
130.018932444987
 30
0.0
 41
0.9999999999997526
 10
131.3957405451464
 20
130.2643519106137
 30
0.0
 41
0.9999999999997575
 10
131.2562938920073
 20
130.3122763346184
 30
0.0
 41
0.9999999999997584
 10
131.0469551820289
 20
130.3824781717672
 30
0.0
 41
0.9999999999997597
 10
130.9771474233033
 20
130.4055979985285
 30
0.0
 41
0.9999999999997602
 10
130.889868586442
 20
130.4341525626737
 30
0.0
 41
0.9999999999997606
 10
130.8675805382817
 20
130.4412921079486
 30
0.0
 41
0.9999999999997609
 10
130.8268310263178
 20
130.4543731169436
 30
0.0
 41
0.9999999999997611
 10
130.8064349300809
 20
130.4608962332162
 30
0.0
 41
0.9999999999997613
 10
130.7451830056239
 20
130.4804135022582
 30
0.0
 41
0.9999999999997615
 10
130.704263541764
 20
130.4933555749481
 30
0.0
 41
0.9999999999997617
 10
130.3352339574353
 20
130.6092113364747
 30
0.0
 41
0.999999999999764
 10
130.0018439861314
 20
130.707763562593
 30
0.0
 41
0.9999999999997657
 10
128.9871353370384
 20
130.9905078232752
 30
0.0
 41
0.9999999999997708
 10
128.2912934291816
 20
131.1617916046865
 30
0.0
 41
0.9999999999997735
 10
127.4022468954157
 20
131.3557321589535
 30
0.0
 41
0.9999999999997764
 10
127.2234741671758
 20
131.393511763581
 30
0.0
 41
0.9999999999997771
 10
126.9988784112523
 20
131.4394951268784
 30
0.0
 41
0.9999999999997777
 10
126.9539027624028
 20
131.4486297376299
 30
0.0
 41
0.999999999999778
 10
126.8863559222036
 20
131.4622389113748
 30
0.0
 41
0.999999999999778
 10
126.8634213851748
 20
131.4668337486657
 30
0.0
 41
0.9999999999997782
 10
126.8133276472461
 20
131.4767349696768
 30
0.0
 41
0.9999999999997782
 10
126.7882608815233
 20
131.4816670375489
 30
0.0
 41
0.9999999999997784
 10
126.662828254024
 20
131.5062348008881
 30
0.0
 41
0.9999999999997786
 10
126.5621659994295
 20
131.5255927771172
 30
0.0
 41
0.9999999999997791
 10
126.0573176196003
 20
131.6209099096488
 30
0.0
 41
0.9999999999997804
 10
125.6485211770634
 20
131.6924531992339
 30
0.0
 41
0.9999999999997813
 10
124.4090302326836
 20
131.8932185522625
 30
0.0
 41
0.999999999999784
 10
123.5652421618623
 20
132.0085834249458
 30
0.0
 41
0.9999999999997855
 10
122.4940288504829
 20
132.1302655231672
 30
0.0
 41
0.9999999999997868
 10
122.2789616208353
 20
132.1534753088685
 30
0.0
 41
0.9999999999997871
 10
122.0361570798833
 20
132.1783277843255
 30
0.0
 41
0.9999999999997875
 10
122.0091669369675
 20
132.1810716927385
 30
0.0
 41
0.9999999999997875
 10
121.9551631847338
 20
132.1865245885423
 30
0.0
 41
0.9999999999997875
 10
121.9253613660165
 20
132.1894628882409
 30
0.0
 41
0.9999999999997875
 10
121.8391762736986
 20
132.1979475684672
 30
0.0
 41
0.9999999999997877
 10
121.78162726325
 20
132.2035284208101
 30
0.0
 41
0.9999999999997877
 10
121.6087057137203
 20
132.2200437756449
 30
0.0
 41
0.999999999999788
 10
121.4930586497961
 20
132.2307510659577
 30
0.0
 41
0.999999999999788
 10
120.9130246200822
 20
132.2827680199569
 30
0.0
 41
0.9999999999997886
 10
120.4432398538586
 20
132.3195150652516
 30
0.0
 41
0.9999999999997888
 10
119.0178643462758
 20
132.4150645452615
 30
0.0
 41
0.9999999999997897
 10
118.046254378075
 20
132.4591435803194
 30
0.0
 41
0.99999999999979
 10
116.9330531403142
 20
132.4870290276199
 30
0.0
 41
0.9999999999997902
 10
116.8090843674044
 20
132.4898263728412
 30
0.0
 41
0.9999999999997902
 10
116.5734176671663
 20
132.4945626745108
 30
0.0
 41
0.9999999999997902
 10
116.4601607365335
 20
132.4965537455953
 30
0.0
 41
0.99999999999979
 10
116.3499999999999
 20
132.4983170154723
 30
0.0
 41
0.99999999999979
  0
SPLINE
  5
146
330
F7
100
AcDbEntity
  8
$DDT_AUDIT_GENERATED_(6C)
  6
Continuous
 62
     7
100
AcDbSpline
210
0.0
220
0.0
230
1.0
 70
     8
 71
     3
 72
     8
 73
     4
 74
     0
 42
0.0000000047192376
 43
0.0000000001
 40
0.665491808123748
 40
0.665491808123748
 40
0.665491808123748
 40
0.665491808123748
 40
0.6671977522900221
 40
0.6671977522900221
 40
0.6671977522900221
 40
0.6671977522900221
 10
128.7956396822834
 20
107.3225884814457
 30
0.0
 10
128.7943524322446
 20
107.3224495911762
 30
0.0
 10
128.7931035294991
 20
107.3223422488639
 30
0.0
 10
128.7920390473331
 20
107.3222743754862
 30
0.0
  0
ARC
  5
147
330
F7
100
AcDbEntity
  8
$DDT_AUDIT_GENERATED_(6C)
  6
Continuous
 62
     7
100
AcDbCircle
 10
140.0332932477
 20
146.1341998503
 30
0.0
 40
0.3003468230141222
100
AcDbArc
 50
358.1292796011
 51
89.9314271722
  0
LINE
  5
148
330
F7
100
AcDbEntity
  8
$DDT_AUDIT_GENERATED_(6C)
  6
Continuous
 62
     7
100
AcDbLine
 10
140.0336527092
 20
146.4345464582
 30
0.0
 11
116.35
 21
146.4345464582
 31
0.0
  0
ARC
  5
149
330
F7
100
AcDbEntity
  8
$DDT_AUDIT_GENERATED_(6C)
  6
Continuous
 62
     7
100
AcDbCircle
 10
793.5096183937
 20
159.3766295185
 30
0.0
 40
701.1506809032298
100
AcDbArc
 50
182.3957382156
 51
182.9844658916
  0
ARC
  5
14A
330
F7
100
AcDbEntity
  8
$DDT_AUDIT_GENERATED_(6C)
  6
Continuous
 62
     7
100
AcDbCircle
 10
116.3539031151
 20
186.1956894945
 30
0.0
 40
79.84568949446457
100
AcDbArc
 50
261.031698622
 51
278.962787484
  0
ARC
  5
14B
330
F7
100
AcDbEntity
  8
$DDT_AUDIT_GENERATED_(6C)
  6
Continuous
 62
     7
100
AcDbCircle
 10
99.1583050084
 20
123.2176335302
 30
0.0
 40
5.853960492941075
100
AcDbArc
 50
180.3750237177
 51
188.2273263877
  0
SPLINE
  5
14C
330
F7
100
AcDbEntity
  8
$DDT_AUDIT_GENERATED_(6C)
  6
Continuous
 62
     7
100
AcDbSpline
210
0.0
220
0.0
230
1.0
 70
     8
 71
     3
 72
    39
 73
    35
 74
     0
 42
0.0000000005330048
 43
0.0000000001
 40
0.0
 40
0.0
 40
0.0
 40
0.0
 40
0.0344775473384302
 40
0.0647248768986587
 40
0.0928948957390839
 40
0.119148759283688
 40
0.1498039847437959
 40
0.1752776672723807
 40
0.1869091695518315
 40
0.1995016023334213
 40
0.2167500091868939
 40
0.2364093147469185
 40
0.2559694216655793
 40
0.2692602824357871
 40
0.2821759022256289
 40
0.2938302723080048
 40
0.3036762947118177
 40
0.3153621256112866
 40
0.3301753686467467
 40
0.3434245234356608
 40
0.35523189946094
 40
0.383353580778121
 40
0.4097398369145543
 40
0.441349572863883
 40
0.4753379065417362
 40
0.5122406960526714
 40
0.5789747758633977
 40
0.6420430159442468
 40
0.7018008097471433
 40
0.7530321908047776
 40
0.8108120974049046
 40
0.8737781760329575
 40
0.9368974011018024
 40
1.0
 40
1.0
 40
1.0
 40
1.0
 10
93.3680188393006
 20
122.3774677344392
 30
0.0
 10
93.41874961421954
 20
122.0086563327955
 30
0.0
 10
93.50350431786528
 20
121.4268497901642
 30
0.0
 10
93.76951169816432
 20
120.5053501427622
 30
0.0
 10
94.0841626067895
 20
119.7016158736259
 30
0.0
 10
94.46216285572565
 20
118.9113807723993
 30
0.0
 10
94.87408979050119
 20
118.1689961102067
 30
0.0
 10
95.2262677468841
 20
117.6054376593021
 30
0.0
 10
95.51354907568957
 20
117.1500974199669
 30
0.0
 10
95.7440433615245
 20
116.8042028728333
 30
0.0
 10
96.0187251703074
 20
116.4071256092106
 30
0.0
 10
96.33277095759968
 20
115.9683813628525
 30
0.0
 10
96.62581670695657
 20
115.5678653325466
 30
0.0
 10
96.88011698971826
 20
115.225636101299
 30
0.0
 10
97.0901337688965
 20
114.946047744178
 30
0.0
 10
97.28066490052362
 20
114.6950866051677
 30
0.0
 10
97.46626887007173
 20
114.4505175096157
 30
0.0
 10
97.66647092299655
 20
114.1974054678362
 30
0.0
 10
97.88245295984449
 20
113.9350843470697
 30
0.0
 10
98.10000502135178
 20
113.6740679737964
 30
0.0
 10
98.38964266706608
 20
113.3328300239424
 30
0.0
 10
98.75052282801825
 20
112.9189153377221
 30
0.0
 10
99.20763413433018
 20
112.4101448071902
 30
0.0
 10
99.67880055701484
 20
111.9135146768475
 30
0.0
 10
100.1687994013353
 20
111.4013764487667
 30
0.0
 10
100.7332414381704
 20
110.776626412691
 30
0.0
 10
101.2976521010939
 20
110.1133252850162
 30
0.0
 10
101.7612892414005
 20
109.5115681911783
 30
0.0
 10
102.0651476589072
 20
109.028188108802
 30
0.0
 10
102.3211051940379
 20
108.6052190480965
 30
0.0
 10
102.5831406517697
 20
108.2204921720994
 30
0.0
 10
102.9209466758767
 20
107.8662304002635
 30
0.0
 10
103.2897343167158
 20
107.5261478414231
 30
0.0
 10
103.6756584522543
 20
107.3977992070543
 30
0.0
 10
103.9046615541118
 20
107.3225487528625
 30
0.0
  0
ARC
  5
14D
330
F7
100
AcDbEntity
  8
$DDT_AUDIT_GENERATED_(6C)
  6
Continuous
 62
     7
100
AcDbCircle
 10
-559.1841911778
 20
159.2995794898
 30
0.0
 40
699.5234522696193
100
AcDbArc
 50
357.0148118992
 51
357.6046941756
  0
ARC
  5
14E
330
F7
100
AcDbEntity
  8
$DDT_AUDIT_GENERATED_(6C)
  6
Continuous
 62
     7
100
AcDbCircle
 10
-1003.8286077277
 20
174.6377405624
 30
0.0
 40
1144.431341825639
100
AcDbArc
 50
357.9003243707
 51
357.9253817373
  0
ARC
  5
14F
330
F7
100
AcDbEntity
  8
$DDT_AUDIT_GENERATED_(6C)
  6
Continuous
 62
     7
100
AcDbCircle
 10
133.5416949917
 20
123.2176335302
 30
0.0
 40
5.853960492928408
100
AcDbArc
 50
351.7726736123
 51
359.6249762823
  0
SPLINE
  5
150
330
F7
100
AcDbEntity
  8
$DDT_AUDIT_GENERATED_(6C)
  6
Continuous
 62
     7
100
AcDbSpline
210
0.0
220
0.0
230
1.0
 70
     8
 71
     3
 72
    43
 73
    39
 74
     0
 42
0.0000000005330676
 43
0.0000000001
 40
0.0
 40
0.0
 40
0.0
 40
0.0
 40
0.0565143585898492
 40
0.11309025600928
 40
0.1696708337848727
 40
0.2245788100414412
 40
0.2720559918707081
 40
0.308659184563927
 40
0.3511354703210494
 40
0.3941797905011895
 40
0.4407215681914517
 40
0.4877645462179648
 40
0.5214841685129934
 40
0.5526164540588541
 40
0.5819258040869763
 40
0.6069693592699634
 40
0.6196760308721488
 40
0.6325863675836749
 40
0.6468595722811677
 40
0.6636281467769733
 40
0.6831889157478883
 40
0.6987913719665817
 40
0.7155038148047357
 40
0.7354864259369932
 40
0.7562090188459978
 40
0.7768716045934738
 40
0.796640293588628
 40
0.8110217766911082
 40
0.8169239189032078
 40
0.8232164448415601
 40
0.8334235189963619
 40
0.848355751869147
 40
0.864290961957208
 40
0.8808526974401193
 40
0.9071062400025471
 40
0.9352759144337032
 40
0.9655228741872686
 40
1.0
 40
1.0
 40
1.0
 40
1.0
 10
128.7953384458878
 20
107.3225487528625
 30
0.0
 10
129.002517385677
 20
107.3865403673591
 30
0.0
 10
129.3505607395993
 20
107.4948080463384
 30
0.0
 10
129.708751844639
 20
107.8015991793014
 30
0.0
 10
130.0187970198344
 20
108.1070262759648
 30
0.0
 10
130.2773232398343
 20
108.4495669756875
 30
0.0
 10
130.4856334261069
 20
108.7802867740077
 30
0.0
 10
130.6841318731535
 20
109.1078729327097
 30
0.0
 10
130.9038548258655
 20
109.4493114316775
 30
0.0
 10
131.1950817437142
 20
109.8534236165623
 30
0.0
 10
131.5935432456159
 20
110.3329781168551
 30
0.0
 10
132.0353818092115
 20
110.8530234387451
 30
0.0
 10
132.492689698639
 20
111.3589675719724
 30
0.0
 10
132.9345667565968
 20
111.8238070469056
 30
0.0
 10
133.3682108127351
 20
112.2776099511847
 30
0.0
 10
133.7203418241071
 20
112.6634506602693
 30
0.0
 10
133.9914122680806
 20
112.9682353513907
 30
0.0
 10
134.2075183928659
 20
113.21494758881
 30
0.0
 10
134.4468523753362
 20
113.4927988830797
 30
0.0
 10
134.7228800753496
 20
113.820625583261
 30
0.0
 10
135.0048538501496
 20
114.1607035100813
 30
0.0
 10
135.2914652750158
 20
114.524991702325
 30
0.0
 10
135.5827828331921
 20
114.9103941558063
 30
0.0
 10
135.9006809493905
 20
115.3330304919235
 30
0.0
 10
136.2424664063589
 20
115.7964635078089
 30
0.0
 10
136.5840363489708
 20
116.2704228442473
 30
0.0
 10
136.8870796585259
 20
116.7021705069649
 30
0.0
 10
137.1105464147062
 20
117.035950855998
 30
0.0
 10
137.2599978608822
 20
117.2660530352168
 30
0.0
 10
137.3889837114732
 20
117.4709781707604
 30
0.0
 10
137.5596509686048
 20
117.7413017252545
 30
0.0
 10
137.7745330563316
 20
118.0923789871595
 30
0.0
 10
138.0155880106794
 20
118.5108180824149
 30
0.0
 10
138.3000931945297
 20
119.0413791694573
 30
0.0
 10
138.6159603591788
 20
119.7019249792307
 30
0.0
 10
138.9304515746364
 20
120.5052578197951
 30
0.0
 10
139.1965081173157
 20
121.4268810490911
 30
0.0
 10
139.2812503857803
 20
122.0086563327955
 30
0.0
 10
139.3319811606992
 20
122.3774677344392
 30
0.0
  0
LINE
  5
151
330
F7
100
AcDbEntity
  8
$DDT_AUDIT_GENERATED_(C8)
  6
Continuous
 62
     7
100
AcDbLine
 10
26.85
 20
224.5133263219
 30
0.0
 11
55.85
 21
224.5133263219
 31
0.0
  0
LINE
  5
152
330
F7
100
AcDbEntity
  8
$DDT_AUDIT_GENERATED_(C8)
  6
Continuous
 62
     7
100
AcDbLine
 10
56.35
 20
221.0133263219
 30
0.0
 11
54.2626587737
 21
221.0133263219
 31
0.0
  0
LINE
  5
153
330
F7
100
AcDbEntity
  8
$DDT_AUDIT_GENERATED_(C8)
  6
Continuous
 62
     7
100
AcDbLine
 10
43.4373412263
 20
221.0133263219
 30
0.0
 11
39.2626587737
 21
221.0133263219
 31
0.0
  0
LINE
  5
154
330
F7
100
AcDbEntity
  8
$DDT_AUDIT_GENERATED_(C8)
  6
Continuous
 62
     7
100
AcDbLine
 10
28.4373412263
 20
221.0133263219
 30
0.0
 11
26.35
 21
221.0133263219
 31
0.0
  0
LINE
  5
155
330
F7
100
AcDbEntity
  8
$DDT_AUDIT_GENERATED_(C8)
  6
Continuous
 62
     7
100
AcDbLine
 10
26.35
 20
221.0133263219
 30
0.0
 11
26.35
 21
223.809055051
 31
0.0
  0
ARC
  5
156
330
F7
100
AcDbEntity
  8
$DDT_AUDIT_GENERATED_(C8)
  6
Continuous
 62
     7
100
AcDbCircle
 10
33.85
 20
217.2347668027
 30
0.0
 40
6.601089837288617
100
AcDbArc
 50
34.9187681796
 51
145.0812318204
  0
ARC
  5
157
330
F7
100
AcDbEntity
  8
$DDT_AUDIT_GENERATED_(C8)
  6
Continuous
 62
     7
100
AcDbCircle
 10
48.85
 20
217.2347668027
 30
0.0
 40
6.601089837288626
100
AcDbArc
 50
34.9187681796
 51
145.0812318204
  0
LINE
  5
158
330
F7
100
AcDbEntity
  8
$DDT_AUDIT_GENERATED_(C8)
  6
Continuous
 62
     7
100
AcDbLine
 10
56.35
 20
221.0133263219
 30
0.0
 11
56.35
 21
223.809055051
 31
0.0
  0
LINE
  5
159
330
F7
100
AcDbEntity
  8
$DDT_AUDIT_GENERATED_(C8)
  6
Continuous
 62
     7
100
AcDbLine
 10
56.35
 20
211.0133263219
 30
0.0
 11
54.2626587737
 21
211.0133263219
 31
0.0
  0
LINE
  5
15A
330
F7
100
AcDbEntity
  8
$DDT_AUDIT_GENERATED_(C8)
  6
Continuous
 62
     7
100
AcDbLine
 10
43.4373412263
 20
211.0133263219
 30
0.0
 11
39.2626587737
 21
211.0133263219
 31
0.0
  0
LINE
  5
15B
330
F7
100
AcDbEntity
  8
$DDT_AUDIT_GENERATED_(C8)
  6
Continuous
 62
     7
100
AcDbLine
 10
28.4373412263
 20
211.0133263219
 30
0.0
 11
26.35
 21
211.0133263219
 31
0.0
  0
LINE
  5
15C
330
F7
100
AcDbEntity
  8
$DDT_AUDIT_GENERATED_(C8)
  6
Continuous
 62
     7
100
AcDbLine
 10
56.35
 20
208.2175975928
 30
0.0
 11
56.35
 21
211.0133263219
 31
0.0
  0
LINE
  5
15D
330
F7
100
AcDbEntity
  8
$DDT_AUDIT_GENERATED_(C8)
  6
Continuous
 62
     7
100
AcDbLine
 10
56.35
 20
211.0133263219
 30
0.0
 11
56.35
 21
221.0133263219
 31
0.0
  0
LINE
  5
15E
330
F7
100
AcDbEntity
  8
$DDT_AUDIT_GENERATED_(C8)
  6
Continuous
 62
     7
100
AcDbLine
 10
54.2626587737
 20
221.0133263219
 30
0.0
 11
54.2626587737
 21
211.0133263219
 31
0.0
  0
ARC
  5
15F
330
F7
100
AcDbEntity
  8
$DDT_AUDIT_GENERATED_(C8)
  6
Continuous
 62
     7
100
AcDbCircle
 10
48.85
 20
214.791885841
 30
0.0
 40
6.6010898372886
100
AcDbArc
 50
214.9187681796
 51
325.0812318205
  0
LINE
  5
160
330
F7
100
AcDbEntity
  8
$DDT_AUDIT_GENERATED_(C8)
  6
Continuous
 62
     7
100
AcDbLine
 10
43.4373412263
 20
211.0133263219
 30
0.0
 11
43.4373412263
 21
221.0133263219
 31
0.0
  0
LINE
  5
161
330
F7
100
AcDbEntity
  8
$DDT_AUDIT_GENERATED_(C8)
  6
Continuous
 62
     7
100
AcDbLine
 10
39.2626587737
 20
221.0133263219
 30
0.0
 11
39.2626587737
 21
211.0133263219
 31
0.0
  0
ARC
  5
162
330
F7
100
AcDbEntity
  8
$DDT_AUDIT_GENERATED_(C8)
  6
Continuous
 62
     7
100
AcDbCircle
 10
33.85
 20
214.791885841
 30
0.0
 40
6.601089837288612
100
AcDbArc
 50
214.9187681795
 51
325.0812318204
  0
LINE
  5
163
330
F7
100
AcDbEntity
  8
$DDT_AUDIT_GENERATED_(C8)
  6
Continuous
 62
     7
100
AcDbLine
 10
28.4373412263
 20
211.0133263219
 30
0.0
 11
28.4373412263
 21
221.0133263219
 31
0.0
  0
LINE
  5
164
330
F7
100
AcDbEntity
  8
$DDT_AUDIT_GENERATED_(C8)
  6
Continuous
 62
     7
100
AcDbLine
 10
26.35
 20
221.0133263219
 30
0.0
 11
26.35
 21
211.0133263219
 31
0.0
  0
LINE
  5
165
330
F7
100
AcDbEntity
  8
$DDT_AUDIT_GENERATED_(C8)
  6
Continuous
 62
     7
100
AcDbLine
 10
26.35
 20
211.0133263219
 30
0.0
 11
26.35
 21
208.2175975928
 31
0.0
  0
ARC
  5
166
330
F7
100
AcDbEntity
  8
$DDT_AUDIT_GENERATED_(C8)
  6
Continuous
 62
     7
100
AcDbCircle
 10
47.9535976036
 20
213.6490275201
 30
0.0
 40
9.999999999999996
100
AcDbArc
 50
322.1519040322
 51
327.0980251139
  0
ARC
  5
167
330
F7
100
AcDbEntity
  8
$DDT_AUDIT_GENERATED_(C8)
  6
Continuous
 62
     7
100
AcDbCircle
 10
34.7464023964
 20
213.6490275201
 30
0.0
 40
9.999999999999998
100
AcDbArc
 50
212.8914552094
 51
217.8480959678
  0
ARC
  5
168
330
F7
100
AcDbEntity
  8
$DDT_AUDIT_GENERATED_(C8)
  6
Continuous
 62
     7
100
AcDbCircle
 10
47.9535976036
 20
218.3776251237
 30
0.0
 40
9.999999999999995
100
AcDbArc
 50
32.8914552094
 51
37.8480959678
  0
ARC
  5
169
330
F7
100
AcDbEntity
  8
$DDT_AUDIT_GENERATED_(C8)
  6
Continuous
 62
     7
100
AcDbCircle
 10
34.7464023964
 20
218.3776251237
 30
0.0
 40
9.999999999999998
100
AcDbArc
 50
142.1519040322
 51
147.0980251139
  0
LINE
  5
16A
330
F7
100
AcDbEntity
  8
$DDT_AUDIT_GENERATED_(E4)
  6
Continuous
 62
     7
100
AcDbLine
 10
139.0698485047
 20
148.5133263219
 30
0.0
 11
93.6301514953
 21
148.5133263219
 31
0.0
  0
ARC
  5
16B
330
F7
100
AcDbEntity
  8
$DDT_AUDIT_GENERATED_(E4)
  6
Continuous
 62
     7
100
AcDbCircle
 10
93.6301514953
 20
149.0133263219
 30
0.0
 40
0.5000000000000013
100
AcDbArc
 50
180.5
 51
270.0
  0
ARC
  5
16C
330
F7
100
AcDbEntity
  8
$DDT_AUDIT_GENERATED_(E4)
  6
Continuous
 62
     7
100
AcDbCircle
 10
139.0698485047
 20
149.0133263219
 30
0.0
 40
0.5000000000000004
100
AcDbArc
 50
270.0
 51
359.5
  0
LINE
  5
16D
330
F7
100
AcDbEntity
  8
$DDT_AUDIT_GENERATED_(E4)
  6
Continuous
 62
     7
100
AcDbLine
 10
92.9019663845
 20
175.158568475
 30
0.0
 11
93.1301705337
 21
149.0089630541
 31
0.0
  0
LINE
  5
16E
330
F7
100
AcDbEntity
  8
$DDT_AUDIT_GENERATED_(E4)
  6
Continuous
 62
     7
100
AcDbLine
 10
139.5698294663
 20
149.0089630541
 30
0.0
 11
139.7980987433
 21
175.1660313819
 31
0.0
  0
ARC
  5
16F
330
F7
100
AcDbEntity
  8
$DDT_AUDIT_GENERATED_(E4)
  6
Continuous
 62
     7
100
AcDbCircle
 10
116.1929732874
 20
153.9133263219
 30
0.0
 40
21.60000000000001
100
AcDbArc
 50
339.6813720377
 51
344.5160560935
  0
ARC
  5
170
330
F7
100
AcDbEntity
  8
$DDT_AUDIT_GENERATED_(E4)
  6
Continuous
 62
     7
100
AcDbCircle
 10
116.5070267126
 20
153.9133263219
 30
0.0
 40
21.6
100
AcDbArc
 50
195.4839439065
 51
200.2973009131
  0
ARC
  5
171
330
F7
100
AcDbEntity
  8
$DDT_AUDIT_GENERATED_(E4)
  6
Continuous
 62
     7
100
AcDbCircle
 10
137.4908605065
 20
148.0133263219
 30
0.0
 40
0.5000000000000042
100
AcDbArc
 50
90.0
 51
164.5160560935
  0
ARC
  5
172
330
F7
100
AcDbEntity
  8
$DDT_AUDIT_GENERATED_(E4)
  6
Continuous
 62
     7
100
AcDbCircle
 10
95.2091394935
 20
148.0133263219
 30
0.0
 40
0.5000000000000004
100
AcDbArc
 50
15.4839439065
 51
90.0
  0
LINE
  5
174
330
F7
100
AcDbEntity
  8
DV3_Default
  6
CENTER2
 62
     7
100
AcDbLine
 10
61.349999553
 20
252.0133263219
 30
0.0
 11
21.350000447
 21
252.0133263219
 31
0.0
  0
LINE
  5
175
330
F7
100
AcDbEntity
  8
DV3_Default
  6
CENTER2
 62
     7
100
AcDbLine
 10
41.35
 20
272.0133258748
 30
0.0
 11
41.35
 21
232.0133267689
 31
0.0
  0
LINE
  5
176
330
F7
100
AcDbEntity
  8
DV3_Default
  6
CENTER2
 62
     7
100
AcDbLine
 10
211.349999553
 20
252.0133263219
 30
0.0
 11
171.350000447
 21
252.0133263219
 31
0.0
  0
LINE
  5
177
330
F7
100
AcDbEntity
  8
DV3_Default
  6
CENTER2
 62
     7
100
AcDbLine
 10
191.35
 20
272.0133258748
 30
0.0
 11
191.35
 21
232.0133267689
 31
0.0
  0
ENDBLK
  5
179
330
F7
100
AcDbEntity
  8
0
100
AcDbBlockEnd
  0
ENDSEC
  0
SECTION
  2
ENTITIES
  0
INSERT
  5
5F
330
1F
100
AcDbEntity
  8
Default
100
AcDbBlockReference
  2
SE
 10
0.0
 20
0.0
 30
0.0
  0
INSERT
  5
8B
330
1F
100
AcDbEntity
  8
Default
100
AcDbBlockReference
  2
SE1
 10
0.0
 20
0.0
 30
0.0
  0
INSERT
  5
F8
330
1F
100
AcDbEntity
  8
Default
100
AcDbBlockReference
  2
SE2
 10
0.0
 20
0.0
 30
0.0
  0
TEXT
  5
17B
330
1F
100
AcDbEntity
  8
Default
  6
Continuous
 62
     7
100
AcDbText
 10
5.9362635081
 20
53.4225120485
 30
0.0
 40
10.0
  1
Grohe AG^J
  7
SEACAD_seiso_ttf
 11
5.9362635081
 21
63.4225120485
 31
0.0
100
AcDbText
 73
     3
  0
TEXT
  5
17C
330
1F
100
AcDbEntity
  8
Default
  6
Continuous
 62
     7
100
AcDbText
 10
5.9362635081
 20
37.0588756849
 30
0.0
 40
10.0
  1
 
  7
SEACAD_seiso_ttf
 11
5.9362635081
 21
47.0588756849
 31
0.0
100
AcDbText
 73
     3
  0
TEXT
  5
17D
330
1F
100
AcDbEntity
  8
Default
  6
Continuous
 62
     7
100
AcDbText
 10
5.9362635081
 20
20.6952393213
 30
0.0
 40
10.0
  1
ecn:
  7
SEACAD_seiso_ttf
 11
5.9362635081
 21
30.6952393213
 31
0.0
100
AcDbText
 73
     3
  0
TEXT
  5
17E
330
1F
100
AcDbEntity
  8
Default
  6
Continuous
 62
     7
100
AcDbText
 10
5.9362635081
 20
4.3316029576
 30
0.0
 40
10.0
  1
unit: mm
  7
SEACAD_seiso_ttf
 11
5.9362635081
 21
14.3316029576
 31
0.0
100
AcDbText
 73
     3
  0
LINE
  5
17F
330
1F
100
AcDbEntity
  8
Default
  6
Continuous
 62
     7
100
AcDbLine
 10
0.0
 20
0.0
 30
0.0
 11
100.0
 21
0.0
 31
0.0
  0
LINE
  5
180
330
1F
100
AcDbEntity
  8
Default
  6
Continuous
 62
     7
100
AcDbLine
 10
0.0
 20
0.0
 30
0.0
 11
0.0
 21
100.0
 31
0.0
  0
TEXT
  5
181
330
1F
100
AcDbEntity
  8
Default
  6
Continuous
 62
     7
100
AcDbText
 10
24.3923665681
 20
-18.2375342018
 30
0.0
 40
10.0
  1
100 mm
  7
SEACAD_seiso_ttf
 11
24.3923665681
 21
-8.2375342018
 31
0.0
100
AcDbText
 73
     3
  0
TEXT
  5
182
330
1F
100
AcDbEntity
  8
Default
  6
Continuous
 62
     7
100
AcDbText
 10
-7.6150308803
 20
24.6231930421
 30
0.0
 40
10.0
  1
100 mm
 50
90.0
  7
SEACAD_seiso_ttf
 11
-17.6150308803
 21
24.6231930421
 31
0.0
100
AcDbText
 73
     3
  0
TEXT
  5
183
330
1F
100
AcDbEntity
  8
Default
  6
Continuous
 62
     7
100
AcDbText
 10
28.4878128572
 20
20.0907663715
 30
0.0
 40
10.0
  1
230692
  7
SEACAD_seiso_ttf
 11
28.4878128572
 21
30.0907663715
 31
0.0
100
AcDbText
 73
     3
  0
TEXT
  5
184
330
1F
100
AcDbEntity
  8
Default
  6
Continuous
 62
     7
100
AcDbText
 10
5.9012241913
 20
36.7242780188
 30
0.0
 40
10.0
  1
33555002
  7
SEACAD_seiso_ttf
 11
5.9012241913
 21
46.7242780188
 31
0.0
100
AcDbText
 73
     3
  0
ENDSEC
  0
SECTION
  2
OBJECTS
  0
DICTIONARY
  5
C
330
0
100
AcDbDictionary
281
     1
  3
ACAD_GROUP
350
D
  3
ACAD_LAYOUT
350
1A
  3
ACAD_MLEADERSTYLE
350
188
  3
ACAD_MLINESTYLE
350
17
  3
ACAD_PLOTSETTINGS
350
19
  3
ACAD_PLOTSTYLENAME
350
E
  3
ACAD_SCALELIST
350
3B
  3
ACAD_TABLESTYLE
350
187
  3
ACAD_VISUALSTYLE
350
2A
  3
AcDbVariableDictionary
350
185
  0
DICTIONARY
  5
D
102
{ACAD_REACTORS
330
C
102
}
330
C
100
AcDbDictionary
281
     1
  0
DICTIONARY
  5
1A
102
{ACAD_REACTORS
330
C
102
}
330
C
100
AcDbDictionary
281
     1
  3
Layout1
350
1E
  3
Model
350
22
  0
DICTIONARY
  5
188
102
{ACAD_REACTORS
330
C
102
}
330
C
100
AcDbDictionary
281
     1
  0
DICTIONARY
  5
17
102
{ACAD_REACTORS
330
C
102
}
330
C
100
AcDbDictionary
281
     1
  3
Standard
350
18
  0
DICTIONARY
  5
19
102
{ACAD_REACTORS
330
C
102
}
330
C
100
AcDbDictionary
281
     1
  0
ACDBDICTIONARYWDFLT
  5
E
102
{ACAD_REACTORS
330
C
102
}
330
C
100
AcDbDictionary
281
     1
  3
Normal
350
F
100
AcDbDictionaryWithDefault
340
F
  0
DICTIONARY
  5
3B
102
{ACAD_REACTORS
330
C
102
}
330
C
100
AcDbDictionary
281
     1
  3
A0
350
3C
  3
A1
350
3D
  3
A2
350
3E
  3
A3
350
3F
  3
A4
350
40
  3
A5
350
41
  3
A6
350
42
  3
A7
350
43
  3
A8
350
44
  3
A9
350
45
  3
B0
350
46
  3
B1
350
47
  3
B2
350
48
  3
B3
350
49
  3
B4
350
4A
  3
B5
350
4B
  3
B6
350
4C
  3
B7
350
4D
  3
B8
350
4E
  3
B9
350
4F
  3
C0
350
50
  3
C1
350
51
  3
C2
350
52
  3
C3
350
53
  3
C4
350
54
  3
C5
350
55
  3
C6
350
56
  3
C7
350
57
  3
C8
350
58
  3
C9
350
59
  3
D0
350
5A
  3
D1
350
5B
  3
D2
350
5C
  0
DICTIONARY
  5
187
102
{ACAD_REACTORS
330
C
102
}
330
C
100
AcDbDictionary
281
     1
  0
DICTIONARY
  5
2A
102
{ACAD_REACTORS
330
C
102
}
330
C
100
AcDbDictionary
281
     1
  3
2dWireframe
350
2F
  3
3D Hidden
350
31
  3
3dWireframe
350
30
  3
Basic
350
32
  3
Brighten
350
36
  3
ColorChange
350
3A
  3
Conceptual
350
34
  3
Dim
350
35
  3
Facepattern
350
39
  3
Flat
350
2B
  3
FlatWithEdges
350
2C
  3
Gouraud
350
2D
  3
GouraudWithEdges
350
2E
  3
Linepattern
350
38
  3
Realistic
350
33
  3
Thicken
350
37
  0
DICTIONARY
  5
185
102
{ACAD_REACTORS
330
C
102
}
330
C
100
AcDbDictionary
281
     1
  3
CANNOSCALE
350
186
  3
PSOLHEIGHT
350
18A
  3
PSOLWIDTH
350
189
  0
LAYOUT
  5
1E
102
{ACAD_REACTORS
330
1A
102
}
330
1A
100
AcDbPlotSettings
  1

  2
none_device
  4

  6

 40
0.0
 41
0.0
 42
0.0
 43
0.0
 44
0.0
 45
0.0
 46
0.0
 47
0.0
 48
0.0
 49
0.0
140
0.0
141
0.0
142
1.0
143
1.0
 70
   688
 72
     0
 73
     0
 74
     5
  7

 75
    16
147
1.0
148
0.0
149
0.0
100
AcDbLayout
  1
Layout1
 70
     1
 71
     1
 10
0.0
 20
0.0
 11
3000.0
 21
4500.0
 12
0.0
 22
0.0
 32
0.0
 14
0.0
 24
0.0
 34
0.0
 15
3000.0
 25
4500.0
 35
0.0
146
0.0
 13
0.0
 23
0.0
 33
0.0
 16
1.0
 26
0.0
 36
0.0
 17
0.0
 27
1.0
 37
0.0
 76
     0
330
1B
  0
LAYOUT
  5
22
102
{ACAD_REACTORS
330
1A
102
}
330
1A
100
AcDbPlotSettings
  1

  2
none_device
  4

  6

 40
0.0
 41
0.0
 42
0.0
 43
0.0
 44
0.0
 45
0.0
 46
0.0
 47
0.0
 48
0.0
 49
0.0
140
0.0
141
0.0
142
1.0
143
1.0
 70
  1712
 72
     0
 73
     0
 74
     0
  7

 75
     0
147
1.0
148
0.0
149
0.0
100
AcDbLayout
  1
Model
 70
     1
 71
     0
 10
0.0
 20
0.0
 11
3000.0
 21
4500.0
 12
0.0
 22
0.0
 32
0.0
 14
0.0
 24
0.0
 34
0.0
 15
3000.0
 25
4500.0
 35
0.0
146
0.0
 13
0.0
 23
0.0
 33
0.0
 16
1.0
 26
0.0
 36
0.0
 17
0.0
 27
1.0
 37
0.0
 76
     0
330
1F
331
29
  0
MLINESTYLE
  5
18
102
{ACAD_REACTORS
330
17
102
}
330
17
100
AcDbMlineStyle
  2
Standard
 70
     0
  3

 62
   256
 51
90.0
 52
90.0
 71
     2
 49
0.5
 62
   256
  6
BYLAYER
 49
-0.5
 62
   256
  6
BYLAYER
  0
ACDBPLACEHOLDER
  5
F
102
{ACAD_REACTORS
330
E
102
}
330
E
  0
SCALE
  5
3C
102
{ACAD_REACTORS
330
3B
102
}
330
3B
100
AcDbScale
 70
     0
300
1:1
140
1.0
141
1.0
290
     1
  0
SCALE
  5
3D
102
{ACAD_REACTORS
330
3B
102
}
330
3B
100
AcDbScale
 70
     0
300
1:2
140
1.0
141
2.0
290
     0
  0
SCALE
  5
3E
102
{ACAD_REACTORS
330
3B
102
}
330
3B
100
AcDbScale
 70
     0
300
1:4
140
1.0
141
4.0
290
     0
  0
SCALE
  5
3F
102
{ACAD_REACTORS
330
3B
102
}
330
3B
100
AcDbScale
 70
     0
300
1:5
140
1.0
141
5.0
290
     0
  0
SCALE
  5
40
102
{ACAD_REACTORS
330
3B
102
}
330
3B
100
AcDbScale
 70
     0
300
1:8
140
1.0
141
8.0
290
     0
  0
SCALE
  5
41
102
{ACAD_REACTORS
330
3B
102
}
330
3B
100
AcDbScale
 70
     0
300
1:10
140
1.0
141
10.0
290
     0
  0
SCALE
  5
42
102
{ACAD_REACTORS
330
3B
102
}
330
3B
100
AcDbScale
 70
     0
300
1:16
140
1.0
141
16.0
290
     0
  0
SCALE
  5
43
102
{ACAD_REACTORS
330
3B
102
}
330
3B
100
AcDbScale
 70
     0
300
1:20
140
1.0
141
20.0
290
     0
  0
SCALE
  5
44
102
{ACAD_REACTORS
330
3B
102
}
330
3B
100
AcDbScale
 70
     0
300
1:30
140
1.0
141
30.0
290
     0
  0
SCALE
  5
45
102
{ACAD_REACTORS
330
3B
102
}
330
3B
100
AcDbScale
 70
     0
300
1:40
140
1.0
141
40.0
290
     0
  0
SCALE
  5
46
102
{ACAD_REACTORS
330
3B
102
}
330
3B
100
AcDbScale
 70
     0
300
1:50
140
1.0
141
50.0
290
     0
  0
SCALE
  5
47
102
{ACAD_REACTORS
330
3B
102
}
330
3B
100
AcDbScale
 70
     0
300
1:100
140
1.0
141
100.0
290
     0
  0
SCALE
  5
48
102
{ACAD_REACTORS
330
3B
102
}
330
3B
100
AcDbScale
 70
     0
300
2:1
140
2.0
141
1.0
290
     0
  0
SCALE
  5
49
102
{ACAD_REACTORS
330
3B
102
}
330
3B
100
AcDbScale
 70
     0
300
4:1
140
4.0
141
1.0
290
     0
  0
SCALE
  5
4A
102
{ACAD_REACTORS
330
3B
102
}
330
3B
100
AcDbScale
 70
     0
300
8:1
140
8.0
141
1.0
290
     0
  0
SCALE
  5
4B
102
{ACAD_REACTORS
330
3B
102
}
330
3B
100
AcDbScale
 70
     0
300
10:1
140
10.0
141
1.0
290
     0
  0
SCALE
  5
4C
102
{ACAD_REACTORS
330
3B
102
}
330
3B
100
AcDbScale
 70
     0
300
100:1
140
100.0
141
1.0
290
     0
  0
SCALE
  5
4D
102
{ACAD_REACTORS
330
3B
102
}
330
3B
100
AcDbScale
 70
     0
300
1/128" = 1'-0"
140
0.0078125
141
12.0
290
     0
  0
SCALE
  5
4E
102
{ACAD_REACTORS
330
3B
102
}
330
3B
100
AcDbScale
 70
     0
300
1/64" = 1'-0"
140
0.015625
141
12.0
290
     0
  0
SCALE
  5
4F
102
{ACAD_REACTORS
330
3B
102
}
330
3B
100
AcDbScale
 70
     0
300
1/32" = 1'-0"
140
0.03125
141
12.0
290
     0
  0
SCALE
  5
50
102
{ACAD_REACTORS
330
3B
102
}
330
3B
100
AcDbScale
 70
     0
300
1/16" = 1'-0"
140
0.0625
141
12.0
290
     0
  0
SCALE
  5
51
102
{ACAD_REACTORS
330
3B
102
}
330
3B
100
AcDbScale
 70
     0
300
3/32" = 1'-0"
140
0.09375
141
12.0
290
     0
  0
SCALE
  5
52
102
{ACAD_REACTORS
330
3B
102
}
330
3B
100
AcDbScale
 70
     0
300
1/8" = 1'-0"
140
0.125
141
12.0
290
     0
  0
SCALE
  5
53
102
{ACAD_REACTORS
330
3B
102
}
330
3B
100
AcDbScale
 70
     0
300
3/16" = 1'-0"
140
0.1875
141
12.0
290
     0
  0
SCALE
  5
54
102
{ACAD_REACTORS
330
3B
102
}
330
3B
100
AcDbScale
 70
     0
300
1/4" = 1'-0"
140
0.25
141
12.0
290
     0
  0
SCALE
  5
55
102
{ACAD_REACTORS
330
3B
102
}
330
3B
100
AcDbScale
 70
     0
300
3/8" = 1'-0"
140
0.375
141
12.0
290
     0
  0
SCALE
  5
56
102
{ACAD_REACTORS
330
3B
102
}
330
3B
100
AcDbScale
 70
     0
300
1/2" = 1'-0"
140
0.5
141
12.0
290
     0
  0
SCALE
  5
57
102
{ACAD_REACTORS
330
3B
102
}
330
3B
100
AcDbScale
 70
     0
300
3/4" = 1'-0"
140
0.75
141
12.0
290
     0
  0
SCALE
  5
58
102
{ACAD_REACTORS
330
3B
102
}
330
3B
100
AcDbScale
 70
     0
300
1" = 1'-0"
140
1.0
141
12.0
290
     0
  0
SCALE
  5
59
102
{ACAD_REACTORS
330
3B
102
}
330
3B
100
AcDbScale
 70
     0
300
1-1/2" = 1'-0"
140
1.5
141
12.0
290
     0
  0
SCALE
  5
5A
102
{ACAD_REACTORS
330
3B
102
}
330
3B
100
AcDbScale
 70
     0
300
3" = 1'-0"
140
3.0
141
12.0
290
     0
  0
SCALE
  5
5B
102
{ACAD_REACTORS
330
3B
102
}
330
3B
100
AcDbScale
 70
     0
300
6" = 1'-0"
140
6.0
141
12.0
290
     0
  0
SCALE
  5
5C
102
{ACAD_REACTORS
330
3B
102
}
330
3B
100
AcDbScale
 70
     0
300
1'-0" = 1'-0"
140
12.0
141
12.0
290
     0
  0
VISUALSTYLE
  5
2F
102
{ACAD_REACTORS
330
2A
102
}
330
2A
100
AcDbVisualStyle
  2
2dWireframe
 70
     4
 71
     0
 72
     2
 73
     0
 90
        0
 40
-0.6
 41
-30.0
 62
     5
 63
     7
 74
     1
 91
        4
 64
     7
 65
   257
 75
     1
175
     1
 42
1.0
 92
        0
 66
   257
 43
1.0
 76
     1
 77
     6
 78
     2
 67
     7
 79
     5
170
     0
171
     0
290
     0
174
     0
 93
        1
 44
0.0
173
     0
291
     0
 45
0.0
1001
ACAD
1000
AcDbSavedByObjectVersion
1070
     0
  0
VISUALSTYLE
  5
31
102
{ACAD_REACTORS
330
2A
102
}
330
2A
100
AcDbVisualStyle
  2
3D Hidden
 70
     6
 71
     1
 72
     2
 73
     2
 90
        0
 40
-0.6
 41
-30.0
 62
     5
 63
     7
 74
     2
 91
        2
 64
     7
 65
   257
 75
     2
175
     1
 42
40.0
 92
        0
 66
   257
 43
1.0
 76
     1
 77
     6
 78
     2
 67
     7
 79
     3
170
     0
171
     0
290
     0
174
     0
 93
        1
 44
0.0
173
     0
291
     0
 45
0.0
1001
ACAD
1000
AcDbSavedByObjectVersion
1070
     0
  0
VISUALSTYLE
  5
30
102
{ACAD_REACTORS
330
2A
102
}
330
2A
100
AcDbVisualStyle
  2
3dWireframe
 70
     5
 71
     0
 72
     2
 73
     0
 90
        0
 40
-0.6
 41
-30.0
 62
     5
 63
     7
 74
     1
 91
        4
 64
     7
 65
   257
 75
     1
175
     1
 42
1.0
 92
        0
 66
   257
 43
1.0
 76
     1
 77
     6
 78
     2
 67
     7
 79
     5
170
     0
171
     0
290
     0
174
     0
 93
        1
 44
0.0
173
     0
291
     0
 45
0.0
1001
ACAD
1000
AcDbSavedByObjectVersion
1070
     0
  0
VISUALSTYLE
  5
32
102
{ACAD_REACTORS
330
2A
102
}
330
2A
100
AcDbVisualStyle
  2
Basic
 70
     7
 71
     1
 72
     0
 73
     1
 90
        0
 40
-0.6
 41
-30.0
 62
     5
 63
     7
 74
     0
 91
        4
 64
     7
 65
   257
 75
     1
175
     1
 42
1.0
 92
        8
 66
     7
 43
1.0
 76
     1
 77
     6
 78
     2
 67
     7
 79
     5
170
     0
171
     0
290
     0
174
     0
 93
        1
 44
0.0
173
     0
291
     1
 45
0.0
1001
ACAD
1000
AcDbSavedByObjectVersion
1070
     0
  0
VISUALSTYLE
  5
36
102
{ACAD_REACTORS
330
2A
102
}
330
2A
100
AcDbVisualStyle
  2
Brighten
 70
    12
 71
     2
 72
     2
 73
     0
 90
        0
 40
-0.6
 41
-30.0
 62
     5
 63
     7
 74
     1
 91
        4
 64
     7
 65
   257
 75
     1
175
     1
 42
1.0
 92
        8
 66
     7
 43
1.0
 76
     1
 77
     6
 78
     2
 67
     7
 79
     5
170
     0
171
     0
290
     0
174
     0
 93
        1
 44
50.0
173
     0
291
     1
 45
0.0
1001
ACAD
1000
AcDbSavedByObjectVersion
1070
     0
  0
VISUALSTYLE
  5
3A
102
{ACAD_REACTORS
330
2A
102
}
330
2A
100
AcDbVisualStyle
  2
ColorChange
 70
    16
 71
     2
 72
     2
 73
     3
 90
        0
 40
-0.6
 41
-30.0
 62
     5
 63
     8
 74
     1
 91
        4
 64
     7
 65
   257
 75
     1
175
     1
 42
1.0
 92
        8
 66
     8
 43
1.0
 76
     1
 77
     6
 78
     2
 67
     7
 79
     5
170
     0
171
     0
290
     0
174
     0
 93
        1
 44
0.0
173
     0
291
     1
 45
0.0
1001
ACAD
1000
AcDbSavedByObjectVersion
1070
     0
  0
VISUALSTYLE
  5
34
102
{ACAD_REACTORS
330
2A
102
}
330
2A
100
AcDbVisualStyle
  2
Conceptual
 70
     9
 71
     3
 72
     2
 73
     0
 90
        0
 40
-0.6
 41
-30.0
 62
     5
 63
     7
 74
     2
 91
        2
 64
     7
 65
   257
 75
     1
175
     1
 42
40.0
 92
        8
 66
     7
 43
1.0
 76
     1
 77
     6
 78
     2
 67
     7
 79
     3
170
     0
171
     0
290
     0
174
     0
 93
        1
 44
0.0
173
     0
291
     0
 45
0.0
1001
ACAD
1000
AcDbSavedByObjectVersion
1070
     0
  0
VISUALSTYLE
  5
35
102
{ACAD_REACTORS
330
2A
102
}
330
2A
100
AcDbVisualStyle
  2
Dim
 70
    11
 71
     2
 72
     2
 73
     0
 90
        0
 40
-0.6
 41
-30.0
 62
     5
 63
     7
 74
     1
 91
        4
 64
     7
 65
   257
 75
     1
175
     1
 42
1.0
 92
        8
 66
     7
 43
1.0
 76
     1
 77
     6
 78
     2
 67
     7
 79
     5
170
     0
171
     0
290
     0
174
     0
 93
        1
 44
-50.0
173
     0
291
     1
 45
0.0
1001
ACAD
1000
AcDbSavedByObjectVersion
1070
     0
  0
VISUALSTYLE
  5
39
102
{ACAD_REACTORS
330
2A
102
}
330
2A
100
AcDbVisualStyle
  2
Facepattern
 70
    15
 71
     2
 72
     2
 73
     0
 90
        0
 40
-0.6
 41
-30.0
 62
     5
 63
     7
 74
     1
 91
        4
 64
     7
 65
   257
 75
     1
175
     1
 42
1.0
 92
        8
 66
     7
 43
1.0
 76
     1
 77
     6
 78
     2
 67
     7
 79
     5
170
     0
171
     0
290
     0
174
     0
 93
        1
 44
0.0
173
     0
291
     1
 45
0.0
1001
ACAD
1000
AcDbSavedByObjectVersion
1070
     0
  0
VISUALSTYLE
  5
2B
102
{ACAD_REACTORS
330
2A
102
}
330
2A
100
AcDbVisualStyle
  2
Flat
 70
     0
 71
     2
 72
     1
 73
     1
 90
        2
 40
-0.6
 41
30.0
 62
     5
 63
     7
 74
     0
 91
        4
 64
     7
 65
   257
 75
     1
175
     1
 42
1.0
 92
        8
 66
     7
 43
1.0
 76
     1
 77
     6
 78
     2
 67
     7
 79
     5
170
     0
171
     0
290
     0
174
     0
 93
       13
 44
0.0
173
     0
291
     1
 45
0.0
1001
ACAD
1000
AcDbSavedByObjectVersion
1070
     0
  0
VISUALSTYLE
  5
2C
102
{ACAD_REACTORS
330
2A
102
}
330
2A
100
AcDbVisualStyle
  2
FlatWithEdges
 70
     1
 71
     2
 72
     1
 73
     1
 90
        2
 40
-0.6
 41
30.0
 62
     5
 63
     7
 74
     1
 91
        4
 64
     7
 65
   257
 75
     1
175
     1
 42
1.0
 92
        0
 66
   257
 43
1.0
 76
     1
 77
     6
 78
     2
 67
     7
 79
     5
170
     0
171
     0
290
     0
174
     0
 93
       13
 44
0.0
173
     0
291
     1
 45
0.0
1001
ACAD
1000
AcDbSavedByObjectVersion
1070
     0
  0
VISUALSTYLE
  5
2D
102
{ACAD_REACTORS
330
2A
102
}
330
2A
100
AcDbVisualStyle
  2
Gouraud
 70
     2
 71
     2
 72
     2
 73
     1
 90
        2
 40
-0.6
 41
30.0
 62
     5
 63
     7
 74
     0
 91
        4
 64
     7
 65
   257
 75
     1
175
     1
 42
1.0
 92
        0
 66
     7
 43
1.0
 76
     1
 77
     6
 78
     2
 67
     7
 79
     5
170
     0
171
     0
290
     0
174
     0
 93
       13
 44
0.0
173
     0
291
     1
 45
0.0
1001
ACAD
1000
AcDbSavedByObjectVersion
1070
     0
  0
VISUALSTYLE
  5
2E
102
{ACAD_REACTORS
330
2A
102
}
330
2A
100
AcDbVisualStyle
  2
GouraudWithEdges
 70
     3
 71
     2
 72
     2
 73
     1
 90
        2
 40
-0.6
 41
30.0
 62
     5
 63
     7
 74
     1
 91
        4
 64
     7
 65
   257
 75
     1
175
     1
 42
1.0
 92
        0
 66
   257
 43
1.0
 76
     1
 77
     6
 78
     2
 67
     7
 79
     5
170
     0
171
     0
290
     0
174
     0
 93
       13
 44
0.0
173
     0
291
     1
 45
0.0
1001
ACAD
1000
AcDbSavedByObjectVersion
1070
     0
  0
VISUALSTYLE
  5
38
102
{ACAD_REACTORS
330
2A
102
}
330
2A
100
AcDbVisualStyle
  2
Linepattern
 70
    14
 71
     2
 72
     2
 73
     0
 90
        0
 40
-0.6
 41
-30.0
 62
     5
 63
     7
 74
     1
 91
        4
 64
     7
 65
   257
 75
     7
175
     7
 42
1.0
 92
        8
 66
     7
 43
1.0
 76
     1
 77
     6
 78
     2
 67
     7
 79
     5
170
     0
171
     0
290
     0
174
     0
 93
        1
 44
0.0
173
     0
291
     1
 45
0.0
1001
ACAD
1000
AcDbSavedByObjectVersion
1070
     0
  0
VISUALSTYLE
  5
33
102
{ACAD_REACTORS
330
2A
102
}
330
2A
100
AcDbVisualStyle
  2
Realistic
 70
     8
 71
     2
 72
     2
 73
     0
 90
        0
 40
-0.6
 41
-30.0
 62
     5
 63
     7
 74
     1
 91
        0
 64
     7
 65
   257
 75
     1
175
     1
 42
1.0
 92
        8
 66
     8
 43
1.0
 76
     1
 77
     6
 78
     2
 67
     7
 79
     5
170
     0
171
     0
290
     0
174
     0
 93
       13
 44
0.0
173
     0
291
     0
 45
0.0
1001
ACAD
1000
AcDbSavedByObjectVersion
1070
     0
  0
VISUALSTYLE
  5
37
102
{ACAD_REACTORS
330
2A
102
}
330
2A
100
AcDbVisualStyle
  2
Thicken
 70
    13
 71
     2
 72
     2
 73
     0
 90
        0
 40
-0.6
 41
-30.0
 62
     5
 63
     7
 74
     1
 91
        4
 64
     7
 65
   257
 75
     1
175
     1
 42
1.0
 92
       12
 66
     7
 43
1.0
 76
     1
 77
     6
 78
     2
 67
     7
 79
     5
170
     0
171
     0
290
     0
174
     0
 93
        1
 44
0.0
173
     0
291
     1
 45
0.0
1001
ACAD
1000
AcDbSavedByObjectVersion
1070
     0
  0
DICTIONARYVAR
  5
186
102
{ACAD_REACTORS
330
185
102
}
330
185
100
DictionaryVariables
280
     0
  1
1:1
  0
DICTIONARYVAR
  5
18A
102
{ACAD_REACTORS
330
185
102
}
330
185
100
DictionaryVariables
280
     0
  1
80.000000
  0
DICTIONARYVAR
  5
189
102
{ACAD_REACTORS
330
185
102
}
330
185
100
DictionaryVariables
280
     0
  1
5.000000
  0
ENDSEC
  0
EOF
