  0
SECTION
  2
HEADER
  9
$ACADVER
  1
AC1015
  9
$ACADMAINTVER
 70
     6
  9
$DWGCODEPAGE
  3
ANSI_1252
  9
$INSBASE
 10
0.0
 20
0.0
 30
0.0
  9
$EXTMIN
 10
0.0
 20
0.0
 30
0.0
  9
$EXTMAX
 10
3000.0
 20
4500.0
 30
0.0
  9
$LIMMIN
 10
0.0
 20
0.0
  9
$LIMMAX
 10
3000.0
 20
4500.0
  9
$ORTHOMODE
 70
     0
  9
$REGENMODE
 70
     1
  9
$FILLMODE
 70
     1
  9
$QTEXTMODE
 70
     0
  9
$MIRRTEXT
 70
     1
  9
$LTSCALE
 40
1.0
  9
$ATTMODE
 70
     1
  9
$TEXTSIZE
 40
2.5
  9
$TRACEWID
 40
1.0
  9
$TEXTSTYLE
  7
Standard
  9
$CLAYER
  8
0
  9
$CELTYPE
  6
ByLayer
  9
$CECOLOR
 62
   256
  9
$CELTSCALE
 40
1.0
  9
$DISPSILH
 70
     0
  9
$DIMSCALE
 40
1.0
  9
$DIMASZ
 40
2.5
  9
$DIMEXO
 40
0.625
  9
$DIMDLI
 40
3.75
  9
$DIMRND
 40
0.0
  9
$DIMDLE
 40
0.0
  9
$DIMEXE
 40
1.25
  9
$DIMTP
 40
0.0
  9
$DIMTM
 40
0.0
  9
$DIMTXT
 40
2.5
  9
$DIMCEN
 40
2.5
  9
$DIMTSZ
 40
0.0
  9
$DIMTOL
 70
     0
  9
$DIMLIM
 70
     0
  9
$DIMTIH
 70
     0
  9
$DIMTOH
 70
     0
  9
$DIMSE1
 70
     0
  9
$DIMSE2
 70
     0
  9
$DIMTAD
 70
     1
  9
$DIMZIN
 70
     8
  9
$DIMBLK
  1

  9
$DIMASO
 70
     1
  9
$DIMSHO
 70
     1
  9
$DIMPOST
  1

  9
$DIMAPOST
  1

  9
$DIMALT
 70
     0
  9
$DIMALTD
 70
     3
  9
$DIMALTF
 40
0.0393700787
  9
$DIMLFAC
 40
1.0
  9
$DIMTOFL
 70
     1
  9
$DIMTVP
 40
0.0
  9
$DIMTIX
 70
     0
  9
$DIMSOXD
 70
     0
  9
$DIMSAH
 70
     0
  9
$DIMBLK1
  1

  9
$DIMBLK2
  1

  9
$DIMSTYLE
  2
ISO-25
  9
$DIMCLRD
 70
     0
  9
$DIMCLRE
 70
     0
  9
$DIMCLRT
 70
     0
  9
$DIMTFAC
 40
1.0
  9
$DIMGAP
 40
0.625
  9
$DIMJUST
 70
     0
  9
$DIMSD1
 70
     0
  9
$DIMSD2
 70
     0
  9
$DIMTOLJ
 70
     0
  9
$DIMTZIN
 70
     8
  9
$DIMALTZ
 70
     0
  9
$DIMALTTZ
 70
     0
  9
$DIMUPT
 70
     0
  9
$DIMDEC
 70
     2
  9
$DIMTDEC
 70
     2
  9
$DIMALTU
 70
     2
  9
$DIMALTTD
 70
     3
  9
$DIMTXSTY
  7
Standard
  9
$DIMAUNIT
 70
     0
  9
$DIMADEC
 70
     0
  9
$DIMALTRND
 40
0.0
  9
$DIMAZIN
 70
     0
  9
$DIMDSEP
 70
    44
  9
$DIMATFIT
 70
     3
  9
$DIMFRAC
 70
     0
  9
$DIMLDRBLK
  1

  9
$DIMLUNIT
 70
     2
  9
$DIMLWD
 70
    -2
  9
$DIMLWE
 70
    -2
  9
$DIMTMOVE
 70
     0
  9
$LUNITS
 70
     2
  9
$LUPREC
 70
     4
  9
$SKETCHINC
 40
1.0
  9
$FILLETRAD
 40
10.0
  9
$AUNITS
 70
     0
  9
$AUPREC
 70
     0
  9
$MENU
  1
.
  9
$ELEVATION
 40
0.0
  9
$PELEVATION
 40
0.0
  9
$THICKNESS
 40
0.0
  9
$LIMCHECK
 70
     0
  9
$CHAMFERA
 40
10.0
  9
$CHAMFERB
 40
10.0
  9
$CHAMFERC
 40
20.0
  9
$CHAMFERD
 40
0.0
  9
$SKPOLY
 70
     0
  9
$TDCREATE
 40
2456897.425502778
  9
$TDUCREATE
 40
2456897.342169445
  9
$TDUPDATE
 40
2456897.425502789
  9
$TDUUPDATE
 40
2456897.342169456
  9
$TDINDWG
 40
0.0000000116
  9
$TDUSRTIMER
 40
0.0000000116
  9
$USRTIMER
 70
     1
  9
$ANGBASE
 50
0.0
  9
$ANGDIR
 70
     0
  9
$PDMODE
 70
     0
  9
$PDSIZE
 40
0.0
  9
$PLINEWID
 40
0.0
  9
$SPLFRAME
 70
     0
  9
$SPLINETYPE
 70
     6
  9
$SPLINESEGS
 70
     8
  9
$HANDSEED
  5
F4
  9
$SURFTAB1
 70
     6
  9
$SURFTAB2
 70
     6
  9
$SURFTYPE
 70
     6
  9
$SURFU
 70
     6
  9
$SURFV
 70
     6
  9
$UCSBASE
  2

  9
$UCSNAME
  2

  9
$UCSORG
 10
0.0
 20
0.0
 30
0.0
  9
$UCSXDIR
 10
1.0
 20
0.0
 30
0.0
  9
$UCSYDIR
 10
0.0
 20
1.0
 30
0.0
  9
$UCSORTHOREF
  2

  9
$UCSORTHOVIEW
 70
     0
  9
$UCSORGTOP
 10
0.0
 20
0.0
 30
0.0
  9
$UCSORGBOTTOM
 10
0.0
 20
0.0
 30
0.0
  9
$UCSORGLEFT
 10
0.0
 20
0.0
 30
0.0
  9
$UCSORGRIGHT
 10
0.0
 20
0.0
 30
0.0
  9
$UCSORGFRONT
 10
0.0
 20
0.0
 30
0.0
  9
$UCSORGBACK
 10
0.0
 20
0.0
 30
0.0
  9
$PUCSBASE
  2

  9
$PUCSNAME
  2

  9
$PUCSORG
 10
0.0
 20
0.0
 30
0.0
  9
$PUCSXDIR
 10
1.0
 20
0.0
 30
0.0
  9
$PUCSYDIR
 10
0.0
 20
1.0
 30
0.0
  9
$PUCSORTHOREF
  2

  9
$PUCSORTHOVIEW
 70
     0
  9
$PUCSORGTOP
 10
0.0
 20
0.0
 30
0.0
  9
$PUCSORGBOTTOM
 10
0.0
 20
0.0
 30
0.0
  9
$PUCSORGLEFT
 10
0.0
 20
0.0
 30
0.0
  9
$PUCSORGRIGHT
 10
0.0
 20
0.0
 30
0.0
  9
$PUCSORGFRONT
 10
0.0
 20
0.0
 30
0.0
  9
$PUCSORGBACK
 10
0.0
 20
0.0
 30
0.0
  9
$USERI1
 70
     0
  9
$USERI2
 70
     0
  9
$USERI3
 70
     0
  9
$USERI4
 70
     0
  9
$USERI5
 70
     0
  9
$USERR1
 40
0.0
  9
$USERR2
 40
0.0
  9
$USERR3
 40
0.0
  9
$USERR4
 40
0.0
  9
$USERR5
 40
0.0
  9
$WORLDVIEW
 70
     1
  9
$SHADEDGE
 70
     3
  9
$SHADEDIF
 70
    70
  9
$TILEMODE
 70
     1
  9
$MAXACTVP
 70
    64
  9
$PINSBASE
 10
0.0
 20
0.0
 30
0.0
  9
$PLIMCHECK
 70
     0
  9
$PEXTMIN
 10
0.0
 20
0.0
 30
0.0
  9
$PEXTMAX
 10
3000.0
 20
4500.0
 30
0.0
  9
$PLIMMIN
 10
0.0
 20
0.0
  9
$PLIMMAX
 10
3000.0
 20
4500.0
  9
$UNITMODE
 70
     0
  9
$VISRETAIN
 70
     1
  9
$PLINEGEN
 70
     0
  9
$PSLTSCALE
 70
     1
  9
$TREEDEPTH
 70
  3020
  9
$CMLSTYLE
  2
Standard
  9
$CMLJUST
 70
     0
  9
$CMLSCALE
 40
20.0
  9
$PROXYGRAPHICS
 70
     1
  9
$MEASUREMENT
 70
     1
  9
$CELWEIGHT
370
    -1
  9
$ENDCAPS
280
     0
  9
$JOINSTYLE
280
     0
  9
$LWDISPLAY
290
     0
  9
$INSUNITS
 70
     4
  9
$HYPERLINKBASE
  1

  9
$STYLESHEET
  1

  9
$XEDIT
290
     1
  9
$CEPSNTYPE
380
     0
  9
$PSTYLEMODE
290
     1
  9
$FINGERPRINTGUID
  2
{ABFE9F16-42F5-4B81-9904-8EE6328F7CF2}
  9
$VERSIONGUID
  2
{FAEB1C32-E019-11D5-929B-00C0DF256EC4}
  9
$EXTNAMES
290
     1
  9
$PSVPSCALE
 40
0.0
  9
$OLESTARTUP
290
     0
  0
ENDSEC
  0
SECTION
  2
CLASSES
  0
CLASS
  1
ACDBDICTIONARYWDFLT
  2
AcDbDictionaryWithDefault
  3
ObjectDBX Classes
 90
        0
280
     0
281
     0
  0
CLASS
  1
VISUALSTYLE
  2
AcDbVisualStyle
  3
ObjectDBX Classes
 90
     4095
280
     0
281
     0
  0
CLASS
  1
SCALE
  2
AcDbScale
  3
ObjectDBX Classes
 90
     1153
280
     0
281
     0
  0
CLASS
  1
DICTIONARYVAR
  2
AcDbDictionaryVar
  3
ObjectDBX Classes
 90
        0
280
     0
281
     0
  0
CLASS
  1
ACDBPLACEHOLDER
  2
AcDbPlaceHolder
  3
ObjectDBX Classes
 90
        0
280
     0
281
     0
  0
CLASS
  1
LAYOUT
  2
AcDbLayout
  3
ObjectDBX Classes
 90
        0
280
     0
281
     0
  0
ENDSEC
  0
SECTION
  2
TABLES
  0
TABLE
  2
VPORT
  5
8
330
0
100
AcDbSymbolTable
 70
     1
  0
VPORT
  5
29
330
8
100
AcDbSymbolTableRecord
100
AcDbViewportTableRecord
  2
*Active
 70
     0
 10
0.0
 20
0.0
 11
1.0
 21
1.0
 12
344.1869158879
 22
148.5
 13
0.0
 23
0.0
 14
10.0
 24
10.0
 15
10.0
 25
10.0
 16
0.0
 26
0.0
 36
1.0
 17
0.0
 27
0.0
 37
0.0
 40
297.0
 41
1.9729729729
 42
50.0
 43
0.0
 44
0.0
 50
0.0
 51
0.0
 71
     0
 72
   100
 73
     1
 74
     3
 75
     0
 76
     0
 77
     0
 78
     0
281
     0
 65
     1
110
0.0
120
0.0
130
0.0
111
1.0
121
0.0
131
0.0
112
0.0
122
1.0
132
0.0
 79
     0
146
0.0
  0
ENDTAB
  0
TABLE
  2
LTYPE
  5
5
330
0
100
AcDbSymbolTable
 70
     2
  0
LTYPE
  5
14
330
5
100
AcDbSymbolTableRecord
100
AcDbLinetypeTableRecord
  2
ByBlock
 70
     0
  3

 72
    65
 73
     0
 40
0.0
  0
LTYPE
  5
15
330
5
100
AcDbSymbolTableRecord
100
AcDbLinetypeTableRecord
  2
ByLayer
 70
     0
  3

 72
    65
 73
     0
 40
0.0
  0
LTYPE
  5
16
330
5
100
AcDbSymbolTableRecord
100
AcDbLinetypeTableRecord
  2
Continuous
 70
     0
  3
Solid line
 72
    65
 73
     0
 40
0.0
  0
LTYPE
  5
82
330
5
100
AcDbSymbolTableRecord
100
AcDbLinetypeTableRecord
  2
CENTER2
 70
     0
  3
Center (.5x) ___ _ ___ _ ___ _ ___ _ ___ _ ___
 72
    65
 73
     4
 40
28.575
 49
19.05
 74
     4
 75
     0
340
0
 46
0.0
 50
0.0
 44
0.0
 45
0.0
 49
-3.175
 74
     4
 75
     0
340
0
 46
0.0
 50
0.0
 44
0.0
 45
0.0
 49
3.175
 74
     4
 75
     0
340
0
 46
0.0
 50
0.0
 44
0.0
 45
0.0
 49
-3.175
 74
     4
 75
     0
340
0
 46
0.0
 50
0.0
 44
0.0
 45
0.0
  0
ENDTAB
  0
TABLE
  2
LAYER
  5
2
330
0
100
AcDbSymbolTable
 70
    10
  0
LAYER
  5
10
330
2
100
AcDbSymbolTableRecord
100
AcDbLayerTableRecord
  2
0
 70
     0
 62
     7
  6
Continuous
370
    -3
390
F
  0
LAYER
  5
5D
330
2
100
AcDbSymbolTableRecord
100
AcDbLayerTableRecord
  2
Default
 70
     0
 62
     7
  6
Continuous
370
    -3
390
F
  0
LAYER
  5
60
330
2
100
AcDbSymbolTableRecord
100
AcDbLayerTableRecord
  2
$DDT_AUDIT_GENERATED_(60)
 70
     0
 62
     7
  6
Continuous
370
    -3
390
F
  0
LAYER
  5
64
330
2
100
AcDbSymbolTableRecord
100
AcDbLayerTableRecord
  2
$DDT_AUDIT_GENERATED_(64)
 70
     0
 62
     7
  6
Continuous
370
    -3
390
F
  0
LAYER
  5
74
330
2
100
AcDbSymbolTableRecord
100
AcDbLayerTableRecord
  2
$DDT_AUDIT_GENERATED_(74)
 70
     0
 62
     7
  6
Continuous
370
    -3
390
F
  0
LAYER
  5
7C
330
2
100
AcDbSymbolTableRecord
100
AcDbLayerTableRecord
  2
$DDT_AUDIT_GENERATED_(7C)
 70
     0
 62
     7
  6
Continuous
370
    -3
390
F
  0
LAYER
  5
81
330
2
100
AcDbSymbolTableRecord
100
AcDbLayerTableRecord
  2
DV1_Default
 70
     0
 62
     7
  6
Continuous
370
    -3
390
F
  0
LAYER
  5
8D
330
2
100
AcDbSymbolTableRecord
100
AcDbLayerTableRecord
  2
$DDT_AUDIT_GENERATED_(8D)
 70
     0
 62
     7
  6
Continuous
370
    -3
390
F
  0
LAYER
  5
BE
330
2
100
AcDbSymbolTableRecord
100
AcDbLayerTableRecord
  2
DV2_Default
 70
     0
 62
     7
  6
Continuous
370
    -3
390
F
  0
LAYER
  5
DE
330
2
100
AcDbSymbolTableRecord
100
AcDbLayerTableRecord
  2
DV3_Default
 70
     0
 62
     7
  6
Continuous
370
    -3
390
F
  0
ENDTAB
  0
TABLE
  2
STYLE
  5
3
330
0
100
AcDbSymbolTable
 70
     2
  0
STYLE
  5
11
330
3
100
AcDbSymbolTableRecord
100
AcDbTextStyleTableRecord
  2
Standard
 70
     0
 40
0.0
 41
1.0
 50
0.0
 71
     0
 42
2.5
  3
txt
  4

  0
STYLE
  5
E3
330
3
100
AcDbSymbolTableRecord
100
AcDbTextStyleTableRecord
  2
SEACAD_seiso_ttf
 70
     0
 40
0.0
 41
1.0
 50
0.0
 71
     0
 42
0.2
  3
seiso.ttf
  4

  0
ENDTAB
  0
TABLE
  2
VIEW
  5
6
330
0
100
AcDbSymbolTable
 70
     0
  0
ENDTAB
  0
TABLE
  2
UCS
  5
7
330
0
100
AcDbSymbolTable
 70
     0
  0
ENDTAB
  0
TABLE
  2
APPID
  5
9
330
0
100
AcDbSymbolTable
 70
     1
  0
APPID
  5
12
330
9
100
AcDbSymbolTableRecord
100
AcDbRegAppTableRecord
  2
ACAD
 70
     0
  0
ENDTAB
  0
TABLE
  2
DIMSTYLE
  5
A
330
0
100
AcDbSymbolTable
 70
     1
100
AcDbDimStyleTable
  0
DIMSTYLE
105
27
330
A
100
AcDbSymbolTableRecord
100
AcDbDimStyleTableRecord
  2
ISO-25
 70
     0
 41
2.5
 42
0.625
 43
3.75
 44
1.25
 73
     0
 74
     0
 77
     1
 78
     8
140
2.5
141
2.5
143
0.0393700787
147
0.625
171
     3
172
     1
271
     2
272
     2
274
     3
278
    44
283
     0
284
     8
340
11
  0
ENDTAB
  0
TABLE
  2
BLOCK_RECORD
  5
1
330
0
100
AcDbSymbolTable
 70
     4
  0
BLOCK_RECORD
  5
1F
330
1
100
AcDbSymbolTableRecord
100
AcDbBlockTableRecord
  2
*Model_Space
340
22
  0
BLOCK_RECORD
  5
1B
330
1
100
AcDbSymbolTableRecord
100
AcDbBlockTableRecord
  2
*Paper_Space
340
1E
  0
BLOCK_RECORD
  5
5E
330
1
100
AcDbSymbolTableRecord
100
AcDbBlockTableRecord
  2
SE
340
0
102
{BLKREFS
331
5F
102
}
  0
BLOCK_RECORD
  5
8B
330
1
100
AcDbSymbolTableRecord
100
AcDbBlockTableRecord
  2
SE1
340
0
102
{BLKREFS
331
8C
102
}
  0
BLOCK_RECORD
  5
C3
330
1
100
AcDbSymbolTableRecord
100
AcDbBlockTableRecord
  2
SE2
340
0
102
{BLKREFS
331
C4
102
}
  0
ENDTAB
  0
ENDSEC
  0
SECTION
  2
BLOCKS
  0
BLOCK
  5
20
330
1F
100
AcDbEntity
  8
0
100
AcDbBlockBegin
  2
*Model_Space
 70
     0
 10
0.0
 20
0.0
 30
0.0
  3
*Model_Space
  1

  0
ENDBLK
  5
21
330
1F
100
AcDbEntity
  8
0
100
AcDbBlockEnd
  0
BLOCK
  5
1C
330
1B
100
AcDbEntity
 67
     1
  8
0
100
AcDbBlockBegin
  2
*Paper_Space
 70
     0
 10
0.0
 20
0.0
 30
0.0
  3
*Paper_Space
  1

  0
ENDBLK
  5
1D
330
1B
100
AcDbEntity
 67
     1
  8
0
100
AcDbBlockEnd
  0
BLOCK
  5
89
330
5E
100
AcDbEntity
  8
0
100
AcDbBlockBegin
  2
SE
 70
     0
 10
0.0
 20
0.0
 30
0.0
  3
SE
  1

  0
SPLINE
  5
61
330
5E
100
AcDbEntity
  8
$DDT_AUDIT_GENERATED_(60)
  6
Continuous
 62
     7
100
AcDbSpline
210
0.0
220
0.0
230
1.0
 70
     8
 71
     5
 72
    14
 73
     8
 74
     0
 42
0.0000000199658649
 43
0.0000000001
 40
0.0
 40
0.0
 40
0.0
 40
0.0
 40
0.0
 40
0.0
 40
0.5
 40
0.5
 40
1.0
 40
1.0
 40
1.0
 40
1.0
 40
1.0
 40
1.0
 10
133.3954529399279
 20
308.760604052624
 30
0.0
 10
133.3954529376834
 20
308.7607705361243
 30
0.0
 10
133.3954529376834
 20
308.7607705361243
 30
0.0
 10
133.3336440255592
 20
308.7607683167898
 30
0.0
 10
133.2116225108192
 20
308.7607639354956
 30
0.0
 10
133.0308572636688
 20
308.7607574449542
 30
0.0
 10
132.9630914518015
 20
308.7607550117335
 30
0.0
 10
132.8947647852191
 20
308.7605894919428
 30
0.0
  0
SPLINE
  5
62
330
5E
100
AcDbEntity
  8
$DDT_AUDIT_GENERATED_(60)
  6
Continuous
 62
     7
100
AcDbSpline
210
0.0
220
0.0
230
1.0
 70
     8
 71
     3
 72
    26
 73
    22
 74
     0
 42
0.0000000001217991
 43
0.0000000001
 40
0.0
 40
0.0
 40
0.0
 40
0.0
 40
0.125
 40
0.125
 40
0.25
 40
0.25
 40
0.375
 40
0.375
 40
0.5
 40
0.5
 40
0.625
 40
0.625
 40
0.75
 40
0.75
 40
0.875
 40
0.875
 40
0.9375
 40
0.9375
 40
0.96875
 40
0.96875
 40
1.0
 40
1.0
 40
1.0
 40
1.0
 10
81.39545293992792
 20
308.7599980602865
 30
0.0
 10
81.39545293992792
 20
305.3643133348314
 30
0.0
 10
82.09870033153192
 20
301.9686259414417
 30
0.0
 10
84.70579339246122
 20
295.6745424034439
 30
0.0
 10
86.60962398329572
 20
292.7761462544728
 30
0.0
 10
91.41186629380002
 20
287.973941780986
 30
0.0
 10
94.31027663163671
 20
286.0701320677798
 30
0.0
 10
100.6043790879474
 20
283.4630846802893
 30
0.0
 10
104.0000712110695
 20
282.7598470042735
 30
0.0
 10
110.7914406611237
 20
282.7599306750192
 30
0.0
 10
114.1871179930375
 20
283.4632458954263
 30
0.0
 10
120.481161284446
 20
286.0704361178681
 30
0.0
 10
123.379527248246
 20
287.9743111221742
 30
0.0
 10
128.1816512297698
 20
292.776633923049
 30
0.0
 10
130.085416529322
 20
295.6750744444907
 30
0.0
 10
132.0406291980422
 20
300.3956814698224
 30
0.0
 10
132.5422942082359
 20
302.0313748538647
 30
0.0
 10
133.0503716233801
 20
304.5315299357973
 30
0.0
 10
133.1789940785788
 20
305.3726841316063
 30
0.0
 10
133.3515470756023
 20
307.0627605989243
 30
0.0
 10
133.3954529399279
 20
307.9116828715573
 30
0.0
 10
133.3954529399279
 20
308.760604052624
 30
0.0
  0
ARC
  5
63
330
5E
100
AcDbEntity
  8
$DDT_AUDIT_GENERATED_(60)
  6
Continuous
 62
     7
100
AcDbCircle
 10
107.3954529447
 20
308.759888832
 30
0.0
 40
26.00000000503338
100
AcDbArc
 50
0.0015761202
 51
179.9997592953
  0
SPLINE
  5
65
330
5E
100
AcDbEntity
  8
$DDT_AUDIT_GENERATED_(64)
  6
Continuous
 62
     7
100
AcDbSpline
210
0.0
220
0.0
230
1.0
 70
    12
 71
     5
 72
    12
 73
     6
 74
     0
 42
0.0000000010921331
 43
0.0000000001
 40
0.0
 40
0.0
 40
0.0
 40
0.0
 40
0.0
 40
0.0
 40
1.0
 40
1.0
 40
1.0
 40
1.0
 40
1.0
 40
1.0
 10
110.5705546075437
 20
233.2321137626347
 30
0.0
 41
1.0
 10
110.5705546075451
 20
231.8447599902026
 30
0.0
 41
1.0
 10
110.5705546075475
 20
230.0956582237342
 30
0.0
 41
1.0
 10
111.2921600962766
 20
227.9588379861253
 30
0.0
 41
1.0
 10
111.2921509817457
 20
225.7020416312031
 30
0.0
 41
1.0
 10
111.2921418672149
 20
224.1942750390302
 30
0.0
 41
1.0
  0
LINE
  5
66
330
5E
100
AcDbEntity
  8
$DDT_AUDIT_GENERATED_(64)
  6
Continuous
 62
     7
100
AcDbLine
 10
104.220447768
 20
233.2321137626
 30
0.0
 11
104.2816467434
 21
233.2321137626
 31
0.0
  0
LINE
  5
67
330
5E
100
AcDbEntity
  8
$DDT_AUDIT_GENERATED_(64)
  6
Continuous
 62
     7
100
AcDbLine
 10
104.2816467434
 20
233.2321137626
 30
0.0
 11
110.5705546075
 21
233.2321137626
 31
0.0
  0
SPLINE
  5
68
330
5E
100
AcDbEntity
  8
$DDT_AUDIT_GENERATED_(64)
  6
Continuous
 62
     7
100
AcDbSpline
210
0.0
220
0.0
230
1.0
 70
    12
 71
     5
 72
    12
 73
     6
 74
     0
 42
0.0000000010921331
 43
0.0000000001
 40
0.0
 40
0.0
 40
0.0
 40
0.0
 40
0.0
 40
0.0
 40
1.0
 40
1.0
 40
1.0
 40
1.0
 40
1.0
 40
1.0
 10
103.4988605082944
 20
224.1942750390302
 30
0.0
 41
1.0
 10
103.4988513937635
 20
225.7020416312031
 30
0.0
 41
1.0
 10
103.4988422792327
 20
227.9588379861253
 30
0.0
 41
1.0
 10
104.2204477679617
 20
230.0956582237343
 30
0.0
 41
1.0
 10
104.2204477679642
 20
231.8447599902026
 30
0.0
 41
1.0
 10
104.2204477679656
 20
233.2321137626347
 30
0.0
 41
1.0
  0
LINE
  5
69
330
5E
100
AcDbEntity
  8
$DDT_AUDIT_GENERATED_(64)
  6
Continuous
 62
     7
100
AcDbLine
 10
107.3954544413
 20
224.194275039
 30
0.0
 11
103.4988605083
 21
224.194275039
 31
0.0
  0
LINE
  5
6A
330
5E
100
AcDbEntity
  8
$DDT_AUDIT_GENERATED_(64)
  6
Continuous
 62
     7
100
AcDbLine
 10
111.2921418672
 20
224.194275039
 30
0.0
 11
107.3954544413
 21
224.194275039
 31
0.0
  0
LINE
  5
6B
330
5E
100
AcDbEntity
  8
$DDT_AUDIT_GENERATED_(64)
  6
Continuous
 62
     7
100
AcDbLine
 10
111.0920978867
 20
214.7598888902
 30
0.0
 11
107.3955009155
 21
214.7598888902
 31
0.0
  0
LINE
  5
6C
330
5E
100
AcDbEntity
  8
$DDT_AUDIT_GENERATED_(64)
  6
Continuous
 62
     7
100
AcDbLine
 10
107.3955009155
 20
214.7598888902
 30
0.0
 11
103.6990457478
 21
214.7598888902
 31
0.0
  0
SPLINE
  5
6D
330
5E
100
AcDbEntity
  8
$DDT_AUDIT_GENERATED_(64)
  6
Continuous
 62
     7
100
AcDbSpline
210
0.0
220
0.0
230
1.0
 70
    12
 71
     3
 72
     8
 73
     4
 74
     0
 42
0.0000000287729935
 43
0.0000000001
 40
0.0
 40
0.0
 40
0.0
 40
0.0
 40
1.0
 40
1.0
 40
1.0
 40
1.0
 10
111.0920978866834
 20
214.759888890247
 30
0.0
 41
1.0
 10
111.2025551992083
 20
214.759888890247
 30
0.0
 41
1.0
 10
111.2920983994182
 20
214.8494325061126
 30
0.0
 41
1.0
 10
111.2920978866812
 20
214.9598898186367
 30
0.0
 41
1.0
  0
SPLINE
  5
6E
330
5E
100
AcDbEntity
  8
$DDT_AUDIT_GENERATED_(64)
  6
Continuous
 62
     7
100
AcDbSpline
210
0.0
220
0.0
230
1.0
 70
     8
 71
     3
 72
    12
 73
     8
 74
     0
 42
0.0000000011014431
 43
0.0000000001
 40
0.0
 40
0.0
 40
0.0
 40
0.0
 40
0.1688448830673759
 40
0.368012198314831
 40
0.5877727891606997
 40
0.8079242547220011
 40
1.0
 40
1.0
 40
1.0
 40
1.0
 10
104.2814814243617
 20
233.2321137626347
 30
0.0
 10
104.2761210752261
 20
232.6703143888916
 30
0.0
 10
104.2646350994816
 20
231.6355343783634
 30
0.0
 10
104.0559052357783
 20
229.8283187698808
 30
0.0
 10
103.78576410015
 20
227.938243740669
 30
0.0
 10
103.5904910796205
 20
225.9914536116289
 30
0.0
 10
103.5785875721208
 20
224.8333820403682
 30
0.0
 10
103.5737661863429
 20
224.1942750390302
 30
0.0
  0
LINE
  5
6F
330
5E
100
AcDbEntity
  8
$DDT_AUDIT_GENERATED_(64)
  6
Continuous
 62
     7
100
AcDbLine
 10
103.4988604964
 20
224.1968032439
 30
0.0
 11
103.4989034352
 21
214.94663646
 31
0.0
  0
LINE
  5
70
330
5E
100
AcDbEntity
  8
$DDT_AUDIT_GENERATED_(64)
  6
Continuous
 62
     7
100
AcDbLine
 10
111.2920979482
 20
214.94663646
 30
0.0
 11
111.2920550094
 21
224.1968032439
 31
0.0
  0
LINE
  5
71
330
5E
100
AcDbEntity
  8
$DDT_AUDIT_GENERATED_(64)
  6
Continuous
 62
     7
100
AcDbLine
 10
104.220447768
 20
282.976081328
 30
0.0
 11
104.220447768
 21
233.2296137626
 31
0.0
  0
LINE
  5
72
330
5E
100
AcDbEntity
  8
$DDT_AUDIT_GENERATED_(64)
  6
Continuous
 62
     7
100
AcDbLine
 10
110.5704581118
 20
233.2296137626
 30
0.0
 11
110.5704581118
 21
282.9761169075
 31
0.0
  0
SPLINE
  5
73
330
5E
100
AcDbEntity
  8
$DDT_AUDIT_GENERATED_(64)
  6
Continuous
 62
     7
100
AcDbSpline
210
0.0
220
0.0
230
1.0
 70
     8
 71
     3
 72
    13
 73
     9
 74
     0
 42
0.0000000313337611
 43
0.0000000001
 40
0.0
 40
0.0
 40
0.0
 40
0.0
 40
0.1620496913205812
 40
0.2888040418863363
 40
0.4528737650408853
 40
0.6596337079077411
 40
0.8111980005014139
 40
1.0
 40
1.0
 40
1.0
 40
1.0
 10
103.4987192371489
 20
214.959887961902
 30
0.0
 10
103.499898074551
 20
214.9411666825025
 30
0.0
 10
103.5021794524038
 20
214.9128626152079
 30
0.0
 10
103.5194822228995
 20
214.8671801828738
 30
0.0
 10
103.5487007303429
 20
214.8233101262851
 30
0.0
 10
103.5916540079281
 20
214.7877616883205
 30
0.0
 10
103.645888848685
 20
214.7640063859895
 30
0.0
 10
103.6793856339454
 20
214.7612325096669
 30
0.0
 10
103.7011994122208
 20
214.759888890247
 30
0.0
  0
ELLIPSE
  5
75
330
5E
100
AcDbEntity
  8
$DDT_AUDIT_GENERATED_(74)
  6
Continuous
 62
     7
100
AcDbEllipse
 10
107.3954529399
 20
283.0826829211
 30
0.0
 11
-3.450000000000003
 21
-6.938893903907229E-15
 31
0.0
210
0.0
220
0.0
230
1.0
 40
0.0291245235
 41
5.881213520736002
 42
6.283185307179517
  0
ELLIPSE
  5
76
330
5E
100
AcDbEntity
  8
$DDT_AUDIT_GENERATED_(74)
  6
Continuous
 62
     7
100
AcDbEllipse
 10
107.3954529399
 20
283.0826829211
 30
0.0
 11
-3.450000000000003
 21
-6.938893903907229E-15
 31
0.0
210
0.0
220
0.0
230
1.0
 40
0.0291245235
 41
3.141592653589724
 42
3.543564440039157
  0
ELLIPSE
  5
77
330
5E
100
AcDbEntity
  8
$DDT_AUDIT_GENERATED_(74)
  6
Continuous
 62
     7
100
AcDbEllipse
 10
107.3954529399
 20
282.5764705832
 30
0.0
 11
-3.450000000000003
 21
-6.938893903907229E-15
 31
0.0
210
0.0
220
0.0
230
1.0
 40
0.0291245235
 41
5.881213520736381
 42
6.283185307179517
  0
ELLIPSE
  5
78
330
5E
100
AcDbEntity
  8
$DDT_AUDIT_GENERATED_(74)
  6
Continuous
 62
     7
100
AcDbEllipse
 10
107.3954529399
 20
282.5764705832
 30
0.0
 11
-3.450000000000003
 21
-6.938893903907229E-15
 31
0.0
210
0.0
220
0.0
230
1.0
 40
0.0291245235
 41
2.739620867139986
 42
3.543564440039537
  0
ELLIPSE
  5
79
330
5E
100
AcDbEntity
  8
$DDT_AUDIT_GENERATED_(74)
  6
Continuous
 62
     7
100
AcDbEllipse
 10
107.3954529399
 20
282.5764705832
 30
0.0
 11
-3.450000000000003
 21
-6.938893903907229E-15
 31
0.0
210
0.0
220
0.0
230
1.0
 40
0.0291245235
 41
0.0
 42
0.4019717864431421
  0
LINE
  5
7A
330
5E
100
AcDbEntity
  8
$DDT_AUDIT_GENERATED_(74)
  6
Continuous
 62
     7
100
AcDbLine
 10
103.9454529399
 20
283.0826829211
 30
0.0
 11
103.9454529399
 21
282.5764705832
 31
0.0
  0
LINE
  5
7B
330
5E
100
AcDbEntity
  8
$DDT_AUDIT_GENERATED_(74)
  6
Continuous
 62
     7
100
AcDbLine
 10
110.8454529399
 20
282.5764705832
 30
0.0
 11
110.8454529399
 21
283.0826829211
 31
0.0
  0
ARC
  5
7D
330
5E
100
AcDbEntity
  8
$DDT_AUDIT_GENERATED_(7C)
  6
Continuous
 62
     7
100
AcDbCircle
 10
107.3937156698
 20
321.6435680749
 30
0.0
 40
81.4
100
AcDbArc
 50
272.2366114134
 51
0.0
  0
ARC
  5
7E
330
5E
100
AcDbEntity
  8
$DDT_AUDIT_GENERATED_(7C)
  6
Continuous
 62
     7
100
AcDbCircle
 10
107.3937156698
 20
321.6435680749
 30
0.0
 40
81.4
100
AcDbArc
 50
0.0
 51
267.7658361062
  0
ARC
  5
7F
330
5E
100
AcDbEntity
  8
$DDT_AUDIT_GENERATED_(7C)
  6
Continuous
 62
     7
100
AcDbCircle
 10
107.3937156698
 20
308.7435680756
 30
0.0
 40
26.55
100
AcDbArc
 50
0.0
 51
263.1321744729
  0
ARC
  5
80
330
5E
100
AcDbEntity
  8
$DDT_AUDIT_GENERATED_(7C)
  6
Continuous
 62
     7
100
AcDbCircle
 10
107.3937156698
 20
308.7435680756
 30
0.0
 40
26.55
100
AcDbArc
 50
276.8744958356
 51
0.0
  0
LINE
  5
83
330
5E
100
AcDbEntity
  8
DV1_Default
  6
CENTER2
 62
     7
100
AcDbLine
 10
127.3937152241
 20
321.6435680749
 30
0.0
 11
87.3937161181
 21
321.6435680749
 31
0.0
  0
LINE
  5
84
330
5E
100
AcDbEntity
  8
DV1_Default
  6
CENTER2
 62
     7
100
AcDbLine
 10
107.3937156711
 20
341.6435676278
 30
0.0
 11
107.3937156711
 21
301.6435685219
 31
0.0
  0
LINE
  5
85
330
5E
100
AcDbEntity
  8
DV1_Default
  6
CENTER2
 62
     7
100
AcDbLine
 10
132.3937151123
 20
321.6435680749
 30
0.0
 11
192.2937156711
 21
321.6435680749
 31
0.0
  0
LINE
  5
86
330
5E
100
AcDbEntity
  8
DV1_Default
  6
CENTER2
 62
     7
100
AcDbLine
 10
107.3937156711
 20
346.6435675161
 30
0.0
 11
107.3937156711
 21
406.5435680749
 31
0.0
  0
LINE
  5
87
330
5E
100
AcDbEntity
  8
DV1_Default
  6
CENTER2
 62
     7
100
AcDbLine
 10
82.3937162299
 20
321.6435680749
 30
0.0
 11
22.4937156711
 21
321.6435680749
 31
0.0
  0
LINE
  5
88
330
5E
100
AcDbEntity
  8
DV1_Default
  6
CENTER2
 62
     7
100
AcDbLine
 10
107.3937156711
 20
296.6435686336
 30
0.0
 11
107.3937156711
 21
236.7435680749
 31
0.0
  0
ENDBLK
  5
8A
330
5E
100
AcDbEntity
  8
0
100
AcDbBlockEnd
  0
BLOCK
  5
C1
330
8B
100
AcDbEntity
  8
0
100
AcDbBlockBegin
  2
SE1
 70
     0
 10
0.0
 20
0.0
 30
0.0
  3
SE1
  1

  0
ARC
  5
8E
330
8B
100
AcDbEntity
  8
$DDT_AUDIT_GENERATED_(8D)
  6
Continuous
 62
     7
100
AcDbCircle
 10
304.3999474337
 20
308.7435680756
 30
0.0
 40
25.87500000000042
100
AcDbArc
 50
270.5
 51
299.0563101816
  0
LINE
  5
8F
330
8B
100
AcDbEntity
  8
$DDT_AUDIT_GENERATED_(8D)
  6
Continuous
 62
     7
100
AcDbLine
 10
304.6257465397
 20
334.6175828349
 30
0.0
 11
304.6257465397
 21
282.8695533163
 31
0.0
  0
ARC
  5
90
330
8B
100
AcDbEntity
  8
$DDT_AUDIT_GENERATED_(8D)
  6
Continuous
 62
     7
100
AcDbCircle
 10
304.3999474337
 20
308.7435680756
 30
0.0
 40
25.87500000000078
100
AcDbArc
 50
60.9462391622
 51
89.5
  0
LINE
  5
91
330
8B
100
AcDbEntity
  8
$DDT_AUDIT_GENERATED_(8D)
  6
Continuous
 62
     7
100
AcDbLine
 10
304.6257465397
 20
282.8695533163
 30
0.0
 11
292.4663262857
 21
282.7634396633
 31
0.0
  0
LINE
  5
92
330
8B
100
AcDbEntity
  8
$DDT_AUDIT_GENERATED_(8D)
  6
Continuous
 62
     7
100
AcDbLine
 10
293.1366326576
 20
334.7178468127
 30
0.0
 11
304.6257465397
 21
334.6175828349
 31
0.0
  0
LINE
  5
93
330
8B
100
AcDbEntity
  8
$DDT_AUDIT_GENERATED_(60)
  6
Continuous
 62
     7
100
AcDbLine
 10
316.9346754412
 20
334.5598884623
 30
0.0
 11
316.9346754412
 21
308.7598888378
 31
0.0
  0
LINE
  5
94
330
8B
100
AcDbEntity
  8
$DDT_AUDIT_GENERATED_(60)
  6
Continuous
 62
     7
100
AcDbLine
 10
316.9346754412
 20
282.9598892133
 30
0.0
 11
316.9346754412
 21
308.7598888378
 31
0.0
  0
ARC
  5
95
330
8B
100
AcDbEntity
  8
$DDT_AUDIT_GENERATED_(60)
  6
Continuous
 62
     7
100
AcDbCircle
 10
337.7646754438
 20
258.0065855082
 30
0.0
 40
24.96250489762033
100
AcDbArc
 50
82.5769974146
 51
97.4230044381
  0
ARC
  5
96
330
8B
100
AcDbEntity
  8
$DDT_AUDIT_GENERATED_(60)
  6
Continuous
 62
     7
100
AcDbCircle
 10
343.9566125733
 20
283.27198302
 30
0.0
 40
0.5125628969013645
100
AcDbArc
 50
267.5495185976
 51
358.5890737458
  0
ARC
  5
97
330
8B
100
AcDbEntity
  8
$DDT_AUDIT_GENERATED_(60)
  6
Continuous
 62
     7
100
AcDbCircle
 10
-29.8310376867
 20
308.7593921985
 30
0.0
 40
375.1658490089366
100
AcDbArc
 50
356.1026325703
 51
3.8976314333
  0
LINE
  5
98
330
8B
100
AcDbEntity
  8
$DDT_AUDIT_GENERATED_(60)
  6
Continuous
 62
     7
100
AcDbLine
 10
340.9884208539
 20
282.7598888378
 30
0.0
 11
343.9346974694
 21
282.7598888378
 31
0.0
  0
LINE
  5
99
330
8B
100
AcDbEntity
  8
$DDT_AUDIT_GENERATED_(60)
  6
Continuous
 62
     7
100
AcDbLine
 10
331.6851274309
 20
282.7598888378
 30
0.0
 11
334.5802353796
 21
282.7598888378
 31
0.0
  0
LINE
  5
9A
330
8B
100
AcDbEntity
  8
$DDT_AUDIT_GENERATED_(60)
  6
Continuous
 62
     7
100
AcDbLine
 10
317.1346754412
 20
282.7598888378
 30
0.0
 11
324.1023871311
 21
282.7598888378
 31
0.0
  0
LINE
  5
9B
330
8B
100
AcDbEntity
  8
$DDT_AUDIT_GENERATED_(60)
  6
Continuous
 62
     7
100
AcDbLine
 10
343.934685354
 20
334.7598888378
 30
0.0
 11
317.1346754412
 21
334.7598888378
 31
0.0
  0
ARC
  5
9C
330
8B
100
AcDbEntity
  8
$DDT_AUDIT_GENERATED_(60)
  6
Continuous
 62
     7
100
AcDbCircle
 10
343.9568677153
 20
334.2480940367
 30
0.0
 40
0.5122754676485425
100
AcDbArc
 50
1.4427877401
 51
92.4822285617
  0
ARC
  5
9D
330
8B
100
AcDbEntity
  8
$DDT_AUDIT_GENERATED_(60)
  6
Continuous
 62
     7
100
AcDbCircle
 10
317.1346754412
 20
334.559888835
 30
0.0
 40
0.1999999999990585
100
AcDbArc
 50
91.1898730504
 51
180.0001082948
  0
ARC
  5
9E
330
8B
100
AcDbEntity
  8
$DDT_AUDIT_GENERATED_(60)
  6
Continuous
 62
     7
100
AcDbCircle
 10
317.1346754415
 20
282.9598896875
 30
0.0
 40
0.1999999930203001
100
AcDbArc
 50
179.9995130956
 51
271.1915830658
  0
LINE
  5
9F
330
8B
100
AcDbEntity
  8
$DDT_AUDIT_GENERATED_(64)
  6
Continuous
 62
     7
100
AcDbLine
 10
337.7646754412
 20
233.2321137626
 30
0.0
 11
340.939680613
 21
233.2321137626
 31
0.0
  0
LINE
  5
A0
330
8B
100
AcDbEntity
  8
$DDT_AUDIT_GENERATED_(64)
  6
Continuous
 62
     7
100
AcDbLine
 10
341.66134339
 20
224.194275039
 30
0.0
 11
337.7646781682
 21
224.194275039
 31
0.0
  0
LINE
  5
A1
330
8B
100
AcDbEntity
  8
$DDT_AUDIT_GENERATED_(64)
  6
Continuous
 62
     7
100
AcDbLine
 10
337.7646781682
 20
224.194275039
 30
0.0
 11
333.8680620315
 21
224.194275039
 31
0.0
  0
LINE
  5
A2
330
8B
100
AcDbEntity
  8
$DDT_AUDIT_GENERATED_(64)
  6
Continuous
 62
     7
100
AcDbLine
 10
337.7646754412
 20
233.2321137626
 30
0.0
 11
334.5896702694
 21
233.2321137626
 31
0.0
  0
LINE
  5
A3
330
8B
100
AcDbEntity
  8
$DDT_AUDIT_GENERATED_(64)
  6
Continuous
 62
     7
100
AcDbLine
 10
341.4612994002
 20
214.7598888902
 30
0.0
 11
334.0681048873
 21
214.7598888902
 31
0.0
  0
SPLINE
  5
A4
330
8B
100
AcDbEntity
  8
$DDT_AUDIT_GENERATED_(64)
  6
Continuous
 62
     7
100
AcDbSpline
210
0.0
220
0.0
230
1.0
 70
    12
 71
     3
 72
     8
 73
     4
 74
     0
 42
0.0000000287730384
 43
0.0000000001
 40
0.0
 40
0.0
 40
0.0
 40
0.0
 40
1.0
 40
1.0
 40
1.0
 40
1.0
 10
341.6612994001636
 20
214.9598894095162
 30
0.0
 41
1.0
 10
341.661299686947
 20
214.8494322567616
 30
0.0
 41
1.0
 10
341.5717565529167
 20
214.759888890247
 30
0.0
 41
1.0
 10
341.4612994001641
 20
214.759888890247
 30
0.0
 41
1.0
  0
SPLINE
  5
A5
330
8B
100
AcDbEntity
  8
$DDT_AUDIT_GENERATED_(64)
  6
Continuous
 62
     7
100
AcDbSpline
210
0.0
220
0.0
230
1.0
 70
    12
 71
     3
 72
     8
 73
     4
 74
     0
 42
0.0000000287731525
 43
0.0000000001
 40
0.0
 40
0.0
 40
0.0
 40
0.0
 40
1.0
 40
1.0
 40
1.0
 40
1.0
 10
333.8681048873042
 20
214.9598883709831
 30
0.0
 41
1.0
 10
333.8681051740867
 20
214.8494316238009
 30
0.0
 41
1.0
 10
333.9576481401235
 20
214.7598888902469
 30
0.0
 41
1.0
 10
334.0681048873037
 20
214.7598888902469
 30
0.0
 41
1.0
  0
SPLINE
  5
A6
330
8B
100
AcDbEntity
  8
$DDT_AUDIT_GENERATED_(64)
  6
Continuous
 62
     7
100
AcDbSpline
210
0.0
220
0.0
230
1.0
 70
     8
 71
     3
 72
    13
 73
     9
 74
     0
 42
0.0000000011014176
 43
0.0000000001
 40
0.0
 40
0.0
 40
0.0
 40
0.0
 40
0.1572193858600676
 40
0.3376488218399769
 40
0.5236321899498577
 40
0.7013720331318578
 40
0.861502826877797
 40
1.0
 40
1.0
 40
1.0
 40
1.0
 10
341.6613433903184
 20
224.1942750390302
 30
0.0
 10
341.659137205715
 20
224.7174355718645
 30
0.0
 10
341.6518696252645
 20
225.6664380974243
 30
0.0
 10
341.5216390147423
 20
227.2787652700068
 30
0.0
 10
341.3059983117984
 20
228.9040924336218
 30
0.0
 10
341.0864227721426
 20
230.4664622589292
 30
0.0
 10
340.9487130526152
 20
231.9315933214798
 30
0.0
 10
340.9420607116898
 20
232.7712546082323
 30
0.0
 10
340.9397561306869
 20
233.2321137626347
 30
0.0
  0
SPLINE
  5
A7
330
8B
100
AcDbEntity
  8
$DDT_AUDIT_GENERATED_(64)
  6
Continuous
 62
     7
100
AcDbSpline
210
0.0
220
0.0
230
1.0
 70
     8
 71
     3
 72
    13
 73
     9
 74
     0
 42
0.0000000011014176
 43
0.0000000001
 40
0.0
 40
0.0
 40
0.0
 40
0.0
 40
0.1384971731221463
 40
0.2986279668680124
 40
0.4763678100499225
 40
0.662351178159733
 40
0.8427806141395974
 40
1.0
 40
1.0
 40
1.0
 40
1.0
 10
334.5896492908748
 20
233.2321137626346
 30
0.0
 10
334.587344709872
 20
232.7712546082324
 30
0.0
 10
334.5806923689465
 20
231.9315933214804
 30
0.0
 10
334.4429826494193
 20
230.4664622589305
 30
0.0
 10
334.2234071097639
 20
228.9040924336236
 30
0.0
 10
334.0077664068198
 20
227.2787652700094
 30
0.0
 10
333.8775357962974
 20
225.666438097426
 30
0.0
 10
333.8702682158469
 20
224.7174355718656
 30
0.0
 10
333.8680620312434
 20
224.1942750390302
 30
0.0
  0
LINE
  5
A8
330
8B
100
AcDbEntity
  8
$DDT_AUDIT_GENERATED_(64)
  6
Continuous
 62
     7
100
AcDbLine
 10
333.8680809052
 20
224.1968032439
 30
0.0
 11
333.8681049217
 21
214.94663646
 31
0.0
  0
LINE
  5
A9
330
8B
100
AcDbEntity
  8
$DDT_AUDIT_GENERATED_(64)
  6
Continuous
 62
     7
100
AcDbLine
 10
341.6612994346
 20
214.94663646
 30
0.0
 11
341.6612754181
 21
224.1968032439
 31
0.0
  0
LINE
  5
AA
330
8B
100
AcDbEntity
  8
$DDT_AUDIT_GENERATED_(64)
  6
Continuous
 62
     7
100
AcDbLine
 10
334.5896702693
 20
282.7663564558
 30
0.0
 11
334.5896702693
 21
233.2296137626
 31
0.0
  0
LINE
  5
AB
330
8B
100
AcDbEntity
  8
$DDT_AUDIT_GENERATED_(64)
  6
Continuous
 62
     7
100
AcDbLine
 10
340.9396806131
 20
233.2296137626
 30
0.0
 11
340.9396806131
 21
282.7662361124
 31
0.0
  0
LINE
  5
AC
330
8B
100
AcDbEntity
  8
$DDT_AUDIT_GENERATED_(74)
  6
Continuous
 62
     7
100
AcDbLine
 10
323.9730074221
 20
282.4759909772
 30
0.0
 11
331.6473301112
 21
282.6769501892
 31
0.0
  0
LINE
  5
AD
330
8B
100
AcDbEntity
  8
$DDT_AUDIT_GENERATED_(74)
  6
Continuous
 62
     7
100
AcDbLine
 10
324.1023871311
 20
282.7598888378
 30
0.0
 11
323.9730074221
 21
282.4759909772
 31
0.0
  0
LINE
  5
AE
330
8B
100
AcDbEntity
  8
$DDT_AUDIT_GENERATED_(74)
  6
Continuous
 62
     7
100
AcDbLine
 10
331.6473301112
 20
282.6769501892
 30
0.0
 11
331.6851274309
 21
282.7598888378
 31
0.0
  0
LINE
  5
AF
330
8B
100
AcDbEntity
  8
$DDT_AUDIT_GENERATED_(7C)
  6
Continuous
 62
     7
100
AcDbLine
 10
289.0036345863
 20
240.2435680749
 30
0.0
 11
289.0036345863
 21
403.0435680749
 31
0.0
  0
LINE
  5
B0
330
8B
100
AcDbEntity
  8
$DDT_AUDIT_GENERATED_(7C)
  6
Continuous
 62
     7
100
AcDbLine
 10
281.4971881583
 20
240.2435680749
 30
0.0
 11
281.4971881583
 21
403.0435680749
 31
0.0
  0
LINE
  5
B1
330
8B
100
AcDbEntity
  8
$DDT_AUDIT_GENERATED_(7C)
  6
Continuous
 62
     7
100
AcDbLine
 10
283.9657690414
 20
240.2435680771
 30
0.0
 11
283.965457523
 21
241.0247161907
 31
0.0
  0
ARC
  5
B2
330
8B
100
AcDbEntity
  8
$DDT_AUDIT_GENERATED_(7C)
  6
Continuous
 62
     7
100
AcDbCircle
 10
285.2471881583
 20
236.8379665216
 30
0.0
 40
4.378550697806673
100
AcDbArc
 50
72.9785663208
 51
107.0214336792
  0
LINE
  5
B3
330
8B
100
AcDbEntity
  8
$DDT_AUDIT_GENERATED_(7C)
  6
Continuous
 62
     7
100
AcDbLine
 10
286.5289187936
 20
241.0247161907
 30
0.0
 11
286.5286072752
 21
240.2435680771
 31
0.0
  0
LINE
  5
B4
330
8B
100
AcDbEntity
  8
$DDT_AUDIT_GENERATED_(7C)
  6
Continuous
 62
     7
100
AcDbLine
 10
293.1466731885
 20
335.4963372929
 30
0.0
 11
292.4562878457
 21
281.9856403063
 31
0.0
  0
ARC
  5
B5
330
8B
100
AcDbEntity
  8
$DDT_AUDIT_GENERATED_(7C)
  6
Continuous
 62
     7
100
AcDbCircle
 10
-707.2574205594
 20
321.6435680749
 30
0.0
 40
1000.5
100
AcDbArc
 50
0.7930061576
 51
4.6138700417
  0
ARC
  5
B6
330
8B
100
AcDbEntity
  8
$DDT_AUDIT_GENERATED_(7C)
  6
Continuous
 62
     7
100
AcDbCircle
 10
-707.2574205594
 20
321.6435680749
 30
0.0
 40
1000.5
100
AcDbArc
 50
355.3861299583
 51
357.7291783157
  0
LINE
  5
B7
330
8B
100
AcDbEntity
  8
$DDT_AUDIT_GENERATED_(7C)
  6
Continuous
 62
     7
100
AcDbLine
 10
289.0036345863
 20
403.0435680749
 30
0.0
 11
281.4971881583
 21
403.0435680749
 31
0.0
  0
LINE
  5
B8
330
8B
100
AcDbEntity
  8
$DDT_AUDIT_GENERATED_(7C)
  6
Continuous
 62
     7
100
AcDbLine
 10
286.5286109592
 20
240.2435680749
 30
0.0
 11
289.0036345863
 21
240.2435680749
 31
0.0
  0
LINE
  5
B9
330
8B
100
AcDbEntity
  8
$DDT_AUDIT_GENERATED_(7C)
  6
Continuous
 62
     7
100
AcDbLine
 10
281.4971881583
 20
240.2435680749
 30
0.0
 11
283.9657653575
 21
240.2435680749
 31
0.0
  0
ARC
  5
BA
330
8B
100
AcDbEntity
  8
$DDT_AUDIT_GENERATED_(7C)
  6
Continuous
 62
     7
100
AcDbCircle
 10
289.0036345863
 20
241.2435680749
 30
0.0
 40
0.999999999999987
100
AcDbArc
 50
270.0
 51
355.3861299582
  0
ARC
  5
BB
330
8B
100
AcDbEntity
  8
$DDT_AUDIT_GENERATED_(7C)
  6
Continuous
 62
     7
100
AcDbCircle
 10
289.0036345863
 20
402.0435680749
 30
0.0
 40
0.9999999999999358
100
AcDbArc
 50
4.6138700418
 51
90.0
  0
LINE
  5
BC
330
8B
100
AcDbEntity
  8
$DDT_AUDIT_GENERATED_(7C)
  6
Continuous
 62
     7
100
AcDbLine
 10
286.5142651455
 20
241.065228132
 30
0.0
 11
286.5291092766
 21
240.2148084347
 31
0.0
  0
LINE
  5
BD
330
8B
100
AcDbEntity
  8
$DDT_AUDIT_GENERATED_(7C)
  6
Continuous
 62
     7
100
AcDbLine
 10
283.9652670401
 20
240.2148084347
 30
0.0
 11
283.9801139905
 21
241.0653896534
 31
0.0
  0
LINE
  5
BF
330
8B
100
AcDbEntity
  8
DV2_Default
  6
CENTER2
 62
     7
100
AcDbLine
 10
301.4971877113
 20
321.6435680749
 30
0.0
 11
261.4971886054
 21
321.6435680749
 31
0.0
  0
LINE
  5
C0
330
8B
100
AcDbEntity
  8
DV2_Default
  6
CENTER2
 62
     7
100
AcDbLine
 10
281.4971881583
 20
341.6435676278
 30
0.0
 11
281.4971881583
 21
301.6435685219
 31
0.0
  0
ENDBLK
  5
C2
330
8B
100
AcDbEntity
  8
0
100
AcDbBlockEnd
  0
BLOCK
  5
E1
330
C3
100
AcDbEntity
  8
0
100
AcDbBlockBegin
  2
SE2
 70
     0
 10
0.0
 20
0.0
 30
0.0
  3
SE2
  1

  0
LINE
  5
C5
330
C3
100
AcDbEntity
  8
$DDT_AUDIT_GENERATED_(8D)
  6
Continuous
 62
     7
100
AcDbLine
 10
107.3937156698
 20
147.0422685745
 30
0.0
 11
81.5197009105
 21
147.0422685745
 31
0.0
  0
LINE
  5
C6
330
C3
100
AcDbEntity
  8
$DDT_AUDIT_GENERATED_(8D)
  6
Continuous
 62
     7
100
AcDbLine
 10
107.3937156698
 20
147.0422685745
 30
0.0
 11
133.2677304291
 21
147.0422685745
 31
0.0
  0
ARC
  5
C7
330
C3
100
AcDbEntity
  8
$DDT_AUDIT_GENERATED_(8D)
  6
Continuous
 62
     7
100
AcDbCircle
 10
107.3937156698
 20
147.2680676805
 30
0.0
 40
25.87500000000016
100
AcDbArc
 50
180.5
 51
209.0536634176
  0
LINE
  5
C8
330
C3
100
AcDbEntity
  8
$DDT_AUDIT_GENERATED_(8D)
  6
Continuous
 62
     7
100
AcDbLine
 10
133.2677304291
 20
147.0422685745
 30
0.0
 11
133.3700131538
 21
158.7627079293
 31
0.0
  0
LINE
  5
C9
330
C3
100
AcDbEntity
  8
$DDT_AUDIT_GENERATED_(8D)
  6
Continuous
 62
     7
100
AcDbLine
 10
81.4174181858
 20
158.7627079293
 30
0.0
 11
81.5197009105
 21
147.0422685745
 31
0.0
  0
ARC
  5
CA
330
C3
100
AcDbEntity
  8
$DDT_AUDIT_GENERATED_(8D)
  6
Continuous
 62
     7
100
AcDbCircle
 10
107.3937156698
 20
147.2680676805
 30
0.0
 40
25.87500000000014
100
AcDbArc
 50
330.9439524944
 51
359.5
  0
ARC
  5
CB
330
C3
100
AcDbEntity
  8
$DDT_AUDIT_GENERATED_(60)
  6
Continuous
 62
     7
100
AcDbCircle
 10
132.8586574846
 20
107.7131295597
 30
0.0
 40
0.5371749432275483
100
AcDbArc
 50
273.8541577266
 51
2.1537946778
  0
ARC
  5
CC
330
C3
100
AcDbEntity
  8
$DDT_AUDIT_GENERATED_(60)
  6
Continuous
 62
     7
100
AcDbCircle
 10
81.9309364932
 20
107.7120346031
 30
0.0
 40
0.5359063385139359
100
AcDbArc
 50
177.7239506979
 51
266.0169848035
  0
LINE
  5
CD
330
C3
100
AcDbEntity
  8
$DDT_AUDIT_GENERATED_(60)
  6
Continuous
 62
     7
100
AcDbLine
 10
81.3954529399
 20
107.7333176449
 30
0.0
 11
81.3954529399
 21
134.533339673
 31
0.0
  0
LINE
  5
CE
330
C3
100
AcDbEntity
  8
$DDT_AUDIT_GENERATED_(60)
  6
Continuous
 62
     7
100
AcDbLine
 10
133.3954529399
 20
134.533339673
 30
0.0
 11
133.3954529399
 21
107.7333176449
 31
0.0
  0
LINE
  5
CF
330
C3
100
AcDbEntity
  8
$DDT_AUDIT_GENERATED_(60)
  6
Continuous
 62
     7
100
AcDbLine
 10
81.5954529399
 20
134.733339673
 30
0.0
 11
133.1954529399
 21
134.733339673
 31
0.0
  0
ARC
  5
D0
330
C3
100
AcDbEntity
  8
$DDT_AUDIT_GENERATED_(60)
  6
Continuous
 62
     7
100
AcDbCircle
 10
81.5954529399
 20
134.533339673
 30
0.0
 40
0.2000000000000023
100
AcDbArc
 50
90.0
 51
180.0
  0
ARC
  5
D1
330
C3
100
AcDbEntity
  8
$DDT_AUDIT_GENERATED_(60)
  6
Continuous
 62
     7
100
AcDbCircle
 10
133.1954529399
 20
134.533339673
 30
0.0
 40
0.2000000000000057
100
AcDbArc
 50
0.0
 51
90.0
  0
ARC
  5
D2
330
C3
100
AcDbEntity
  8
$DDT_AUDIT_GENERATED_(60)
  6
Continuous
 62
     7
100
AcDbCircle
 10
132.7945570681
 20
108.6230976012
 30
0.0
 40
1.444853191584421
100
AcDbArc
 50
269.1293722349
 51
277.5258809945
  0
ARC
  5
D3
330
C3
100
AcDbEntity
  8
$DDT_AUDIT_GENERATED_(60)
  6
Continuous
 62
     7
100
AcDbCircle
 10
81.9934092877
 20
107.7889021189
 30
0.0
 40
0.611112992992733
100
AcDbArc
 50
193.5915694159
 51
272.543442884
  0
ARC
  5
D4
330
C3
100
AcDbEntity
  8
$DDT_AUDIT_GENERATED_(60)
  6
Continuous
 62
     7
100
AcDbCircle
 10
107.3922460713
 20
495.2117525244
 30
0.0
 40
388.8617525244421
100
AcDbArc
 50
266.2404002539
 51
273.7441205593
  0
LINE
  5
D5
330
C3
100
AcDbEntity
  8
$DDT_AUDIT_GENERATED_(7C)
  6
Continuous
 62
     7
100
AcDbLine
 10
25.9937156698
 20
162.6643805279
 30
0.0
 11
188.7937156698
 21
162.6643805279
 31
0.0
  0
LINE
  5
D6
330
C3
100
AcDbEntity
  8
$DDT_AUDIT_GENERATED_(7C)
  6
Continuous
 62
     7
100
AcDbLine
 10
25.9937156698
 20
170.1708269559
 30
0.0
 11
188.7937156698
 21
170.1708269559
 31
0.0
  0
SPLINE
  5
D7
330
C3
100
AcDbEntity
  8
$DDT_AUDIT_GENERATED_(7C)
  6
Continuous
 62
     7
100
AcDbSpline
210
0.0
220
0.0
230
1.0
 70
     8
 71
     3
 72
    30
 73
    26
 74
     0
 42
0.0000000000724823
 43
0.0000000001
 40
0.2052639984130455
 40
0.2052639984130455
 40
0.2052639984130455
 40
0.2052639984130455
 40
0.2187499999999999
 40
0.2187499999999999
 40
0.2499999999999999
 40
0.2499999999999999
 40
0.2812499999999999
 40
0.2812499999999999
 40
0.3124999999999999
 40
0.3124999999999999
 40
0.34375
 40
0.34375
 40
0.375
 40
0.375
 40
0.4062500000000001
 40
0.4062500000000001
 40
0.4375000000000001
 40
0.4375000000000001
 40
0.4687500000000001
 40
0.4687500000000001
 40
0.5000000000000001
 40
0.5000000000000001
 40
0.5312500000000001
 40
0.5312500000000001
 40
0.5449722567258405
 40
0.5449722567258405
 40
0.5449722567258405
 40
0.5449722567258405
 10
83.96060484861238
 20
158.699895504095
 30
0.0
 10
84.32586250929488
 20
158.6913441581697
 30
0.0
 10
84.71997047850817
 20
158.6829740433798
 30
0.0
 10
86.11949399295439
 20
158.6559339003093
 30
0.0
 10
87.22642309577601
 20
158.6385459656105
 30
0.0
 10
89.69197718999447
 20
158.6066909853388
 30
0.0
 10
91.06756928594119
 20
158.5921051373846
 30
0.0
 10
93.97603835493364
 20
158.5670210871338
 30
0.0
 10
95.51219570538979
 20
158.5564094516791
 30
0.0
 10
98.74926061814423
 20
158.5390679029072
 30
0.0
 10
100.4496643692744
 20
158.532408888219
 30
0.0
 10
103.869371338034
 20
158.5236104373895
 30
0.0
 10
105.6067037690154
 20
158.5213600211977
 30
0.0
 10
109.1384663297572
 20
158.5213240467325
 30
0.0
 10
110.8809061161103
 20
158.5235477201821
 30
0.0
 10
114.3004625007068
 20
158.5322807422041
 30
0.0
 10
115.9981270503409
 20
158.5388903301578
 30
0.0
 10
119.2416011888279
 20
158.5561931474264
 30
0.0
 10
120.7790540924781
 20
158.5667820513368
 30
0.0
 10
123.6874908805329
 20
158.5917869598846
 30
0.0
 10
125.0657239306585
 20
158.6063530601246
 30
0.0
 10
127.5365199123341
 20
158.6381843899637
 30
0.0
 10
128.6446296545535
 20
158.6555466057489
 30
0.0
 10
130.0524312285602
 20
158.6826570192221
 30
0.0
 10
130.4541234937715
 20
158.6911747301467
 30
0.0
 10
130.8261790979047
 20
158.699885039192
 30
0.0
  0
ARC
  5
D8
330
C3
100
AcDbEntity
  8
$DDT_AUDIT_GENERATED_(7C)
  6
Continuous
 62
     7
100
AcDbCircle
 10
107.3937156698
 20
1158.9254356736
 30
0.0
 40
1000.5
100
AcDbArc
 50
265.3861299583
 51
268.6589509275
  0
ARC
  5
D9
330
C3
100
AcDbEntity
  8
$DDT_AUDIT_GENERATED_(7C)
  6
Continuous
 62
     7
100
AcDbCircle
 10
107.3937156698
 20
1158.9254356736
 30
0.0
 40
1000.5
100
AcDbArc
 50
271.3409311264
 51
274.6138700417
  0
LINE
  5
DA
330
C3
100
AcDbEntity
  8
$DDT_AUDIT_GENERATED_(7C)
  6
Continuous
 62
     7
100
AcDbLine
 10
188.7937156698
 20
162.6643805279
 30
0.0
 11
188.7937156698
 21
170.1708269559
 31
0.0
  0
LINE
  5
DB
330
C3
100
AcDbEntity
  8
$DDT_AUDIT_GENERATED_(7C)
  6
Continuous
 62
     7
100
AcDbLine
 10
25.9937156698
 20
170.1708269559
 30
0.0
 11
25.9937156698
 21
162.6643805279
 31
0.0
  0
ARC
  5
DC
330
C3
100
AcDbEntity
  8
$DDT_AUDIT_GENERATED_(7C)
  6
Continuous
 62
     7
100
AcDbCircle
 10
26.9937156698
 20
162.6643805279
 30
0.0
 40
1.000000000000001
100
AcDbArc
 50
180.0
 51
265.3861299582
  0
ARC
  5
DD
330
C3
100
AcDbEntity
  8
$DDT_AUDIT_GENERATED_(7C)
  6
Continuous
 62
     7
100
AcDbCircle
 10
187.7937156698
 20
162.6643805279
 30
0.0
 40
0.9999999999999358
100
AcDbArc
 50
274.6138700418
 51
0.0
  0
LINE
  5
DF
330
C3
100
AcDbEntity
  8
DV3_Default
  6
CENTER2
 62
     7
100
AcDbLine
 10
127.3937152228
 20
170.1708269559
 30
0.0
 11
87.3937161168
 21
170.1708269559
 31
0.0
  0
LINE
  5
E0
330
C3
100
AcDbEntity
  8
DV3_Default
  6
CENTER2
 62
     7
100
AcDbLine
 10
107.3937156698
 20
190.1708265089
 30
0.0
 11
107.3937156698
 21
150.170827403
 31
0.0
  0
ENDBLK
  5
E2
330
C3
100
AcDbEntity
  8
0
100
AcDbBlockEnd
  0
ENDSEC
  0
SECTION
  2
ENTITIES
  0
INSERT
  5
5F
330
1F
100
AcDbEntity
  8
Default
100
AcDbBlockReference
  2
SE
 10
0.0
 20
0.0
 30
0.0
  0
INSERT
  5
8C
330
1F
100
AcDbEntity
  8
Default
100
AcDbBlockReference
  2
SE1
 10
0.0
 20
0.0
 30
0.0
  0
INSERT
  5
C4
330
1F
100
AcDbEntity
  8
Default
100
AcDbBlockReference
  2
SE2
 10
0.0
 20
0.0
 30
0.0
  0
TEXT
  5
E4
330
1F
100
AcDbEntity
  8
Default
  6
Continuous
 62
     7
100
AcDbText
 10
5.9362635081
 20
53.4225120485
 30
0.0
 40
10.0
  1
Grohe AG^J
  7
SEACAD_seiso_ttf
 11
5.9362635081
 21
63.4225120485
 31
0.0
100
AcDbText
 73
     3
  0
TEXT
  5
E5
330
1F
100
AcDbEntity
  8
Default
  6
Continuous
 62
     7
100
AcDbText
 10
5.9362635081
 20
37.0588756849
 30
0.0
 40
10.0
  1
 
  7
SEACAD_seiso_ttf
 11
5.9362635081
 21
47.0588756849
 31
0.0
100
AcDbText
 73
     3
  0
TEXT
  5
E6
330
1F
100
AcDbEntity
  8
Default
  6
Continuous
 62
     7
100
AcDbText
 10
5.9362635081
 20
20.6952393213
 30
0.0
 40
10.0
  1
ecn:
  7
SEACAD_seiso_ttf
 11
5.9362635081
 21
30.6952393213
 31
0.0
100
AcDbText
 73
     3
  0
TEXT
  5
E7
330
1F
100
AcDbEntity
  8
Default
  6
Continuous
 62
     7
100
AcDbText
 10
5.9362635081
 20
4.3316029576
 30
0.0
 40
10.0
  1
unit: mm
  7
SEACAD_seiso_ttf
 11
5.9362635081
 21
14.3316029576
 31
0.0
100
AcDbText
 73
     3
  0
LINE
  5
E8
330
1F
100
AcDbEntity
  8
Default
  6
Continuous
 62
     7
100
AcDbLine
 10
0.0
 20
0.0
 30
0.0
 11
100.0
 21
0.0
 31
0.0
  0
LINE
  5
E9
330
1F
100
AcDbEntity
  8
Default
  6
Continuous
 62
     7
100
AcDbLine
 10
0.0
 20
0.0
 30
0.0
 11
0.0
 21
100.0
 31
0.0
  0
TEXT
  5
EA
330
1F
100
AcDbEntity
  8
Default
  6
Continuous
 62
     7
100
AcDbText
 10
24.3923665681
 20
-18.2375342018
 30
0.0
 40
10.0
  1
100 mm
  7
SEACAD_seiso_ttf
 11
24.3923665681
 21
-8.2375342018
 31
0.0
100
AcDbText
 73
     3
  0
TEXT
  5
EB
330
1F
100
AcDbEntity
  8
Default
  6
Continuous
 62
     7
100
AcDbText
 10
-7.6150308803
 20
24.6231930421
 30
0.0
 40
10.0
  1
100 mm
 50
90.0
  7
SEACAD_seiso_ttf
 11
-17.6150308803
 21
24.6231930421
 31
0.0
100
AcDbText
 73
     3
  0
TEXT
  5
EC
330
1F
100
AcDbEntity
  8
Default
  6
Continuous
 62
     7
100
AcDbText
 10
28.4878128572
 20
20.0907663715
 30
0.0
 40
10.0
  1
231553
  7
SEACAD_seiso_ttf
 11
28.4878128572
 21
30.0907663715
 31
0.0
100
AcDbText
 73
     3
  0
TEXT
  5
ED
330
1F
100
AcDbEntity
  8
Default
  6
Continuous
 62
     7
100
AcDbText
 10
5.9012241913
 20
36.7242780188
 30
0.0
 40
10.0
  1
19286001
  7
SEACAD_seiso_ttf
 11
5.9012241913
 21
46.7242780188
 31
0.0
100
AcDbText
 73
     3
  0
ENDSEC
  0
SECTION
  2
OBJECTS
  0
DICTIONARY
  5
C
330
0
100
AcDbDictionary
281
     1
  3
ACAD_GROUP
350
D
  3
ACAD_LAYOUT
350
1A
  3
ACAD_MLEADERSTYLE
350
F1
  3
ACAD_MLINESTYLE
350
17
  3
ACAD_PLOTSETTINGS
350
19
  3
ACAD_PLOTSTYLENAME
350
E
  3
ACAD_SCALELIST
350
3B
  3
ACAD_TABLESTYLE
350
F0
  3
ACAD_VISUALSTYLE
350
2A
  3
AcDbVariableDictionary
350
EE
  0
DICTIONARY
  5
D
102
{ACAD_REACTORS
330
C
102
}
330
C
100
AcDbDictionary
281
     1
  0
DICTIONARY
  5
1A
102
{ACAD_REACTORS
330
C
102
}
330
C
100
AcDbDictionary
281
     1
  3
Layout1
350
1E
  3
Model
350
22
  0
DICTIONARY
  5
F1
102
{ACAD_REACTORS
330
C
102
}
330
C
100
AcDbDictionary
281
     1
  0
DICTIONARY
  5
17
102
{ACAD_REACTORS
330
C
102
}
330
C
100
AcDbDictionary
281
     1
  3
Standard
350
18
  0
DICTIONARY
  5
19
102
{ACAD_REACTORS
330
C
102
}
330
C
100
AcDbDictionary
281
     1
  0
ACDBDICTIONARYWDFLT
  5
E
102
{ACAD_REACTORS
330
C
102
}
330
C
100
AcDbDictionary
281
     1
  3
Normal
350
F
100
AcDbDictionaryWithDefault
340
F
  0
DICTIONARY
  5
3B
102
{ACAD_REACTORS
330
C
102
}
330
C
100
AcDbDictionary
281
     1
  3
A0
350
3C
  3
A1
350
3D
  3
A2
350
3E
  3
A3
350
3F
  3
A4
350
40
  3
A5
350
41
  3
A6
350
42
  3
A7
350
43
  3
A8
350
44
  3
A9
350
45
  3
B0
350
46
  3
B1
350
47
  3
B2
350
48
  3
B3
350
49
  3
B4
350
4A
  3
B5
350
4B
  3
B6
350
4C
  3
B7
350
4D
  3
B8
350
4E
  3
B9
350
4F
  3
C0
350
50
  3
C1
350
51
  3
C2
350
52
  3
C3
350
53
  3
C4
350
54
  3
C5
350
55
  3
C6
350
56
  3
C7
350
57
  3
C8
350
58
  3
C9
350
59
  3
D0
350
5A
  3
D1
350
5B
  3
D2
350
5C
  0
DICTIONARY
  5
F0
102
{ACAD_REACTORS
330
C
102
}
330
C
100
AcDbDictionary
281
     1
  0
DICTIONARY
  5
2A
102
{ACAD_REACTORS
330
C
102
}
330
C
100
AcDbDictionary
281
     1
  3
2dWireframe
350
2F
  3
3D Hidden
350
31
  3
3dWireframe
350
30
  3
Basic
350
32
  3
Brighten
350
36
  3
ColorChange
350
3A
  3
Conceptual
350
34
  3
Dim
350
35
  3
Facepattern
350
39
  3
Flat
350
2B
  3
FlatWithEdges
350
2C
  3
Gouraud
350
2D
  3
GouraudWithEdges
350
2E
  3
Linepattern
350
38
  3
Realistic
350
33
  3
Thicken
350
37
  0
DICTIONARY
  5
EE
102
{ACAD_REACTORS
330
C
102
}
330
C
100
AcDbDictionary
281
     1
  3
CANNOSCALE
350
EF
  3
PSOLHEIGHT
350
F3
  3
PSOLWIDTH
350
F2
  0
LAYOUT
  5
1E
102
{ACAD_REACTORS
330
1A
102
}
330
1A
100
AcDbPlotSettings
  1

  2
none_device
  4

  6

 40
0.0
 41
0.0
 42
0.0
 43
0.0
 44
0.0
 45
0.0
 46
0.0
 47
0.0
 48
0.0
 49
0.0
140
0.0
141
0.0
142
1.0
143
1.0
 70
   688
 72
     0
 73
     0
 74
     5
  7

 75
    16
147
1.0
148
0.0
149
0.0
100
AcDbLayout
  1
Layout1
 70
     1
 71
     1
 10
0.0
 20
0.0
 11
3000.0
 21
4500.0
 12
0.0
 22
0.0
 32
0.0
 14
0.0
 24
0.0
 34
0.0
 15
3000.0
 25
4500.0
 35
0.0
146
0.0
 13
0.0
 23
0.0
 33
0.0
 16
1.0
 26
0.0
 36
0.0
 17
0.0
 27
1.0
 37
0.0
 76
     0
330
1B
  0
LAYOUT
  5
22
102
{ACAD_REACTORS
330
1A
102
}
330
1A
100
AcDbPlotSettings
  1

  2
none_device
  4

  6

 40
0.0
 41
0.0
 42
0.0
 43
0.0
 44
0.0
 45
0.0
 46
0.0
 47
0.0
 48
0.0
 49
0.0
140
0.0
141
0.0
142
1.0
143
1.0
 70
  1712
 72
     0
 73
     0
 74
     0
  7

 75
     0
147
1.0
148
0.0
149
0.0
100
AcDbLayout
  1
Model
 70
     1
 71
     0
 10
0.0
 20
0.0
 11
3000.0
 21
4500.0
 12
0.0
 22
0.0
 32
0.0
 14
0.0
 24
0.0
 34
0.0
 15
3000.0
 25
4500.0
 35
0.0
146
0.0
 13
0.0
 23
0.0
 33
0.0
 16
1.0
 26
0.0
 36
0.0
 17
0.0
 27
1.0
 37
0.0
 76
     0
330
1F
331
29
  0
MLINESTYLE
  5
18
102
{ACAD_REACTORS
330
17
102
}
330
17
100
AcDbMlineStyle
  2
Standard
 70
     0
  3

 62
   256
 51
90.0
 52
90.0
 71
     2
 49
0.5
 62
   256
  6
BYLAYER
 49
-0.5
 62
   256
  6
BYLAYER
  0
ACDBPLACEHOLDER
  5
F
102
{ACAD_REACTORS
330
E
102
}
330
E
  0
SCALE
  5
3C
102
{ACAD_REACTORS
330
3B
102
}
330
3B
100
AcDbScale
 70
     0
300
1:1
140
1.0
141
1.0
290
     1
  0
SCALE
  5
3D
102
{ACAD_REACTORS
330
3B
102
}
330
3B
100
AcDbScale
 70
     0
300
1:2
140
1.0
141
2.0
290
     0
  0
SCALE
  5
3E
102
{ACAD_REACTORS
330
3B
102
}
330
3B
100
AcDbScale
 70
     0
300
1:4
140
1.0
141
4.0
290
     0
  0
SCALE
  5
3F
102
{ACAD_REACTORS
330
3B
102
}
330
3B
100
AcDbScale
 70
     0
300
1:5
140
1.0
141
5.0
290
     0
  0
SCALE
  5
40
102
{ACAD_REACTORS
330
3B
102
}
330
3B
100
AcDbScale
 70
     0
300
1:8
140
1.0
141
8.0
290
     0
  0
SCALE
  5
41
102
{ACAD_REACTORS
330
3B
102
}
330
3B
100
AcDbScale
 70
     0
300
1:10
140
1.0
141
10.0
290
     0
  0
SCALE
  5
42
102
{ACAD_REACTORS
330
3B
102
}
330
3B
100
AcDbScale
 70
     0
300
1:16
140
1.0
141
16.0
290
     0
  0
SCALE
  5
43
102
{ACAD_REACTORS
330
3B
102
}
330
3B
100
AcDbScale
 70
     0
300
1:20
140
1.0
141
20.0
290
     0
  0
SCALE
  5
44
102
{ACAD_REACTORS
330
3B
102
}
330
3B
100
AcDbScale
 70
     0
300
1:30
140
1.0
141
30.0
290
     0
  0
SCALE
  5
45
102
{ACAD_REACTORS
330
3B
102
}
330
3B
100
AcDbScale
 70
     0
300
1:40
140
1.0
141
40.0
290
     0
  0
SCALE
  5
46
102
{ACAD_REACTORS
330
3B
102
}
330
3B
100
AcDbScale
 70
     0
300
1:50
140
1.0
141
50.0
290
     0
  0
SCALE
  5
47
102
{ACAD_REACTORS
330
3B
102
}
330
3B
100
AcDbScale
 70
     0
300
1:100
140
1.0
141
100.0
290
     0
  0
SCALE
  5
48
102
{ACAD_REACTORS
330
3B
102
}
330
3B
100
AcDbScale
 70
     0
300
2:1
140
2.0
141
1.0
290
     0
  0
SCALE
  5
49
102
{ACAD_REACTORS
330
3B
102
}
330
3B
100
AcDbScale
 70
     0
300
4:1
140
4.0
141
1.0
290
     0
  0
SCALE
  5
4A
102
{ACAD_REACTORS
330
3B
102
}
330
3B
100
AcDbScale
 70
     0
300
8:1
140
8.0
141
1.0
290
     0
  0
SCALE
  5
4B
102
{ACAD_REACTORS
330
3B
102
}
330
3B
100
AcDbScale
 70
     0
300
10:1
140
10.0
141
1.0
290
     0
  0
SCALE
  5
4C
102
{ACAD_REACTORS
330
3B
102
}
330
3B
100
AcDbScale
 70
     0
300
100:1
140
100.0
141
1.0
290
     0
  0
SCALE
  5
4D
102
{ACAD_REACTORS
330
3B
102
}
330
3B
100
AcDbScale
 70
     0
300
1/128" = 1'-0"
140
0.0078125
141
12.0
290
     0
  0
SCALE
  5
4E
102
{ACAD_REACTORS
330
3B
102
}
330
3B
100
AcDbScale
 70
     0
300
1/64" = 1'-0"
140
0.015625
141
12.0
290
     0
  0
SCALE
  5
4F
102
{ACAD_REACTORS
330
3B
102
}
330
3B
100
AcDbScale
 70
     0
300
1/32" = 1'-0"
140
0.03125
141
12.0
290
     0
  0
SCALE
  5
50
102
{ACAD_REACTORS
330
3B
102
}
330
3B
100
AcDbScale
 70
     0
300
1/16" = 1'-0"
140
0.0625
141
12.0
290
     0
  0
SCALE
  5
51
102
{ACAD_REACTORS
330
3B
102
}
330
3B
100
AcDbScale
 70
     0
300
3/32" = 1'-0"
140
0.09375
141
12.0
290
     0
  0
SCALE
  5
52
102
{ACAD_REACTORS
330
3B
102
}
330
3B
100
AcDbScale
 70
     0
300
1/8" = 1'-0"
140
0.125
141
12.0
290
     0
  0
SCALE
  5
53
102
{ACAD_REACTORS
330
3B
102
}
330
3B
100
AcDbScale
 70
     0
300
3/16" = 1'-0"
140
0.1875
141
12.0
290
     0
  0
SCALE
  5
54
102
{ACAD_REACTORS
330
3B
102
}
330
3B
100
AcDbScale
 70
     0
300
1/4" = 1'-0"
140
0.25
141
12.0
290
     0
  0
SCALE
  5
55
102
{ACAD_REACTORS
330
3B
102
}
330
3B
100
AcDbScale
 70
     0
300
3/8" = 1'-0"
140
0.375
141
12.0
290
     0
  0
SCALE
  5
56
102
{ACAD_REACTORS
330
3B
102
}
330
3B
100
AcDbScale
 70
     0
300
1/2" = 1'-0"
140
0.5
141
12.0
290
     0
  0
SCALE
  5
57
102
{ACAD_REACTORS
330
3B
102
}
330
3B
100
AcDbScale
 70
     0
300
3/4" = 1'-0"
140
0.75
141
12.0
290
     0
  0
SCALE
  5
58
102
{ACAD_REACTORS
330
3B
102
}
330
3B
100
AcDbScale
 70
     0
300
1" = 1'-0"
140
1.0
141
12.0
290
     0
  0
SCALE
  5
59
102
{ACAD_REACTORS
330
3B
102
}
330
3B
100
AcDbScale
 70
     0
300
1-1/2" = 1'-0"
140
1.5
141
12.0
290
     0
  0
SCALE
  5
5A
102
{ACAD_REACTORS
330
3B
102
}
330
3B
100
AcDbScale
 70
     0
300
3" = 1'-0"
140
3.0
141
12.0
290
     0
  0
SCALE
  5
5B
102
{ACAD_REACTORS
330
3B
102
}
330
3B
100
AcDbScale
 70
     0
300
6" = 1'-0"
140
6.0
141
12.0
290
     0
  0
SCALE
  5
5C
102
{ACAD_REACTORS
330
3B
102
}
330
3B
100
AcDbScale
 70
     0
300
1'-0" = 1'-0"
140
12.0
141
12.0
290
     0
  0
VISUALSTYLE
  5
2F
102
{ACAD_REACTORS
330
2A
102
}
330
2A
100
AcDbVisualStyle
  2
2dWireframe
 70
     4
 71
     0
 72
     2
 73
     0
 90
        0
 40
-0.6
 41
-30.0
 62
     5
 63
     7
 74
     1
 91
        4
 64
     7
 65
   257
 75
     1
175
     1
 42
1.0
 92
        0
 66
   257
 43
1.0
 76
     1
 77
     6
 78
     2
 67
     7
 79
     5
170
     0
171
     0
290
     0
174
     0
 93
        1
 44
0.0
173
     0
291
     0
 45
0.0
1001
ACAD
1000
AcDbSavedByObjectVersion
1070
     0
  0
VISUALSTYLE
  5
31
102
{ACAD_REACTORS
330
2A
102
}
330
2A
100
AcDbVisualStyle
  2
3D Hidden
 70
     6
 71
     1
 72
     2
 73
     2
 90
        0
 40
-0.6
 41
-30.0
 62
     5
 63
     7
 74
     2
 91
        2
 64
     7
 65
   257
 75
     2
175
     1
 42
40.0
 92
        0
 66
   257
 43
1.0
 76
     1
 77
     6
 78
     2
 67
     7
 79
     3
170
     0
171
     0
290
     0
174
     0
 93
        1
 44
0.0
173
     0
291
     0
 45
0.0
1001
ACAD
1000
AcDbSavedByObjectVersion
1070
     0
  0
VISUALSTYLE
  5
30
102
{ACAD_REACTORS
330
2A
102
}
330
2A
100
AcDbVisualStyle
  2
3dWireframe
 70
     5
 71
     0
 72
     2
 73
     0
 90
        0
 40
-0.6
 41
-30.0
 62
     5
 63
     7
 74
     1
 91
        4
 64
     7
 65
   257
 75
     1
175
     1
 42
1.0
 92
        0
 66
   257
 43
1.0
 76
     1
 77
     6
 78
     2
 67
     7
 79
     5
170
     0
171
     0
290
     0
174
     0
 93
        1
 44
0.0
173
     0
291
     0
 45
0.0
1001
ACAD
1000
AcDbSavedByObjectVersion
1070
     0
  0
VISUALSTYLE
  5
32
102
{ACAD_REACTORS
330
2A
102
}
330
2A
100
AcDbVisualStyle
  2
Basic
 70
     7
 71
     1
 72
     0
 73
     1
 90
        0
 40
-0.6
 41
-30.0
 62
     5
 63
     7
 74
     0
 91
        4
 64
     7
 65
   257
 75
     1
175
     1
 42
1.0
 92
        8
 66
     7
 43
1.0
 76
     1
 77
     6
 78
     2
 67
     7
 79
     5
170
     0
171
     0
290
     0
174
     0
 93
        1
 44
0.0
173
     0
291
     1
 45
0.0
1001
ACAD
1000
AcDbSavedByObjectVersion
1070
     0
  0
VISUALSTYLE
  5
36
102
{ACAD_REACTORS
330
2A
102
}
330
2A
100
AcDbVisualStyle
  2
Brighten
 70
    12
 71
     2
 72
     2
 73
     0
 90
        0
 40
-0.6
 41
-30.0
 62
     5
 63
     7
 74
     1
 91
        4
 64
     7
 65
   257
 75
     1
175
     1
 42
1.0
 92
        8
 66
     7
 43
1.0
 76
     1
 77
     6
 78
     2
 67
     7
 79
     5
170
     0
171
     0
290
     0
174
     0
 93
        1
 44
50.0
173
     0
291
     1
 45
0.0
1001
ACAD
1000
AcDbSavedByObjectVersion
1070
     0
  0
VISUALSTYLE
  5
3A
102
{ACAD_REACTORS
330
2A
102
}
330
2A
100
AcDbVisualStyle
  2
ColorChange
 70
    16
 71
     2
 72
     2
 73
     3
 90
        0
 40
-0.6
 41
-30.0
 62
     5
 63
     8
 74
     1
 91
        4
 64
     7
 65
   257
 75
     1
175
     1
 42
1.0
 92
        8
 66
     8
 43
1.0
 76
     1
 77
     6
 78
     2
 67
     7
 79
     5
170
     0
171
     0
290
     0
174
     0
 93
        1
 44
0.0
173
     0
291
     1
 45
0.0
1001
ACAD
1000
AcDbSavedByObjectVersion
1070
     0
  0
VISUALSTYLE
  5
34
102
{ACAD_REACTORS
330
2A
102
}
330
2A
100
AcDbVisualStyle
  2
Conceptual
 70
     9
 71
     3
 72
     2
 73
     0
 90
        0
 40
-0.6
 41
-30.0
 62
     5
 63
     7
 74
     2
 91
        2
 64
     7
 65
   257
 75
     1
175
     1
 42
40.0
 92
        8
 66
     7
 43
1.0
 76
     1
 77
     6
 78
     2
 67
     7
 79
     3
170
     0
171
     0
290
     0
174
     0
 93
        1
 44
0.0
173
     0
291
     0
 45
0.0
1001
ACAD
1000
AcDbSavedByObjectVersion
1070
     0
  0
VISUALSTYLE
  5
35
102
{ACAD_REACTORS
330
2A
102
}
330
2A
100
AcDbVisualStyle
  2
Dim
 70
    11
 71
     2
 72
     2
 73
     0
 90
        0
 40
-0.6
 41
-30.0
 62
     5
 63
     7
 74
     1
 91
        4
 64
     7
 65
   257
 75
     1
175
     1
 42
1.0
 92
        8
 66
     7
 43
1.0
 76
     1
 77
     6
 78
     2
 67
     7
 79
     5
170
     0
171
     0
290
     0
174
     0
 93
        1
 44
-50.0
173
     0
291
     1
 45
0.0
1001
ACAD
1000
AcDbSavedByObjectVersion
1070
     0
  0
VISUALSTYLE
  5
39
102
{ACAD_REACTORS
330
2A
102
}
330
2A
100
AcDbVisualStyle
  2
Facepattern
 70
    15
 71
     2
 72
     2
 73
     0
 90
        0
 40
-0.6
 41
-30.0
 62
     5
 63
     7
 74
     1
 91
        4
 64
     7
 65
   257
 75
     1
175
     1
 42
1.0
 92
        8
 66
     7
 43
1.0
 76
     1
 77
     6
 78
     2
 67
     7
 79
     5
170
     0
171
     0
290
     0
174
     0
 93
        1
 44
0.0
173
     0
291
     1
 45
0.0
1001
ACAD
1000
AcDbSavedByObjectVersion
1070
     0
  0
VISUALSTYLE
  5
2B
102
{ACAD_REACTORS
330
2A
102
}
330
2A
100
AcDbVisualStyle
  2
Flat
 70
     0
 71
     2
 72
     1
 73
     1
 90
        2
 40
-0.6
 41
30.0
 62
     5
 63
     7
 74
     0
 91
        4
 64
     7
 65
   257
 75
     1
175
     1
 42
1.0
 92
        8
 66
     7
 43
1.0
 76
     1
 77
     6
 78
     2
 67
     7
 79
     5
170
     0
171
     0
290
     0
174
     0
 93
       13
 44
0.0
173
     0
291
     1
 45
0.0
1001
ACAD
1000
AcDbSavedByObjectVersion
1070
     0
  0
VISUALSTYLE
  5
2C
102
{ACAD_REACTORS
330
2A
102
}
330
2A
100
AcDbVisualStyle
  2
FlatWithEdges
 70
     1
 71
     2
 72
     1
 73
     1
 90
        2
 40
-0.6
 41
30.0
 62
     5
 63
     7
 74
     1
 91
        4
 64
     7
 65
   257
 75
     1
175
     1
 42
1.0
 92
        0
 66
   257
 43
1.0
 76
     1
 77
     6
 78
     2
 67
     7
 79
     5
170
     0
171
     0
290
     0
174
     0
 93
       13
 44
0.0
173
     0
291
     1
 45
0.0
1001
ACAD
1000
AcDbSavedByObjectVersion
1070
     0
  0
VISUALSTYLE
  5
2D
102
{ACAD_REACTORS
330
2A
102
}
330
2A
100
AcDbVisualStyle
  2
Gouraud
 70
     2
 71
     2
 72
     2
 73
     1
 90
        2
 40
-0.6
 41
30.0
 62
     5
 63
     7
 74
     0
 91
        4
 64
     7
 65
   257
 75
     1
175
     1
 42
1.0
 92
        0
 66
     7
 43
1.0
 76
     1
 77
     6
 78
     2
 67
     7
 79
     5
170
     0
171
     0
290
     0
174
     0
 93
       13
 44
0.0
173
     0
291
     1
 45
0.0
1001
ACAD
1000
AcDbSavedByObjectVersion
1070
     0
  0
VISUALSTYLE
  5
2E
102
{ACAD_REACTORS
330
2A
102
}
330
2A
100
AcDbVisualStyle
  2
GouraudWithEdges
 70
     3
 71
     2
 72
     2
 73
     1
 90
        2
 40
-0.6
 41
30.0
 62
     5
 63
     7
 74
     1
 91
        4
 64
     7
 65
   257
 75
     1
175
     1
 42
1.0
 92
        0
 66
   257
 43
1.0
 76
     1
 77
     6
 78
     2
 67
     7
 79
     5
170
     0
171
     0
290
     0
174
     0
 93
       13
 44
0.0
173
     0
291
     1
 45
0.0
1001
ACAD
1000
AcDbSavedByObjectVersion
1070
     0
  0
VISUALSTYLE
  5
38
102
{ACAD_REACTORS
330
2A
102
}
330
2A
100
AcDbVisualStyle
  2
Linepattern
 70
    14
 71
     2
 72
     2
 73
     0
 90
        0
 40
-0.6
 41
-30.0
 62
     5
 63
     7
 74
     1
 91
        4
 64
     7
 65
   257
 75
     7
175
     7
 42
1.0
 92
        8
 66
     7
 43
1.0
 76
     1
 77
     6
 78
     2
 67
     7
 79
     5
170
     0
171
     0
290
     0
174
     0
 93
        1
 44
0.0
173
     0
291
     1
 45
0.0
1001
ACAD
1000
AcDbSavedByObjectVersion
1070
     0
  0
VISUALSTYLE
  5
33
102
{ACAD_REACTORS
330
2A
102
}
330
2A
100
AcDbVisualStyle
  2
Realistic
 70
     8
 71
     2
 72
     2
 73
     0
 90
        0
 40
-0.6
 41
-30.0
 62
     5
 63
     7
 74
     1
 91
        0
 64
     7
 65
   257
 75
     1
175
     1
 42
1.0
 92
        8
 66
     8
 43
1.0
 76
     1
 77
     6
 78
     2
 67
     7
 79
     5
170
     0
171
     0
290
     0
174
     0
 93
       13
 44
0.0
173
     0
291
     0
 45
0.0
1001
ACAD
1000
AcDbSavedByObjectVersion
1070
     0
  0
VISUALSTYLE
  5
37
102
{ACAD_REACTORS
330
2A
102
}
330
2A
100
AcDbVisualStyle
  2
Thicken
 70
    13
 71
     2
 72
     2
 73
     0
 90
        0
 40
-0.6
 41
-30.0
 62
     5
 63
     7
 74
     1
 91
        4
 64
     7
 65
   257
 75
     1
175
     1
 42
1.0
 92
       12
 66
     7
 43
1.0
 76
     1
 77
     6
 78
     2
 67
     7
 79
     5
170
     0
171
     0
290
     0
174
     0
 93
        1
 44
0.0
173
     0
291
     1
 45
0.0
1001
ACAD
1000
AcDbSavedByObjectVersion
1070
     0
  0
DICTIONARYVAR
  5
EF
102
{ACAD_REACTORS
330
EE
102
}
330
EE
100
DictionaryVariables
280
     0
  1
1:1
  0
DICTIONARYVAR
  5
F3
102
{ACAD_REACTORS
330
EE
102
}
330
EE
100
DictionaryVariables
280
     0
  1
80.000000
  0
DICTIONARYVAR
  5
F2
102
{ACAD_REACTORS
330
EE
102
}
330
EE
100
DictionaryVariables
280
     0
  1
5.000000
  0
ENDSEC
  0
EOF
