  0
SECTION
  2
HEADER
  9
$ACADVER
  1
AC1015
  9
$ACADMAINTVER
 70
     6
  9
$DWGCODEPAGE
  3
ANSI_1252
  9
$INSBASE
 10
0.0
 20
0.0
 30
0.0
  9
$EXTMIN
 10
0.0
 20
0.0
 30
0.0
  9
$EXTMAX
 10
3000.0
 20
4500.0
 30
0.0
  9
$LIMMIN
 10
0.0
 20
0.0
  9
$LIMMAX
 10
3000.0
 20
4500.0
  9
$ORTHOMODE
 70
     0
  9
$REGENMODE
 70
     1
  9
$FILLMODE
 70
     1
  9
$QTEXTMODE
 70
     0
  9
$MIRRTEXT
 70
     1
  9
$LTSCALE
 40
1.0
  9
$ATTMODE
 70
     1
  9
$TEXTSIZE
 40
10.0
  9
$TRACEWID
 40
1.0
  9
$TEXTSTYLE
  7
Standard
  9
$CLAYER
  8
0
  9
$CELTYPE
  6
ByLayer
  9
$CECOLOR
 62
   256
  9
$CELTSCALE
 40
1.0
  9
$DISPSILH
 70
     0
  9
$DIMSCALE
 40
1.0
  9
$DIMASZ
 40
2.5
  9
$DIMEXO
 40
0.625
  9
$DIMDLI
 40
3.75
  9
$DIMRND
 40
0.0
  9
$DIMDLE
 40
0.0
  9
$DIMEXE
 40
1.25
  9
$DIMTP
 40
0.0
  9
$DIMTM
 40
0.0
  9
$DIMTXT
 40
2.5
  9
$DIMCEN
 40
2.5
  9
$DIMTSZ
 40
0.0
  9
$DIMTOL
 70
     0
  9
$DIMLIM
 70
     0
  9
$DIMTIH
 70
     0
  9
$DIMTOH
 70
     0
  9
$DIMSE1
 70
     0
  9
$DIMSE2
 70
     0
  9
$DIMTAD
 70
     1
  9
$DIMZIN
 70
     8
  9
$DIMBLK
  1

  9
$DIMASO
 70
     1
  9
$DIMSHO
 70
     1
  9
$DIMPOST
  1

  9
$DIMAPOST
  1

  9
$DIMALT
 70
     0
  9
$DIMALTD
 70
     3
  9
$DIMALTF
 40
0.0393700787
  9
$DIMLFAC
 40
1.0
  9
$DIMTOFL
 70
     1
  9
$DIMTVP
 40
0.0
  9
$DIMTIX
 70
     0
  9
$DIMSOXD
 70
     0
  9
$DIMSAH
 70
     0
  9
$DIMBLK1
  1

  9
$DIMBLK2
  1

  9
$DIMSTYLE
  2
ISO-25
  9
$DIMCLRD
 70
     0
  9
$DIMCLRE
 70
     0
  9
$DIMCLRT
 70
     0
  9
$DIMTFAC
 40
1.0
  9
$DIMGAP
 40
0.625
  9
$DIMJUST
 70
     0
  9
$DIMSD1
 70
     0
  9
$DIMSD2
 70
     0
  9
$DIMTOLJ
 70
     0
  9
$DIMTZIN
 70
     8
  9
$DIMALTZ
 70
     0
  9
$DIMALTTZ
 70
     0
  9
$DIMUPT
 70
     0
  9
$DIMDEC
 70
     2
  9
$DIMTDEC
 70
     2
  9
$DIMALTU
 70
     2
  9
$DIMALTTD
 70
     3
  9
$DIMTXSTY
  7
Standard
  9
$DIMAUNIT
 70
     0
  9
$DIMADEC
 70
     0
  9
$DIMALTRND
 40
0.0
  9
$DIMAZIN
 70
     0
  9
$DIMDSEP
 70
    44
  9
$DIMATFIT
 70
     3
  9
$DIMFRAC
 70
     0
  9
$DIMLDRBLK
  1

  9
$DIMLUNIT
 70
     2
  9
$DIMLWD
 70
    -2
  9
$DIMLWE
 70
    -2
  9
$DIMTMOVE
 70
     0
  9
$LUNITS
 70
     2
  9
$LUPREC
 70
     4
  9
$SKETCHINC
 40
1.0
  9
$FILLETRAD
 40
10.0
  9
$AUNITS
 70
     0
  9
$AUPREC
 70
     0
  9
$MENU
  1
.
  9
$ELEVATION
 40
0.0
  9
$PELEVATION
 40
0.0
  9
$THICKNESS
 40
0.0
  9
$LIMCHECK
 70
     0
  9
$CHAMFERA
 40
0.0
  9
$CHAMFERB
 40
0.0
  9
$CHAMFERC
 40
0.0
  9
$CHAMFERD
 40
0.0
  9
$SKPOLY
 70
     0
  9
$TDCREATE
 40
2457807.462582072
  9
$TDUCREATE
 40
2457807.420915405
  9
$TDUPDATE
 40
2457807.462585509
  9
$TDUUPDATE
 40
2457807.420918843
  9
$TDINDWG
 40
0.0000000116
  9
$TDUSRTIMER
 40
0.0000000116
  9
$USRTIMER
 70
     1
  9
$ANGBASE
 50
0.0
  9
$ANGDIR
 70
     0
  9
$PDMODE
 70
     0
  9
$PDSIZE
 40
0.0
  9
$PLINEWID
 40
0.0
  9
$SPLFRAME
 70
     0
  9
$SPLINETYPE
 70
     6
  9
$SPLINESEGS
 70
     8
  9
$HANDSEED
  5
35B
  9
$SURFTAB1
 70
     6
  9
$SURFTAB2
 70
     6
  9
$SURFTYPE
 70
     6
  9
$SURFU
 70
     6
  9
$SURFV
 70
     6
  9
$UCSBASE
  2

  9
$UCSNAME
  2

  9
$UCSORG
 10
0.0
 20
0.0
 30
0.0
  9
$UCSXDIR
 10
1.0
 20
0.0
 30
0.0
  9
$UCSYDIR
 10
0.0
 20
1.0
 30
0.0
  9
$UCSORTHOREF
  2

  9
$UCSORTHOVIEW
 70
     0
  9
$UCSORGTOP
 10
0.0
 20
0.0
 30
0.0
  9
$UCSORGBOTTOM
 10
0.0
 20
0.0
 30
0.0
  9
$UCSORGLEFT
 10
0.0
 20
0.0
 30
0.0
  9
$UCSORGRIGHT
 10
0.0
 20
0.0
 30
0.0
  9
$UCSORGFRONT
 10
0.0
 20
0.0
 30
0.0
  9
$UCSORGBACK
 10
0.0
 20
0.0
 30
0.0
  9
$PUCSBASE
  2

  9
$PUCSNAME
  2

  9
$PUCSORG
 10
0.0
 20
0.0
 30
0.0
  9
$PUCSXDIR
 10
1.0
 20
0.0
 30
0.0
  9
$PUCSYDIR
 10
0.0
 20
1.0
 30
0.0
  9
$PUCSORTHOREF
  2

  9
$PUCSORTHOVIEW
 70
     0
  9
$PUCSORGTOP
 10
0.0
 20
0.0
 30
0.0
  9
$PUCSORGBOTTOM
 10
0.0
 20
0.0
 30
0.0
  9
$PUCSORGLEFT
 10
0.0
 20
0.0
 30
0.0
  9
$PUCSORGRIGHT
 10
0.0
 20
0.0
 30
0.0
  9
$PUCSORGFRONT
 10
0.0
 20
0.0
 30
0.0
  9
$PUCSORGBACK
 10
0.0
 20
0.0
 30
0.0
  9
$USERI1
 70
     0
  9
$USERI2
 70
     0
  9
$USERI3
 70
     0
  9
$USERI4
 70
     0
  9
$USERI5
 70
     0
  9
$USERR1
 40
0.0
  9
$USERR2
 40
0.0
  9
$USERR3
 40
0.0
  9
$USERR4
 40
0.0
  9
$USERR5
 40
0.0
  9
$WORLDVIEW
 70
     1
  9
$SHADEDGE
 70
     3
  9
$SHADEDIF
 70
    70
  9
$TILEMODE
 70
     1
  9
$MAXACTVP
 70
    64
  9
$PINSBASE
 10
0.0
 20
0.0
 30
0.0
  9
$PLIMCHECK
 70
     0
  9
$PEXTMIN
 10
0.0
 20
0.0
 30
0.0
  9
$PEXTMAX
 10
3000.0
 20
4500.0
 30
0.0
  9
$PLIMMIN
 10
0.0
 20
0.0
  9
$PLIMMAX
 10
3000.0
 20
4500.0
  9
$UNITMODE
 70
     0
  9
$VISRETAIN
 70
     1
  9
$PLINEGEN
 70
     0
  9
$PSLTSCALE
 70
     1
  9
$TREEDEPTH
 70
  3020
  9
$CMLSTYLE
  2
Standard
  9
$CMLJUST
 70
     0
  9
$CMLSCALE
 40
20.0
  9
$PROXYGRAPHICS
 70
     1
  9
$MEASUREMENT
 70
     1
  9
$CELWEIGHT
370
    -1
  9
$ENDCAPS
280
     0
  9
$JOINSTYLE
280
     0
  9
$LWDISPLAY
290
     0
  9
$INSUNITS
 70
     4
  9
$HYPERLINKBASE
  1

  9
$STYLESHEET
  1

  9
$XEDIT
290
     1
  9
$CEPSNTYPE
380
     0
  9
$PSTYLEMODE
290
     1
  9
$FINGERPRINTGUID
  2
{34BF59F6-1969-4A7F-A35D-F188BDBB238F}
  9
$VERSIONGUID
  2
{FAEB1C32-E019-11D5-929B-00C0DF256EC4}
  9
$EXTNAMES
290
     1
  9
$PSVPSCALE
 40
0.0
  9
$OLESTARTUP
290
     0
  0
ENDSEC
  0
SECTION
  2
CLASSES
  0
CLASS
  1
ACDBDICTIONARYWDFLT
  2
AcDbDictionaryWithDefault
  3
ObjectDBX Classes
 90
        0
280
     0
281
     0
  0
CLASS
  1
VISUALSTYLE
  2
AcDbVisualStyle
  3
ObjectDBX Classes
 90
     4095
280
     0
281
     0
  0
CLASS
  1
MATERIAL
  2
AcDbMaterial
  3
ObjectDBX Classes
 90
     1153
280
     0
281
     0
  0
CLASS
  1
SCALE
  2
AcDbScale
  3
ObjectDBX Classes
 90
     1153
280
     0
281
     0
  0
CLASS
  1
SUN
  2
AcDbSun
  3
SCENEOE
 90
     1153
280
     0
281
     0
  0
CLASS
  1
DICTIONARYVAR
  2
AcDbDictionaryVar
  3
ObjectDBX Classes
 90
        0
280
     0
281
     0
  0
CLASS
  1
ACDBPLACEHOLDER
  2
AcDbPlaceHolder
  3
ObjectDBX Classes
 90
        0
280
     0
281
     0
  0
CLASS
  1
LAYOUT
  2
AcDbLayout
  3
ObjectDBX Classes
 90
        0
280
     0
281
     0
  0
ENDSEC
  0
SECTION
  2
TABLES
  0
TABLE
  2
VPORT
  5
8
330
0
100
AcDbSymbolTable
 70
     1
  0
VPORT
  5
29
330
8
100
AcDbSymbolTableRecord
100
AcDbViewportTableRecord
  2
*Active
 70
     0
 10
0.0
 20
0.0
 11
1.0
 21
1.0
 12
344.1869158879
 22
148.5
 13
0.0
 23
0.0
 14
10.0
 24
10.0
 15
10.0
 25
10.0
 16
0.0
 26
0.0
 36
1.0
 17
0.0
 27
0.0
 37
0.0
 40
297.0
 41
1.9729729729
 42
50.0
 43
0.0
 44
0.0
 50
0.0
 51
0.0
 71
     0
 72
   100
 73
     1
 74
     3
 75
     0
 76
     0
 77
     0
 78
     0
281
     0
 65
     1
110
0.0
120
0.0
130
0.0
111
1.0
121
0.0
131
0.0
112
0.0
122
1.0
132
0.0
 79
     0
146
0.0
  0
ENDTAB
  0
TABLE
  2
LTYPE
  5
5
330
0
100
AcDbSymbolTable
 70
     2
  0
LTYPE
  5
14
330
5
100
AcDbSymbolTableRecord
100
AcDbLinetypeTableRecord
  2
ByBlock
 70
     0
  3

 72
    65
 73
     0
 40
0.0
  0
LTYPE
  5
15
330
5
100
AcDbSymbolTableRecord
100
AcDbLinetypeTableRecord
  2
ByLayer
 70
     0
  3

 72
    65
 73
     0
 40
0.0
  0
LTYPE
  5
16
330
5
100
AcDbSymbolTableRecord
100
AcDbLinetypeTableRecord
  2
Continuous
 70
     0
  3
Solid line
 72
    65
 73
     0
 40
0.0
  0
LTYPE
  5
6D
330
5
100
AcDbSymbolTableRecord
100
AcDbLinetypeTableRecord
  2
CENTER2
 70
     0
  3
Center (.5x) ___ _ ___ _ ___ _ ___ _ ___ _ ___
 72
    65
 73
     4
 40
28.575
 49
19.05
 74
     4
 75
     0
340
0
 46
0.0
 50
0.0
 44
0.0
 45
0.0
 49
-3.175
 74
     4
 75
     0
340
0
 46
0.0
 50
0.0
 44
0.0
 45
0.0
 49
3.175
 74
     4
 75
     0
340
0
 46
0.0
 50
0.0
 44
0.0
 45
0.0
 49
-3.175
 74
     4
 75
     0
340
0
 46
0.0
 50
0.0
 44
0.0
 45
0.0
  0
ENDTAB
  0
TABLE
  2
LAYER
  5
2
330
0
100
AcDbSymbolTable
 70
     5
  0
LAYER
  5
10
330
2
100
AcDbSymbolTableRecord
100
AcDbLayerTableRecord
  2
0
 70
     0
 62
     7
  6
Continuous
370
    -3
390
F
  0
LAYER
  5
6A
330
2
100
AcDbSymbolTableRecord
100
AcDbLayerTableRecord
  2
Default
 70
     0
 62
     7
  6
Continuous
370
    -3
390
F
  0
LAYER
  5
9C
330
2
100
AcDbSymbolTableRecord
100
AcDbLayerTableRecord
  2
DV1_Default
 70
     0
 62
     7
  6
Continuous
370
    -3
390
F
  0
LAYER
  5
1A9
330
2
100
AcDbSymbolTableRecord
100
AcDbLayerTableRecord
  2
DV2_Default
 70
     0
 62
     7
  6
Continuous
370
    -3
390
F
  0
LAYER
  5
287
330
2
100
AcDbSymbolTableRecord
100
AcDbLayerTableRecord
  2
DV3_Default
 70
     0
 62
     7
  6
Continuous
370
    -3
390
F
  0
ENDTAB
  0
TABLE
  2
STYLE
  5
3
330
0
100
AcDbSymbolTable
 70
     1
  0
STYLE
  5
11
330
3
100
AcDbSymbolTableRecord
100
AcDbTextStyleTableRecord
  2
Standard
 70
     0
 40
0.0
 41
1.0
 50
0.0
 71
     0
 42
10.0
  3
txt
  4

  0
ENDTAB
  0
TABLE
  2
VIEW
  5
6
330
0
100
AcDbSymbolTable
 70
     0
  0
ENDTAB
  0
TABLE
  2
UCS
  5
7
330
0
100
AcDbSymbolTable
 70
     0
  0
ENDTAB
  0
TABLE
  2
APPID
  5
9
330
0
100
AcDbSymbolTable
 70
     1
  0
APPID
  5
12
330
9
100
AcDbSymbolTableRecord
100
AcDbRegAppTableRecord
  2
ACAD
 70
     0
  0
ENDTAB
  0
TABLE
  2
DIMSTYLE
  5
A
330
0
100
AcDbSymbolTable
 70
     1
100
AcDbDimStyleTable
  0
DIMSTYLE
105
27
330
A
100
AcDbSymbolTableRecord
100
AcDbDimStyleTableRecord
  2
ISO-25
 70
     0
 41
2.5
 42
0.625
 43
3.75
 44
1.25
 73
     0
 74
     0
 77
     1
 78
     8
140
2.5
141
2.5
143
0.0393700787
147
0.625
171
     3
172
     1
178
     0
271
     2
272
     2
274
     3
278
    44
283
     0
284
     8
340
11
  0
ENDTAB
  0
TABLE
  2
BLOCK_RECORD
  5
1
330
0
100
AcDbSymbolTable
 70
    11
  0
BLOCK_RECORD
  5
1F
330
1
100
AcDbSymbolTableRecord
100
AcDbBlockTableRecord
  2
*Model_Space
340
22
  0
BLOCK_RECORD
  5
1B
330
1
100
AcDbSymbolTableRecord
100
AcDbBlockTableRecord
  2
*Paper_Space
340
1E
  0
BLOCK_RECORD
  5
6B
330
1
100
AcDbSymbolTableRecord
100
AcDbBlockTableRecord
  2
SEANNOT_GROUP
340
0
102
{BLKREFS
331
6C
102
}
  0
BLOCK_RECORD
  5
72
330
1
100
AcDbSymbolTableRecord
100
AcDbBlockTableRecord
  2
SEANNOT_GROUP1
340
0
102
{BLKREFS
331
73
102
}
  0
BLOCK_RECORD
  5
78
330
1
100
AcDbSymbolTableRecord
100
AcDbBlockTableRecord
  2
SEANNOT_GROUP2
340
0
102
{BLKREFS
331
79
102
}
  0
BLOCK_RECORD
  5
7E
330
1
100
AcDbSymbolTableRecord
100
AcDbBlockTableRecord
  2
SEANNOT_GROUP3
340
0
102
{BLKREFS
331
7F
102
}
  0
BLOCK_RECORD
  5
84
330
1
100
AcDbSymbolTableRecord
100
AcDbBlockTableRecord
  2
SEANNOT_GROUP4
340
0
102
{BLKREFS
331
85
102
}
  0
BLOCK_RECORD
  5
8E
330
1
100
AcDbSymbolTableRecord
100
AcDbBlockTableRecord
  2
SEANNOT_GROUP5
340
0
102
{BLKREFS
331
8F
102
}
  0
BLOCK_RECORD
  5
94
330
1
100
AcDbSymbolTableRecord
100
AcDbBlockTableRecord
  2
SEANNOT_GROUP6
340
0
102
{BLKREFS
331
95
102
}
  0
BLOCK_RECORD
  5
9A
330
1
100
AcDbSymbolTableRecord
100
AcDbBlockTableRecord
  2
SE
340
0
102
{BLKREFS
331
9B
102
}
  0
BLOCK_RECORD
  5
1A7
330
1
100
AcDbSymbolTableRecord
100
AcDbBlockTableRecord
  2
SE1
340
0
102
{BLKREFS
331
1A8
102
}
  0
BLOCK_RECORD
  5
285
330
1
100
AcDbSymbolTableRecord
100
AcDbBlockTableRecord
  2
SE2
340
0
102
{BLKREFS
331
286
102
}
  0
ENDTAB
  0
ENDSEC
  0
SECTION
  2
BLOCKS
  0
BLOCK
  5
20
330
1F
100
AcDbEntity
  8
0
100
AcDbBlockBegin
  2
*Model_Space
 70
     0
 10
0.0
 20
0.0
 30
0.0
  3
*Model_Space
  1
*Model_Space
  0
ENDBLK
  5
21
330
1F
100
AcDbEntity
  8
0
100
AcDbBlockEnd
  0
BLOCK
  5
1C
330
1B
100
AcDbEntity
 67
     1
  8
0
100
AcDbBlockBegin
  2
*Paper_Space
 70
     0
 10
0.0
 20
0.0
 30
0.0
  3
*Paper_Space
  1
*Paper_Space
  0
ENDBLK
  5
1D
330
1B
100
AcDbEntity
 67
     1
  8
0
100
AcDbBlockEnd
  0
BLOCK
  5
70
330
6B
100
AcDbEntity
  8
0
100
AcDbBlockBegin
  2
SEANNOT_GROUP
 70
     0
 10
0.0
 20
0.0
 30
0.0
  3
SEANNOT_GROUP
  1
SEANNOT_GROUP
  0
LINE
  5
6E
330
6B
100
AcDbEntity
  8
Default
  6
CENTER2
 62
     7
100
AcDbLine
 10
60.1212749644
 20
332.7797605556
 30
0.0
 11
20.1212758585
 21
332.7797605556
 31
0.0
  0
LINE
  5
6F
330
6B
100
AcDbEntity
  8
Default
  6
CENTER2
 62
     7
100
AcDbLine
 10
40.1212754115
 20
352.7797601086
 30
0.0
 11
40.1212754115
 21
312.7797610026
 31
0.0
  0
ENDBLK
  5
71
330
6B
100
AcDbEntity
  8
0
100
AcDbBlockEnd
  0
BLOCK
  5
76
330
72
100
AcDbEntity
  8
0
100
AcDbBlockBegin
  2
SEANNOT_GROUP1
 70
     0
 10
0.0
 20
0.0
 30
0.0
  3
SEANNOT_GROUP1
  1
SEANNOT_GROUP1
  0
LINE
  5
74
330
72
100
AcDbEntity
  8
Default
  6
CENTER2
 62
     7
100
AcDbLine
 10
279.601551244
 20
332.7797605556
 30
0.0
 11
239.6015521381
 21
332.7797605556
 31
0.0
  0
LINE
  5
75
330
72
100
AcDbEntity
  8
Default
  6
CENTER2
 62
     7
100
AcDbLine
 10
259.6015516911
 20
352.7797601086
 30
0.0
 11
259.6015516911
 21
312.7797610026
 31
0.0
  0
ENDBLK
  5
77
330
72
100
AcDbEntity
  8
0
100
AcDbBlockEnd
  0
BLOCK
  5
7C
330
78
100
AcDbEntity
  8
0
100
AcDbBlockBegin
  2
SEANNOT_GROUP2
 70
     0
 10
0.0
 20
0.0
 30
0.0
  3
SEANNOT_GROUP2
  1
SEANNOT_GROUP2
  0
LINE
  5
7A
330
78
100
AcDbEntity
  8
Default
  6
CENTER2
 62
     7
100
AcDbLine
 10
158.4212749644
 20
456.2613942016
 30
0.0
 11
118.4212758585
 21
456.2613942016
 31
0.0
  0
LINE
  5
7B
330
78
100
AcDbEntity
  8
Default
  6
CENTER2
 62
     7
100
AcDbLine
 10
138.4212754115
 20
476.2613937545
 30
0.0
 11
138.4212754115
 21
436.2613946486
 31
0.0
  0
ENDBLK
  5
7D
330
78
100
AcDbEntity
  8
0
100
AcDbBlockEnd
  0
BLOCK
  5
82
330
7E
100
AcDbEntity
  8
0
100
AcDbBlockBegin
  2
SEANNOT_GROUP3
 70
     0
 10
0.0
 20
0.0
 30
0.0
  3
SEANNOT_GROUP3
  1
SEANNOT_GROUP3
  0
LINE
  5
80
330
7E
100
AcDbEntity
  8
Default
  6
CENTER2
 62
     7
100
AcDbLine
 10
282.2217566758
 20
456.2613942016
 30
0.0
 11
242.2217575699
 21
456.2613942016
 31
0.0
  0
LINE
  5
81
330
7E
100
AcDbEntity
  8
Default
  6
CENTER2
 62
     7
100
AcDbLine
 10
262.2217571228
 20
476.2613937545
 30
0.0
 11
262.2217571228
 21
436.2613946486
 31
0.0
  0
ENDBLK
  5
83
330
7E
100
AcDbEntity
  8
0
100
AcDbBlockEnd
  0
BLOCK
  5
8C
330
84
100
AcDbEntity
  8
0
100
AcDbBlockBegin
  2
SEANNOT_GROUP4
 70
     0
 10
0.0
 20
0.0
 30
0.0
  3
SEANNOT_GROUP4
  1
SEANNOT_GROUP4
  0
LINE
  5
86
330
84
100
AcDbEntity
  8
Default
  6
CENTER2
 62
     7
100
AcDbLine
 10
160.1212749644
 20
563.4797605556
 30
0.0
 11
120.1212758585
 21
563.4797605556
 31
0.0
  0
LINE
  5
87
330
84
100
AcDbEntity
  8
Default
  6
CENTER2
 62
     7
100
AcDbLine
 10
140.1212754115
 20
583.4797601086
 30
0.0
 11
140.1212754115
 21
543.4797610026
 31
0.0
  0
LINE
  5
88
330
84
100
AcDbEntity
  8
Default
  6
CENTER2
 62
     7
100
AcDbLine
 10
165.1212739213
 20
563.4797605556
 30
0.0
 11
178.4976234636
 21
563.4797605556
 31
0.0
  0
LINE
  5
89
330
84
100
AcDbEntity
  8
Default
  6
CENTER2
 62
     7
100
AcDbLine
 10
140.1212754115
 20
588.4797590655
 30
0.0
 11
140.1212754115
 21
601.8561086078
 31
0.0
  0
LINE
  5
8A
330
84
100
AcDbEntity
  8
Default
  6
CENTER2
 62
     7
100
AcDbLine
 10
115.1212769016
 20
563.4797605556
 30
0.0
 11
101.7449273593
 21
563.4797605556
 31
0.0
  0
LINE
  5
8B
330
84
100
AcDbEntity
  8
Default
  6
CENTER2
 62
     7
100
AcDbLine
 10
140.1212754115
 20
538.4797620457
 30
0.0
 11
140.1212754115
 21
525.1034125035
 31
0.0
  0
ENDBLK
  5
8D
330
84
100
AcDbEntity
  8
0
100
AcDbBlockEnd
  0
BLOCK
  5
92
330
8E
100
AcDbEntity
  8
0
100
AcDbBlockBegin
  2
SEANNOT_GROUP5
 70
     0
 10
0.0
 20
0.0
 30
0.0
  3
SEANNOT_GROUP5
  1
SEANNOT_GROUP5
  0
LINE
  5
90
330
8E
100
AcDbEntity
  8
Default
  6
CENTER2
 62
     7
100
AcDbLine
 10
276.003722687
 20
564.9797605556
 30
0.0
 11
236.0037235811
 21
564.9797605556
 31
0.0
  0
LINE
  5
91
330
8E
100
AcDbEntity
  8
Default
  6
CENTER2
 62
     7
100
AcDbLine
 10
256.0037231341
 20
584.9797601086
 30
0.0
 11
256.0037231341
 21
544.9797610026
 31
0.0
  0
ENDBLK
  5
93
330
8E
100
AcDbEntity
  8
0
100
AcDbBlockEnd
  0
BLOCK
  5
98
330
94
100
AcDbEntity
  8
0
100
AcDbBlockBegin
  2
SEANNOT_GROUP6
 70
     0
 10
0.0
 20
0.0
 30
0.0
  3
SEANNOT_GROUP6
  1
SEANNOT_GROUP6
  0
LINE
  5
96
330
94
100
AcDbEntity
  8
Default
  6
CENTER2
 62
     7
100
AcDbLine
 10
160.1212749644
 20
204.9071781673
 30
0.0
 11
120.1212758585
 21
204.9071781673
 31
0.0
  0
LINE
  5
97
330
94
100
AcDbEntity
  8
Default
  6
CENTER2
 62
     7
100
AcDbLine
 10
140.1212754115
 20
224.9071777203
 30
0.0
 11
140.1212754115
 21
184.9071786144
 31
0.0
  0
ENDBLK
  5
99
330
94
100
AcDbEntity
  8
0
100
AcDbBlockEnd
  0
BLOCK
  5
1A5
330
9A
100
AcDbEntity
  8
0
100
AcDbBlockBegin
  2
SE
 70
     0
 10
0.0
 20
0.0
 30
0.0
  3
SE
  1
SE
  0
LINE
  5
9D
330
9A
100
AcDbEntity
  8
DV1_Default
  6
Continuous
 62
     7
100
AcDbLine
 10
263.7015516911
 20
332.7797605556
 30
0.0
 11
255.5015516911
 21
332.7797605556
 31
0.0
  0
LINE
  5
9E
330
9A
100
AcDbEntity
  8
DV1_Default
  6
Continuous
 62
     7
100
AcDbLine
 10
263.7015516911
 20
340.6797605556
 30
0.0
 11
255.5015516911
 21
340.6797605556
 31
0.0
  0
LINE
  5
9F
330
9A
100
AcDbEntity
  8
DV1_Default
  6
Continuous
 62
     7
100
AcDbLine
 10
263.7015516911
 20
342.6797605556
 30
0.0
 11
255.5015516911
 21
342.6797605556
 31
0.0
  0
LINE
  5
A0
330
9A
100
AcDbEntity
  8
DV1_Default
  6
Continuous
 62
     7
100
AcDbLine
 10
263.7015516911
 20
344.4797605556
 30
0.0
 11
255.5015516911
 21
344.4797605556
 31
0.0
  0
LINE
  5
A1
330
9A
100
AcDbEntity
  8
DV1_Default
  6
Continuous
 62
     7
100
AcDbLine
 10
263.7015516911
 20
346.4797605556
 30
0.0
 11
255.5015516911
 21
346.4797605556
 31
0.0
  0
LINE
  5
A2
330
9A
100
AcDbEntity
  8
DV1_Default
  6
Continuous
 62
     7
100
AcDbLine
 10
263.7015516911
 20
349.0300023849
 30
0.0
 11
255.5015516911
 21
349.0300023849
 31
0.0
  0
LINE
  5
A3
330
9A
100
AcDbEntity
  8
DV1_Default
  6
Continuous
 62
     7
100
AcDbLine
 10
261.9015516911
 20
353.4797605556
 30
0.0
 11
257.3015516911
 21
353.4797605556
 31
0.0
  0
LINE
  5
A4
330
9A
100
AcDbEntity
  8
DV1_Default
  6
Continuous
 62
     7
100
AcDbLine
 10
261.9015516911
 20
354.8643015276
 30
0.0
 11
257.3015516911
 21
354.8643015276
 31
0.0
  0
LINE
  5
A5
330
9A
100
AcDbEntity
  8
DV1_Default
  6
Continuous
 62
     7
100
AcDbLine
 10
261.9015516911
 20
356.3259750701
 30
0.0
 11
257.3015516911
 21
356.3259750701
 31
0.0
  0
LINE
  5
A6
330
9A
100
AcDbEntity
  8
DV1_Default
  6
Continuous
 62
     7
100
AcDbLine
 10
261.9015516911
 20
359.7797605556
 30
0.0
 11
257.3015516911
 21
359.7797605556
 31
0.0
  0
LINE
  5
A7
330
9A
100
AcDbEntity
  8
DV1_Default
  6
Continuous
 62
     7
100
AcDbLine
 10
255.5015516911
 20
340.6797605556
 30
0.0
 11
255.5015516911
 21
332.7797605556
 31
0.0
  0
LINE
  5
A8
330
9A
100
AcDbEntity
  8
DV1_Default
  6
Continuous
 62
     7
100
AcDbLine
 10
263.7015516911
 20
332.7797605556
 30
0.0
 11
263.7015516911
 21
340.6797605556
 31
0.0
  0
LINE
  5
A9
330
9A
100
AcDbEntity
  8
DV1_Default
  6
Continuous
 62
     7
100
AcDbLine
 10
256.0015516911
 20
342.6797605556
 30
0.0
 11
256.0015516911
 21
340.6797605556
 31
0.0
  0
LINE
  5
AA
330
9A
100
AcDbEntity
  8
DV1_Default
  6
Continuous
 62
     7
100
AcDbLine
 10
263.2015516911
 20
340.6797605556
 30
0.0
 11
263.2015516911
 21
342.6797605556
 31
0.0
  0
LINE
  5
AB
330
9A
100
AcDbEntity
  8
DV1_Default
  6
Continuous
 62
     7
100
AcDbLine
 10
255.5015516911
 20
344.4797605556
 30
0.0
 11
255.5015516911
 21
342.6797605556
 31
0.0
  0
LINE
  5
AC
330
9A
100
AcDbEntity
  8
DV1_Default
  6
Continuous
 62
     7
100
AcDbLine
 10
263.7015516911
 20
342.6797605556
 30
0.0
 11
263.7015516911
 21
344.4797605556
 31
0.0
  0
LINE
  5
AD
330
9A
100
AcDbEntity
  8
DV1_Default
  6
Continuous
 62
     7
100
AcDbLine
 10
256.0015516911
 20
346.4797605556
 30
0.0
 11
256.0015516911
 21
344.4797605556
 31
0.0
  0
LINE
  5
AE
330
9A
100
AcDbEntity
  8
DV1_Default
  6
Continuous
 62
     7
100
AcDbLine
 10
263.2015516911
 20
344.4797605556
 30
0.0
 11
263.2015516911
 21
346.4797605556
 31
0.0
  0
LINE
  5
AF
330
9A
100
AcDbEntity
  8
DV1_Default
  6
Continuous
 62
     7
100
AcDbLine
 10
255.5015516911
 20
349.0300023849
 30
0.0
 11
255.5015516911
 21
346.4797605556
 31
0.0
  0
LINE
  5
B0
330
9A
100
AcDbEntity
  8
DV1_Default
  6
Continuous
 62
     7
100
AcDbLine
 10
263.7015516911
 20
346.4797605556
 30
0.0
 11
263.7015516911
 21
349.0300023849
 31
0.0
  0
LINE
  5
B1
330
9A
100
AcDbEntity
  8
DV1_Default
  6
Continuous
 62
     7
100
AcDbLine
 10
263.7015516911
 20
349.0300023849
 30
0.0
 11
261.9015516911
 21
353.4797605556
 31
0.0
  0
LINE
  5
B2
330
9A
100
AcDbEntity
  8
DV1_Default
  6
Continuous
 62
     7
100
AcDbLine
 10
257.3015516911
 20
353.4797605556
 30
0.0
 11
255.5015516911
 21
349.0300023849
 31
0.0
  0
LINE
  5
B3
330
9A
100
AcDbEntity
  8
DV1_Default
  6
Continuous
 62
     7
100
AcDbLine
 10
257.3015516911
 20
354.8643015276
 30
0.0
 11
257.3015516911
 21
353.4797605556
 31
0.0
  0
LINE
  5
B4
330
9A
100
AcDbEntity
  8
DV1_Default
  6
Continuous
 62
     7
100
AcDbLine
 10
261.9015516911
 20
353.4797605556
 30
0.0
 11
261.9015516911
 21
354.8643015276
 31
0.0
  0
ARC
  5
B5
330
9A
100
AcDbEntity
  8
DV1_Default
  6
Continuous
 62
     7
100
AcDbCircle
 10
255.9861344205
 20
355.5951382989
 30
0.0
 40
1.50480729062704
100
AcDbArc
 50
330.9437517292
 51
29.0562482709
  0
ARC
  5
B6
330
9A
100
AcDbEntity
  8
DV1_Default
  6
Continuous
 62
     7
100
AcDbCircle
 10
263.2169689616
 20
355.5951382989
 30
0.0
 40
1.504807290627045
100
AcDbArc
 50
150.9437517291
 51
209.0562482709
  0
LINE
  5
B7
330
9A
100
AcDbEntity
  8
DV1_Default
  6
Continuous
 62
     7
100
AcDbLine
 10
257.3015516911
 20
359.7797605556
 30
0.0
 11
257.3015516911
 21
356.3259750701
 31
0.0
  0
LINE
  5
B8
330
9A
100
AcDbEntity
  8
DV1_Default
  6
Continuous
 62
     7
100
AcDbLine
 10
261.9015516911
 20
356.3259750701
 30
0.0
 11
261.9015516911
 21
359.7797605556
 31
0.0
  0
LINE
  5
B9
330
9A
100
AcDbEntity
  8
DV1_Default
  6
Continuous
 62
     7
100
AcDbLine
 10
264.6037231341
 20
461.1613942016
 30
0.0
 11
263.8722669905
 21
461.1613942016
 31
0.0
  0
LINE
  5
BA
330
9A
100
AcDbEntity
  8
DV1_Default
  6
Continuous
 62
     7
100
AcDbLine
 10
258.5037231341
 20
461.1613942016
 30
0.0
 11
258.4037231341
 21
461.1613942016
 31
0.0
  0
LINE
  5
BB
330
9A
100
AcDbEntity
  8
DV1_Default
  6
Continuous
 62
     7
100
AcDbLine
 10
264.6037231341
 20
461.3613942016
 30
0.0
 11
263.8722669905
 21
461.3613942016
 31
0.0
  0
LINE
  5
BC
330
9A
100
AcDbEntity
  8
DV1_Default
  6
Continuous
 62
     7
100
AcDbLine
 10
258.5037231341
 20
461.3613942016
 30
0.0
 11
258.4037231341
 21
461.3613942016
 31
0.0
  0
LINE
  5
BD
330
9A
100
AcDbEntity
  8
DV1_Default
  6
Continuous
 62
     7
100
AcDbLine
 10
258.3037231341
 20
463.5322931191
 30
0.0
 11
258.5037231341
 21
463.5322931191
 31
0.0
  0
LINE
  5
BE
330
9A
100
AcDbEntity
  8
DV1_Default
  6
Continuous
 62
     7
100
AcDbLine
 10
260.7037231341
 20
463.5322931191
 30
0.0
 11
264.7037231341
 21
463.5322931191
 31
0.0
  0
LINE
  5
BF
330
9A
100
AcDbEntity
  8
DV1_Default
  6
Continuous
 62
     7
100
AcDbLine
 10
258.3037231341
 20
466.0322931191
 30
0.0
 11
258.5037231341
 21
466.0322931191
 31
0.0
  0
LINE
  5
C0
330
9A
100
AcDbEntity
  8
DV1_Default
  6
Continuous
 62
     7
100
AcDbLine
 10
260.7037231341
 20
466.0322931191
 30
0.0
 11
264.7037231341
 21
466.0322931191
 31
0.0
  0
LINE
  5
C1
330
9A
100
AcDbEntity
  8
DV1_Default
  6
Continuous
 62
     7
100
AcDbLine
 10
263.9354742195
 20
468.5322931191
 30
0.0
 11
264.7037231341
 21
468.5322931191
 31
0.0
  0
LINE
  5
C2
330
9A
100
AcDbEntity
  8
DV1_Default
  6
Continuous
 62
     7
100
AcDbLine
 10
264.0188075529
 20
471.0322931191
 30
0.0
 11
264.7037231341
 21
471.0322931191
 31
0.0
  0
LINE
  5
C3
330
9A
100
AcDbEntity
  8
DV1_Default
  6
Continuous
 62
     7
100
AcDbLine
 10
264.1021408862
 20
473.5322931191
 30
0.0
 11
264.7037231341
 21
473.5322931191
 31
0.0
  0
LINE
  5
C4
330
9A
100
AcDbEntity
  8
DV1_Default
  6
Continuous
 62
     7
100
AcDbLine
 10
264.1804671733
 20
475.8820817332
 30
0.0
 11
264.5515176339
 21
475.8820817332
 31
0.0
  0
LINE
  5
C5
330
9A
100
AcDbEntity
  8
DV1_Default
  6
Continuous
 62
     7
100
AcDbLine
 10
264.5037231341
 20
456.2613942016
 30
0.0
 11
263.7397911116
 21
456.2613942016
 31
0.0
  0
LINE
  5
C6
330
9A
100
AcDbEntity
  8
DV1_Default
  6
Continuous
 62
     7
100
AcDbLine
 10
264.6037231341
 20
457.3613942016
 30
0.0
 11
263.8722669905
 21
457.3613942016
 31
0.0
  0
LINE
  5
C7
330
9A
100
AcDbEntity
  8
DV1_Default
  6
Continuous
 62
     7
100
AcDbLine
 10
258.5037231341
 20
457.3613942016
 30
0.0
 11
258.4037231341
 21
457.3613942016
 31
0.0
  0
LINE
  5
C8
330
9A
100
AcDbEntity
  8
DV1_Default
  6
Continuous
 62
     7
100
AcDbLine
 10
264.6037231341
 20
457.5613942016
 30
0.0
 11
263.8722669905
 21
457.5613942016
 31
0.0
  0
LINE
  5
C9
330
9A
100
AcDbEntity
  8
DV1_Default
  6
Continuous
 62
     7
100
AcDbLine
 10
258.5037231341
 20
457.5613942016
 30
0.0
 11
258.4037231341
 21
457.5613942016
 31
0.0
  0
LINE
  5
CA
330
9A
100
AcDbEntity
  8
DV1_Default
  6
Continuous
 62
     7
100
AcDbLine
 10
264.6037231341
 20
459.3613942016
 30
0.0
 11
263.8722669905
 21
459.3613942016
 31
0.0
  0
LINE
  5
CB
330
9A
100
AcDbEntity
  8
DV1_Default
  6
Continuous
 62
     7
100
AcDbLine
 10
258.5037231341
 20
459.3613942016
 30
0.0
 11
258.4037231341
 21
459.3613942016
 31
0.0
  0
LINE
  5
CC
330
9A
100
AcDbEntity
  8
DV1_Default
  6
Continuous
 62
     7
100
AcDbLine
 10
264.6037231341
 20
459.5613942016
 30
0.0
 11
263.8722669905
 21
459.5613942016
 31
0.0
  0
LINE
  5
CD
330
9A
100
AcDbEntity
  8
DV1_Default
  6
Continuous
 62
     7
100
AcDbLine
 10
258.5037231341
 20
459.5613942016
 30
0.0
 11
258.4037231341
 21
459.5613942016
 31
0.0
  0
SPLINE
  5
CE
330
9A
100
AcDbEntity
  8
DV1_Default
  6
Continuous
 62
     7
100
AcDbSpline
210
0.0
220
0.0
230
1.0
 70
     8
 71
     3
 72
    38
 73
    34
 74
     0
 42
0.000000001
 43
0.0000000001
 40
0.0
 40
0.0
 40
0.0
 40
0.0
 40
0.0076253153842794
 40
0.0076253153842794
 40
0.0076253153842794
 40
0.1658692296626987
 40
0.1658692296626987
 40
0.1658692296626987
 40
0.2826123079861667
 40
0.2826123079861667
 40
0.2826123079861667
 40
0.3751696325169492
 40
0.3751696325169492
 40
0.3751696325169492
 40
0.4533996946316208
 40
0.4533996946316208
 40
0.4533996946316208
 40
0.5320205321062804
 40
0.5320205321062804
 40
0.5320205321062804
 40
0.604867806715087
 40
0.604867806715087
 40
0.604867806715087
 40
0.6812151895774298
 40
0.6812151895774298
 40
0.6812151895774298
 40
0.7900901000435839
 40
0.7900901000435839
 40
0.7900901000435839
 40
0.9285539442605787
 40
0.9285539442605787
 40
0.9285539442605787
 40
1.0
 40
1.0
 40
1.0
 40
1.0
 10
263.8722669905474
 20
461.3613942015825
 30
0.0
 10
263.8731916008138
 20
461.3613942015825
 30
0.0
 10
263.874116241486
 20
461.3613867154669
 30
0.0
 10
263.8750407303344
 20
461.3613717316779
 30
0.0
 10
263.8939628472797
 20
461.3610650486846
 30
0.0
 10
263.9131655886185
 20
461.357571751229
 30
0.0
 10
263.9308064394984
 20
461.3507204050557
 30
0.0
 10
263.94387954321
 20
461.345643078588
 30
0.0
 10
263.9564189710738
 20
461.338578292046
 30
0.0
 10
263.9671986204734
 20
461.3296069797933
 30
0.0
 10
263.9757605285417
 20
461.3224813722792
 30
0.0
 10
263.9833976638117
 20
461.3139671586701
 30
0.0
 10
263.9892166696273
 20
461.3044687523019
 30
0.0
 10
263.9941405321649
 20
461.2964314949483
 30
0.0
 10
263.9978613232527
 20
461.2874869679404
 30
0.0
 10
263.9998824328819
 20
461.2782806090551
 30
0.0
 10
264.0019099085355
 20
461.2690452522841
 30
0.0
 10
264.0022607068616
 20
461.2592858635638
 30
0.0
 10
264.0008780094093
 20
461.249932221494
 30
0.0
 10
263.9995926351964
 20
461.2412369495872
 30
0.0
 10
263.9967965690547
 20
461.232666749887
 30
0.0
 10
263.9928397124362
 20
461.2248179776199
 30
0.0
 10
263.9886875571223
 20
461.2165818132556
 30
0.0
 10
263.9831817086854
 20
461.2089420575612
 30
0.0
 10
263.9768511827677
 20
461.202233910366
 30
0.0
 10
263.9678682336491
 20
461.1927151206608
 30
0.0
 10
263.9569972261796
 20
461.1848030124349
 30
0.0
 10
263.9454146488088
 20
461.1787083726775
 30
0.0
 10
263.9307163457435
 20
461.1709742683101
 30
0.0
 10
263.9144263345104
 20
461.1658900276345
 30
0.0
 10
263.898011738217
 20
461.1633567467788
 30
0.0
 10
263.8895059568399
 20
461.1620440411393
 30
0.0
 10
263.8808734714121
 20
461.1613942015821
 30
0.0
 10
263.8722669905442
 20
461.1613942015615
 30
0.0
  0
LINE
  5
CF
330
9A
100
AcDbEntity
  8
DV1_Default
  6
Continuous
 62
     7
100
AcDbLine
 10
260.7037231341
 20
462.4813942016
 30
0.0
 11
263.7397911116
 21
462.4813942016
 31
0.0
  0
LINE
  5
D0
330
9A
100
AcDbEntity
  8
DV1_Default
  6
Continuous
 62
     7
100
AcDbLine
 10
263.7397911116
 20
456.2613942016
 30
0.0
 11
260.7037231341
 21
456.2613942016
 31
0.0
  0
LINE
  5
D1
330
9A
100
AcDbEntity
  8
DV1_Default
  6
Continuous
 62
     7
100
AcDbLine
 10
263.7397911116
 20
462.4813942016
 30
0.0
 11
263.7397911116
 21
461.3613942016
 31
0.0
  0
LINE
  5
D2
330
9A
100
AcDbEntity
  8
DV1_Default
  6
Continuous
 62
     7
100
AcDbLine
 10
263.7397911116
 20
461.3613942016
 30
0.0
 11
263.8722669905
 21
461.3613942016
 31
0.0
  0
LINE
  5
D3
330
9A
100
AcDbEntity
  8
DV1_Default
  6
Continuous
 62
     7
100
AcDbLine
 10
263.8722669905
 20
461.1613942016
 30
0.0
 11
263.7397911116
 21
461.1613942016
 31
0.0
  0
LINE
  5
D4
330
9A
100
AcDbEntity
  8
DV1_Default
  6
Continuous
 62
     7
100
AcDbLine
 10
263.7397911116
 20
461.1613942016
 30
0.0
 11
263.7397911116
 21
459.5613942016
 31
0.0
  0
LINE
  5
D5
330
9A
100
AcDbEntity
  8
DV1_Default
  6
Continuous
 62
     7
100
AcDbLine
 10
263.7397911116
 20
459.5613942016
 30
0.0
 11
263.8722669905
 21
459.5613942016
 31
0.0
  0
SPLINE
  5
D6
330
9A
100
AcDbEntity
  8
DV1_Default
  6
Continuous
 62
     7
100
AcDbSpline
210
0.0
220
0.0
230
1.0
 70
     8
 71
     3
 72
    38
 73
    34
 74
     0
 42
0.000000001
 43
0.0000000001
 40
0.0
 40
0.0
 40
0.0
 40
0.0
 40
0.007625315384437
 40
0.007625315384437
 40
0.007625315384437
 40
0.1658692296628705
 40
0.1658692296628705
 40
0.1658692296628705
 40
0.2826123079862903
 40
0.2826123079862903
 40
0.2826123079862903
 40
0.3751696325170627
 40
0.3751696325170627
 40
0.3751696325170627
 40
0.4533996946317301
 40
0.4533996946317301
 40
0.4533996946317301
 40
0.5320205321063777
 40
0.5320205321063777
 40
0.5320205321063777
 40
0.6048678067151829
 40
0.6048678067151829
 40
0.6048678067151829
 40
0.6812151895775336
 40
0.6812151895775336
 40
0.6812151895775336
 40
0.7900901000437086
 40
0.7900901000437086
 40
0.7900901000437086
 40
0.9285539442607481
 40
0.9285539442607481
 40
0.9285539442607481
 40
1.0
 40
1.0
 40
1.0
 40
1.0
 10
263.8722669905473
 20
459.5613942015825
 30
0.0
 10
263.8731916008137
 20
459.5613942015825
 30
0.0
 10
263.8741162414859
 20
459.561386715467
 30
0.0
 10
263.8750407303343
 20
459.561371731678
 30
0.0
 10
263.8939628472797
 20
459.5610650486847
 30
0.0
 10
263.9131655886184
 20
459.5575717512291
 30
0.0
 10
263.9308064394984
 20
459.5507204050558
 30
0.0
 10
263.94387954321
 20
459.545643078588
 30
0.0
 10
263.9564189710737
 20
459.5385782920461
 30
0.0
 10
263.9671986204733
 20
459.5296069797933
 30
0.0
 10
263.9757605285417
 20
459.5224813722792
 30
0.0
 10
263.9833976638116
 20
459.5139671586701
 30
0.0
 10
263.9892166696272
 20
459.504468752302
 30
0.0
 10
263.9941405321647
 20
459.4964314949484
 30
0.0
 10
263.9978613232526
 20
459.4874869679404
 30
0.0
 10
263.9998824328817
 20
459.4782806090552
 30
0.0
 10
264.0019099085354
 20
459.4690452522841
 30
0.0
 10
264.0022607068615
 20
459.4592858635639
 30
0.0
 10
264.0008780094092
 20
459.4499322214941
 30
0.0
 10
263.9995926351963
 20
459.4412369495873
 30
0.0
 10
263.9967965690546
 20
459.432666749887
 30
0.0
 10
263.992839712436
 20
459.42481797762
 30
0.0
 10
263.9886875571221
 20
459.4165818132556
 30
0.0
 10
263.9831817086853
 20
459.4089420575613
 30
0.0
 10
263.9768511827675
 20
459.4022339103661
 30
0.0
 10
263.9678682336489
 20
459.3927151206608
 30
0.0
 10
263.9569972261794
 20
459.3848030124349
 30
0.0
 10
263.9454146488087
 20
459.3787083726776
 30
0.0
 10
263.9307163457433
 20
459.3709742683102
 30
0.0
 10
263.9144263345102
 20
459.3658900276346
 30
0.0
 10
263.8980117382168
 20
459.3633567467788
 30
0.0
 10
263.8895059568397
 20
459.3620440411393
 30
0.0
 10
263.880873471412
 20
459.3613942015822
 30
0.0
 10
263.8722669905441
 20
459.3613942015616
 30
0.0
  0
LINE
  5
D7
330
9A
100
AcDbEntity
  8
DV1_Default
  6
Continuous
 62
     7
100
AcDbLine
 10
263.8722669905
 20
459.3613942016
 30
0.0
 11
263.7397911116
 21
459.3613942016
 31
0.0
  0
LINE
  5
D8
330
9A
100
AcDbEntity
  8
DV1_Default
  6
Continuous
 62
     7
100
AcDbLine
 10
263.7397911116
 20
459.3613942016
 30
0.0
 11
263.7397911116
 21
457.5613942016
 31
0.0
  0
LINE
  5
D9
330
9A
100
AcDbEntity
  8
DV1_Default
  6
Continuous
 62
     7
100
AcDbLine
 10
263.7397911116
 20
457.5613942016
 30
0.0
 11
263.8722669905
 21
457.5613942016
 31
0.0
  0
SPLINE
  5
DA
330
9A
100
AcDbEntity
  8
DV1_Default
  6
Continuous
 62
     7
100
AcDbSpline
210
0.0
220
0.0
230
1.0
 70
     8
 71
     3
 72
    38
 73
    34
 74
     0
 42
0.000000001
 43
0.0000000001
 40
0.0
 40
0.0
 40
0.0
 40
0.0
 40
0.0076253153845062
 40
0.0076253153845062
 40
0.0076253153845062
 40
0.1658692296629388
 40
0.1658692296629388
 40
0.1658692296629388
 40
0.2826123079863492
 40
0.2826123079863492
 40
0.2826123079863492
 40
0.3751696325171071
 40
0.3751696325171071
 40
0.3751696325171071
 40
0.4533996946317585
 40
0.4533996946317585
 40
0.4533996946317585
 40
0.5320205321063954
 40
0.5320205321063954
 40
0.5320205321063954
 40
0.6048678067152036
 40
0.6048678067152036
 40
0.6048678067152036
 40
0.6812151895775592
 40
0.6812151895775592
 40
0.6812151895775592
 40
0.7900901000437306
 40
0.7900901000437306
 40
0.7900901000437306
 40
0.9285539442607641
 40
0.9285539442607641
 40
0.9285539442607641
 40
1.0
 40
1.0
 40
1.0
 40
1.0
 10
263.8722669905473
 20
457.5613942015825
 30
0.0
 10
263.8731916008137
 20
457.5613942015825
 30
0.0
 10
263.8741162414859
 20
457.561386715467
 30
0.0
 10
263.8750407303343
 20
457.561371731678
 30
0.0
 10
263.8939628472797
 20
457.5610650486847
 30
0.0
 10
263.9131655886184
 20
457.5575717512291
 30
0.0
 10
263.9308064394984
 20
457.5507204050558
 30
0.0
 10
263.94387954321
 20
457.5456430785879
 30
0.0
 10
263.9564189710737
 20
457.5385782920461
 30
0.0
 10
263.9671986204733
 20
457.5296069797933
 30
0.0
 10
263.9757605285417
 20
457.5224813722792
 30
0.0
 10
263.9833976638116
 20
457.5139671586701
 30
0.0
 10
263.9892166696272
 20
457.504468752302
 30
0.0
 10
263.9941405321647
 20
457.4964314949484
 30
0.0
 10
263.9978613232526
 20
457.4874869679404
 30
0.0
 10
263.9998824328817
 20
457.4782806090552
 30
0.0
 10
264.0019099085354
 20
457.4690452522841
 30
0.0
 10
264.0022607068615
 20
457.4592858635639
 30
0.0
 10
264.0008780094092
 20
457.4499322214941
 30
0.0
 10
263.9995926351963
 20
457.4412369495873
 30
0.0
 10
263.9967965690545
 20
457.432666749887
 30
0.0
 10
263.992839712436
 20
457.42481797762
 30
0.0
 10
263.9886875571221
 20
457.4165818132557
 30
0.0
 10
263.9831817086852
 20
457.4089420575613
 30
0.0
 10
263.9768511827675
 20
457.4022339103661
 30
0.0
 10
263.9678682336489
 20
457.3927151206609
 30
0.0
 10
263.9569972261793
 20
457.3848030124349
 30
0.0
 10
263.9454146488087
 20
457.3787083726776
 30
0.0
 10
263.9307163457433
 20
457.3709742683102
 30
0.0
 10
263.9144263345102
 20
457.3658900276346
 30
0.0
 10
263.8980117382168
 20
457.3633567467789
 30
0.0
 10
263.8895059568397
 20
457.3620440411393
 30
0.0
 10
263.880873471412
 20
457.3613942015822
 30
0.0
 10
263.8722669905441
 20
457.3613942015616
 30
0.0
  0
LINE
  5
DB
330
9A
100
AcDbEntity
  8
DV1_Default
  6
Continuous
 62
     7
100
AcDbLine
 10
263.8722669905
 20
457.3613942016
 30
0.0
 11
263.7397911116
 21
457.3613942016
 31
0.0
  0
LINE
  5
DC
330
9A
100
AcDbEntity
  8
DV1_Default
  6
Continuous
 62
     7
100
AcDbLine
 10
263.7397911116
 20
457.3613942016
 30
0.0
 11
263.7397911116
 21
456.2613942016
 31
0.0
  0
LINE
  5
DD
330
9A
100
AcDbEntity
  8
DV1_Default
  6
Continuous
 62
     7
100
AcDbLine
 10
258.3037231341
 20
466.0322931191
 30
0.0
 11
258.3037231341
 21
463.5322931191
 31
0.0
  0
LINE
  5
DE
330
9A
100
AcDbEntity
  8
DV1_Default
  6
Continuous
 62
     7
100
AcDbLine
 10
264.7037231341
 20
463.5322931191
 30
0.0
 11
264.7037231341
 21
466.0322931191
 31
0.0
  0
LINE
  5
DF
330
9A
100
AcDbEntity
  8
DV1_Default
  6
Continuous
 62
     7
100
AcDbLine
 10
264.5037231341
 20
466.0322931191
 30
0.0
 11
264.5037231341
 21
468.5322931191
 31
0.0
  0
LINE
  5
E0
330
9A
100
AcDbEntity
  8
DV1_Default
  6
Continuous
 62
     7
100
AcDbLine
 10
264.7037231341
 20
468.5322931191
 30
0.0
 11
264.7037231341
 21
471.0322931191
 31
0.0
  0
LINE
  5
E1
330
9A
100
AcDbEntity
  8
DV1_Default
  6
Continuous
 62
     7
100
AcDbLine
 10
264.5037231341
 20
471.0322931191
 30
0.0
 11
264.5037231341
 21
473.5322931191
 31
0.0
  0
LINE
  5
E2
330
9A
100
AcDbEntity
  8
DV1_Default
  6
Continuous
 62
     7
100
AcDbLine
 10
264.7037231341
 20
473.5322931191
 30
0.0
 11
264.7037231341
 21
474.9386483828
 31
0.0
  0
ARC
  5
E3
330
9A
100
AcDbEntity
  8
DV1_Default
  6
Continuous
 62
     7
100
AcDbCircle
 10
261.7037231341
 20
474.9386483828
 30
0.0
 40
2.999999999999403
100
AcDbArc
 50
0.0
 51
18.3292909448
  0
LINE
  5
E4
330
9A
100
AcDbEntity
  8
DV1_Default
  6
Continuous
 62
     7
100
AcDbLine
 10
264.5515176339
 20
475.8820817332
 30
0.0
 11
264.2007563344
 21
476.4907565664
 31
0.0
  0
LINE
  5
E5
330
9A
100
AcDbEntity
  8
DV1_Default
  6
Continuous
 62
     7
100
AcDbLine
 10
263.7537231341
 20
477.4797605556
 30
0.0
 11
263.7537231341
 21
478.6797605556
 31
0.0
  0
LINE
  5
E6
330
9A
100
AcDbEntity
  8
DV1_Default
  6
Continuous
 62
     7
100
AcDbLine
 10
263.7537231341
 20
482.9797605556
 30
0.0
 11
263.7537231341
 21
483.2837480286
 31
0.0
  0
ARC
  5
E7
330
9A
100
AcDbEntity
  8
DV1_Default
  6
Continuous
 62
     7
100
AcDbCircle
 10
258.4037231341
 20
461.2613942016
 30
0.0
 40
0.1000000000000861
100
AcDbArc
 50
90.0
 51
270.0000000001
  0
ARC
  5
E8
330
9A
100
AcDbEntity
  8
DV1_Default
  6
Continuous
 62
     7
100
AcDbCircle
 10
264.6037231341
 20
461.2613942016
 30
0.0
 40
0.1000000000000723
100
AcDbArc
 50
269.9999999999
 51
90.0
  0
LINE
  5
E9
330
9A
100
AcDbEntity
  8
DV1_Default
  6
Continuous
 62
     7
100
AcDbLine
 10
264.5037231341
 20
461.3613942016
 30
0.0
 11
264.5037231341
 21
463.5322931191
 31
0.0
  0
LINE
  5
EA
330
9A
100
AcDbEntity
  8
DV1_Default
  6
Continuous
 62
     7
100
AcDbLine
 10
264.5037231341
 20
456.2613942016
 30
0.0
 11
264.5037231341
 21
457.3613942016
 31
0.0
  0
ARC
  5
EB
330
9A
100
AcDbEntity
  8
DV1_Default
  6
Continuous
 62
     7
100
AcDbCircle
 10
258.4037231341
 20
457.4613942016
 30
0.0
 40
0.1000000000000723
100
AcDbArc
 50
90.0
 51
270.0000000001
  0
ARC
  5
EC
330
9A
100
AcDbEntity
  8
DV1_Default
  6
Continuous
 62
     7
100
AcDbCircle
 10
264.6037231341
 20
457.4613942016
 30
0.0
 40
0.1000000000000723
100
AcDbArc
 50
269.9999999999
 51
90.0
  0
LINE
  5
ED
330
9A
100
AcDbEntity
  8
DV1_Default
  6
Continuous
 62
     7
100
AcDbLine
 10
264.5037231341
 20
457.5613942016
 30
0.0
 11
264.5037231341
 21
459.3613942016
 31
0.0
  0
ARC
  5
EE
330
9A
100
AcDbEntity
  8
DV1_Default
  6
Continuous
 62
     7
100
AcDbCircle
 10
258.4037231341
 20
459.4613942016
 30
0.0
 40
0.1000000000000723
100
AcDbArc
 50
90.0
 51
270.0000000001
  0
ARC
  5
EF
330
9A
100
AcDbEntity
  8
DV1_Default
  6
Continuous
 62
     7
100
AcDbCircle
 10
264.6037231341
 20
459.4613942016
 30
0.0
 40
0.1000000000000723
100
AcDbArc
 50
269.9999999999
 51
90.0
  0
LINE
  5
F0
330
9A
100
AcDbEntity
  8
DV1_Default
  6
Continuous
 62
     7
100
AcDbLine
 10
264.5037231341
 20
459.5613942016
 30
0.0
 11
264.5037231341
 21
461.1613942016
 31
0.0
  0
LINE
  5
F1
330
9A
100
AcDbEntity
  8
DV1_Default
  6
Continuous
 62
     7
100
AcDbLine
 10
260.7037231341
 20
359.7797605556
 30
0.0
 11
260.7037231341
 21
459.5797605556
 31
0.0
  0
LINE
  5
F2
330
9A
100
AcDbEntity
  8
DV1_Default
  6
Continuous
 62
     7
100
AcDbLine
 10
258.5037231341
 20
459.5797605556
 30
0.0
 11
258.5037231341
 21
359.7797605556
 31
0.0
  0
LINE
  5
F3
330
9A
100
AcDbEntity
  8
DV1_Default
  6
Continuous
 62
     7
100
AcDbLine
 10
262.6037231341
 20
448.4594143203
 30
0.0
 11
262.6037231341
 21
456.2613942016
 31
0.0
  0
LINE
  5
F4
330
9A
100
AcDbEntity
  8
DV1_Default
  6
Continuous
 62
     7
100
AcDbLine
 10
256.5037231341
 20
398.4797605556
 30
0.0
 11
256.5037231341
 21
448.4797605556
 31
0.0
  0
LINE
  5
F5
330
9A
100
AcDbEntity
  8
DV1_Default
  6
Continuous
 62
     7
100
AcDbLine
 10
265.5037231341
 20
398.4797605556
 30
0.0
 11
265.5037231341
 21
448.4797605556
 31
0.0
  0
LINE
  5
F6
330
9A
100
AcDbEntity
  8
DV1_Default
  6
Continuous
 62
     7
100
AcDbLine
 10
266.5037231341
 20
447.4797605556
 30
0.0
 11
266.5037231341
 21
399.4797605556
 31
0.0
  0
ARC
  5
F7
330
9A
100
AcDbEntity
  8
DV1_Default
  6
Continuous
 62
     7
100
AcDbCircle
 10
261.5036646014
 20
473.4333686736
 30
0.0
 40
24.99865470594305
100
AcDbArc
 50
268.1416083235
 51
273.4401296226
  0
LINE
  5
F8
330
9A
100
AcDbEntity
  8
DV1_Default
  6
Continuous
 62
     7
100
AcDbLine
 10
256.5037231341
 20
398.4797605556
 30
0.0
 11
258.5037231341
 21
398.4797605556
 31
0.0
  0
LINE
  5
F9
330
9A
100
AcDbEntity
  8
DV1_Default
  6
Continuous
 62
     7
100
AcDbLine
 10
260.7037231341
 20
398.4797605556
 30
0.0
 11
265.5037231341
 21
398.4797605556
 31
0.0
  0
LINE
  5
FA
330
9A
100
AcDbEntity
  8
DV1_Default
  6
Continuous
 62
     7
100
AcDbLine
 10
258.5037231341
 20
448.4797605556
 30
0.0
 11
256.5037231341
 21
448.4797605556
 31
0.0
  0
LINE
  5
FB
330
9A
100
AcDbEntity
  8
DV1_Default
  6
Continuous
 62
     7
100
AcDbLine
 10
265.5037231341
 20
448.4797605556
 30
0.0
 11
263.0017459476
 21
448.4797605556
 31
0.0
  0
LINE
  5
FC
330
9A
100
AcDbEntity
  8
DV1_Default
  6
Continuous
 62
     7
100
AcDbLine
 10
265.5037231341
 20
398.4797605556
 30
0.0
 11
266.5037231341
 21
399.4797605556
 31
0.0
  0
LINE
  5
FD
330
9A
100
AcDbEntity
  8
DV1_Default
  6
Continuous
 62
     7
100
AcDbLine
 10
266.5037231341
 20
447.4797605556
 30
0.0
 11
265.5037231341
 21
448.4797605556
 31
0.0
  0
LINE
  5
FE
330
9A
100
AcDbEntity
  8
DV1_Default
  6
Continuous
 62
     7
100
AcDbLine
 10
256.0037231341
 20
570.2326258968
 30
0.0
 11
256.0037231341
 21
564.9797605556
 31
0.0
  0
LINE
  5
FF
330
9A
100
AcDbEntity
  8
DV1_Default
  6
Continuous
 62
     7
100
AcDbLine
 10
264.0037231341
 20
563.0221216971
 30
0.0
 11
264.0037231341
 21
605.4797605556
 31
0.0
  0
LINE
  5
100
330
9A
100
AcDbEntity
  8
DV1_Default
  6
Continuous
 62
     7
100
AcDbLine
 10
259.0037231341
 20
605.6106901635
 30
0.0
 11
259.0037231341
 21
563.6757730825
 31
0.0
  0
LINE
  5
101
330
9A
100
AcDbEntity
  8
DV1_Default
  6
Continuous
 62
     7
100
AcDbLine
 10
256.0037231341
 20
563.071010774
 30
0.0
 11
256.0037231341
 21
564.9797605556
 31
0.0
  0
LINE
  5
102
330
9A
100
AcDbEntity
  8
DV1_Default
  6
Continuous
 62
     7
100
AcDbLine
 10
257.8605717153
 20
570.2812491881
 30
0.0
 11
256.0037231341
 21
570.2326258968
 31
0.0
  0
LINE
  5
103
330
9A
100
AcDbEntity
  8
DV1_Default
  6
Continuous
 62
     7
100
AcDbLine
 10
264.0037231341
 20
605.4797605556
 30
0.0
 11
259.0037231341
 21
605.6106901635
 31
0.0
  0
LINE
  5
104
330
9A
100
AcDbEntity
  8
DV1_Default
  6
Continuous
 62
     7
100
AcDbLine
 10
255.6037231341
 20
571.4797605556
 30
0.0
 11
255.6037231341
 21
568.5451957012
 31
0.0
  0
SPLINE
  5
105
330
9A
100
AcDbEntity
  8
DV1_Default
  6
Continuous
 62
     7
100
AcDbSpline
210
0.0
220
0.0
230
1.0
 70
     8
 71
     3
 72
     9
 73
     5
 74
     0
 42
0.000000001
 43
0.0000000001
 40
0.0
 40
0.0
 40
0.0
 40
0.0
 40
0.0226870211693356
 40
1.0
 40
1.0
 40
1.0
 40
1.0
 10
256.2977048804981
 20
599.2023271528429
 30
0.0
 10
256.2978781185275
 20
599.2025076653808
 30
0.0
 10
256.3055191488874
 20
599.2103952002334
 30
0.0
 10
256.3133799335852
 20
599.2152343719356
 30
0.0
 10
256.321213936065
 20
599.2164762141574
 30
0.0
  0
ARC
  5
106
330
9A
100
AcDbEntity
  8
DV1_Default
  6
Continuous
 62
     7
100
AcDbCircle
 10
256.392263706
 20
598.4089556974
 30
0.0
 40
0.7886001578097444
100
AcDbArc
 50
92.2099383249
 51
179.2956581274
  0
LINE
  5
107
330
9A
100
AcDbEntity
  8
DV1_Default
  6
Continuous
 62
     7
100
AcDbLine
 10
255.6037231341
 20
571.5670285741
 30
0.0
 11
255.6037231341
 21
598.4186497818
 31
0.0
  0
LINE
  5
108
330
9A
100
AcDbEntity
  8
DV1_Default
  6
Continuous
 62
     7
100
AcDbLine
 10
255.6037231341
 20
571.4924996132
 30
0.0
 11
255.6037231341
 21
571.5670285703
 31
0.0
  0
LINE
  5
109
330
9A
100
AcDbEntity
  8
DV1_Default
  6
Continuous
 62
     7
100
AcDbLine
 10
258.9937231341
 20
563.6757730825
 30
0.0
 11
258.9937231341
 21
604.0796919971
 31
0.0
  0
LINE
  5
10A
330
9A
100
AcDbEntity
  8
DV1_Default
  6
Continuous
 62
     7
100
AcDbLine
 10
258.9926530697
 20
599.4804054945
 30
0.0
 11
256.3205924994
 21
599.2158869171
 31
0.0
  0
LINE
  5
10B
330
9A
100
AcDbEntity
  8
DV1_Default
  6
Continuous
 62
     7
100
AcDbLine
 10
256.199681962
 20
570.7178369743
 30
0.0
 11
259.0118225196
 21
569.9786272722
 31
0.0
  0
LINE
  5
10C
330
9A
100
AcDbEntity
  8
DV1_Default
  6
Continuous
 62
     7
100
AcDbLine
 10
258.9922947385
 20
599.4803712028
 30
0.0
 11
256.3206015454
 21
599.2158878342
 31
0.0
  0
ARC
  5
10D
330
9A
100
AcDbEntity
  8
DV1_Default
  6
Continuous
 62
     7
100
AcDbCircle
 10
256.1037231341
 20
568.5451957012
 30
0.0
 40
0.5
100
AcDbArc
 50
180.0
 51
258.4630409672
  0
SPLINE
  5
10E
330
9A
100
AcDbEntity
  8
DV1_Default
  6
Continuous
 62
     7
100
AcDbSpline
210
0.0
220
0.0
230
1.0
 70
     8
 71
     3
 72
    21
 73
    17
 74
     0
 42
0.000000001
 43
0.0000000001
 40
0.0
 40
0.0
 40
0.0
 40
0.0
 40
0.1085294734134491
 40
0.1626817519362463
 40
0.2188673873235764
 40
0.2813274743913781
 40
0.354792179770905
 40
0.5257326226490651
 40
0.601382295348892
 40
0.6337504634654162
 40
0.6628125113274136
 40
0.6899642276620105
 40
0.7726210161838123
 40
0.8894257849784741
 40
0.9458598704918406
 40
1.0
 40
1.0
 40
1.0
 40
1.0
 10
256.2977026036031
 20
599.2023422691389
 30
0.0
 10
256.2548647217232
 20
599.1990132756972
 30
0.0
 10
256.1990565896247
 20
599.1936735043716
 30
0.0
 10
256.109745581262
 20
599.1644049266587
 30
0.0
 10
256.0400809257785
 20
599.1332399245242
 30
0.0
 10
255.9695960392441
 20
599.0913659689644
 30
0.0
 10
255.8769452803286
 20
599.0171217001882
 30
0.0
 10
255.8078108686082
 20
598.9239583879738
 30
0.0
 10
255.7498058196659
 20
598.8208456030213
 30
0.0
 10
255.7210269074343
 20
598.768002268792
 30
0.0
 10
255.702285432721
 20
598.7345702445012
 30
0.0
 10
255.6740104063774
 20
598.687809378334
 30
0.0
 10
255.6388737822207
 20
598.6358504244962
 30
0.0
 10
255.6166238462196
 20
598.5731434661718
 30
0.0
 10
255.6050176857863
 20
598.4838225088268
 30
0.0
 10
255.6040986959212
 20
598.4381508154247
 30
0.0
 10
255.6037231340825
 20
598.412199701554
 30
0.0
  0
ARC
  5
10F
330
9A
100
AcDbEntity
  8
DV1_Default
  6
Continuous
 62
     7
100
AcDbCircle
 10
256.4074291145
 20
571.4944161715
 30
0.0
 40
0.8037142883211889
100
AcDbArc
 50
179.739485186
 51
255.0913849247
  0
SPLINE
  5
110
330
9A
100
AcDbEntity
  8
DV1_Default
  6
Continuous
 62
     7
100
AcDbSpline
210
0.0
220
0.0
230
1.0
 70
     8
 71
     3
 72
     8
 73
     4
 74
     0
 42
0.000000001
 43
0.0000000001
 40
0.0
 40
0.0
 40
0.0
 40
0.0
 40
1.0
 40
1.0
 40
1.0
 40
1.0
 10
256.3127655889693
 20
599.213270645357
 30
0.0
 10
256.2837986516706
 20
599.2076114509256
 30
0.0
 10
256.2570508624334
 20
599.2021774359728
 30
0.0
 10
256.231355862558
 20
599.1959111443255
 30
0.0
  0
LINE
  5
111
330
9A
100
AcDbEntity
  8
DV1_Default
  6
Continuous
 62
     7
100
AcDbLine
 10
259.0037231341
 20
604.0796919971
 30
0.0
 11
258.9937231341
 21
604.0796919971
 31
0.0
  0
LINE
  5
112
330
9A
100
AcDbEntity
  8
DV1_Default
  6
Continuous
 62
     7
100
AcDbLine
 10
290.2037231341
 20
604.4647599762
 30
0.0
 11
290.2037231341
 21
522.494761135
 31
0.0
  0
ARC
  5
113
330
9A
100
AcDbEntity
  8
DV1_Default
  6
Continuous
 62
     7
100
AcDbCircle
 10
289.7037231341
 20
604.4647599762
 30
0.0
 40
0.5000000000000004
100
AcDbArc
 50
0.0
 51
89.0
  0
ARC
  5
114
330
9A
100
AcDbEntity
  8
DV1_Default
  6
Continuous
 62
     7
100
AcDbCircle
 10
289.7037231341
 20
522.494761135
 30
0.0
 40
0.4999999999999999
100
AcDbArc
 50
271.0
 51
0.0
  0
LINE
  5
115
330
9A
100
AcDbEntity
  8
DV1_Default
  6
Continuous
 62
     7
100
AcDbLine
 10
278.6537231341
 20
521.8018065035
 30
0.0
 11
289.7124493373
 21
521.9948372874
 31
0.0
  0
LINE
  5
116
330
9A
100
AcDbEntity
  8
DV1_Default
  6
Continuous
 62
     7
100
AcDbLine
 10
289.7124493373
 20
604.9646838238
 30
0.0
 11
264.0037231341
 21
605.4134313089
 31
0.0
  0
LINE
  5
117
330
9A
100
AcDbEntity
  8
DV1_Default
  6
Continuous
 62
     7
100
AcDbLine
 10
262.4037231341
 20
483.3199159585
 30
0.0
 11
259.6037231341
 21
483.3199159585
 31
0.0
  0
LINE
  5
118
330
9A
100
AcDbEntity
  8
DV1_Default
  6
Continuous
 62
     7
100
AcDbLine
 10
259.6037231341
 20
483.3199159585
 30
0.0
 11
259.6037231341
 21
484.7784024256
 31
0.0
  0
LINE
  5
119
330
9A
100
AcDbEntity
  8
DV1_Default
  6
Continuous
 62
     7
100
AcDbLine
 10
259.6037231341
 20
489.8871772106
 30
0.0
 11
259.6037231341
 21
484.7784024256
 31
0.0
  0
LINE
  5
11A
330
9A
100
AcDbEntity
  8
DV1_Default
  6
Continuous
 62
     7
100
AcDbLine
 10
259.6037231341
 20
489.8871772106
 30
0.0
 11
259.6037231341
 21
555.4840754552
 31
0.0
  0
LINE
  5
11B
330
9A
100
AcDbEntity
  8
DV1_Default
  6
Continuous
 62
     7
100
AcDbLine
 10
259.6037231341
 20
560.4218626918
 30
0.0
 11
259.6037231341
 21
555.4840754552
 31
0.0
  0
LINE
  5
11C
330
9A
100
AcDbEntity
  8
DV1_Default
  6
Continuous
 62
     7
100
AcDbLine
 10
259.6037231341
 20
560.4218626918
 30
0.0
 11
259.6037231341
 21
563.6757730824
 31
0.0
  0
ARC
  5
11D
330
9A
100
AcDbEntity
  8
DV1_Default
  6
Continuous
 62
     7
100
AcDbCircle
 10
255.8212849187
 20
332.2860720097
 30
0.0
 40
151.3142235905059
100
AcDbArc
 50
86.2932526982
 51
88.1886713456
  0
LINE
  5
11E
330
9A
100
AcDbEntity
  8
DV1_Default
  6
Continuous
 62
     7
100
AcDbLine
 10
261.1037231342
 20
489.8871772106
 30
0.0
 11
261.1037179995
 21
555.48407276
 31
0.0
  0
LINE
  5
11F
330
9A
100
AcDbEntity
  8
DV1_Default
  6
Continuous
 62
     7
100
AcDbLine
 10
261.1037179995
 20
555.48407276
 30
0.0
 11
261.103721491
 21
559.9445268957
 31
0.0
  0
LINE
  5
120
330
9A
100
AcDbEntity
  8
DV1_Default
  6
Continuous
 62
     7
100
AcDbLine
 10
261.1037231306
 20
559.9433920586
 30
0.0
 11
261.1037231376
 21
563.1757730826
 31
0.0
  0
LINE
  5
121
330
9A
100
AcDbEntity
  8
DV1_Default
  6
Continuous
 62
     7
100
AcDbLine
 10
261.1037231144
 20
485.2734379245
 30
0.0
 11
261.1037231316
 21
489.8871772106
 31
0.0
  0
LINE
  5
122
330
9A
100
AcDbEntity
  8
DV1_Default
  6
Continuous
 62
     7
100
AcDbLine
 10
261.1037231307
 20
485.0540899794
 30
0.0
 11
261.1037231311
 21
485.2734385037
 31
0.0
  0
LINE
  5
123
330
9A
100
AcDbEntity
  8
DV1_Default
  6
Continuous
 62
     7
100
AcDbLine
 10
261.103723138
 20
484.1058469466
 30
0.0
 11
261.1037231249
 21
485.0540516103
 31
0.0
  0
LINE
  5
124
330
9A
100
AcDbEntity
  8
DV1_Default
  6
Continuous
 62
     7
100
AcDbLine
 10
261.1037231369
 20
484.0088242797
 30
0.0
 11
261.1037231373
 21
484.10588769
 31
0.0
  0
LINE
  5
125
330
9A
100
AcDbEntity
  8
DV1_Default
  6
Continuous
 62
     7
100
AcDbLine
 10
261.1037231369
 20
484.0088242797
 30
0.0
 11
261.1037230998
 21
484.0612841441
 31
0.0
  0
LINE
  5
126
330
9A
100
AcDbEntity
  8
DV1_Default
  6
Continuous
 62
     7
100
AcDbLine
 10
261.1037231341
 20
555.4840754551
 30
0.0
 11
261.1037231341
 21
489.8871772106
 31
0.0
  0
ARC
  5
127
330
9A
100
AcDbEntity
  8
DV1_Default
  6
Continuous
 62
     7
100
AcDbCircle
 10
261.0915962118
 20
334.3530084564
 30
0.0
 40
149.7082761788677
100
AcDbArc
 50
88.2728745976
 51
89.9953588437
  0
LINE
  5
128
330
9A
100
AcDbEntity
  8
DV1_Default
  6
Continuous
 62
     7
100
AcDbLine
 10
274.4764593291
 20
485.6672661793
 30
0.0
 11
275.4491097181
 21
485.5501621864
 31
0.0
  0
LINE
  5
129
330
9A
100
AcDbEntity
  8
DV1_Default
  6
Continuous
 62
     7
100
AcDbLine
 10
274.378930923
 20
485.7842281219
 30
0.0
 11
274.4764678847
 21
485.6672675026
 31
0.0
  0
ARC
  5
12A
330
9A
100
AcDbEntity
  8
DV1_Default
  6
Continuous
 62
     7
100
AcDbCircle
 10
430.626011896
 20
489.2591031459
 30
0.0
 40
156.2857161054842
100
AcDbArc
 50
179.7697418816
 51
181.2740260892
  0
LINE
  5
12B
330
9A
100
AcDbEntity
  8
DV1_Default
  6
Continuous
 62
     7
100
AcDbLine
 10
277.2346302119
 20
489.8871765985
 30
0.0
 11
274.3415578311
 21
489.8871765985
 31
0.0
  0
LINE
  5
12C
330
9A
100
AcDbEntity
  8
DV1_Default
  6
Continuous
 62
     7
100
AcDbLine
 10
274.3415578358
 20
555.4840691868
 30
0.0
 11
277.2346302138
 21
555.4840754551
 31
0.0
  0
ARC
  5
12D
330
9A
100
AcDbEntity
  8
DV1_Default
  6
Continuous
 62
     7
100
AcDbCircle
 10
448.1798938184
 20
556.1126564617
 30
0.0
 40
173.8394724426591
100
AcDbArc
 50
178.9000207408
 51
180.2071766319
  0
ARC
  5
12E
330
9A
100
AcDbEntity
  8
DV1_Default
  6
Continuous
 62
     7
100
AcDbCircle
 10
290.9753288849
 20
555.6439211171
 30
0.0
 40
13.74162838258156
100
AcDbArc
 50
176.0908766863
 51
180.6664922162
  0
ARC
  5
12F
330
9A
100
AcDbEntity
  8
DV1_Default
  6
Continuous
 62
     7
100
AcDbCircle
 10
274.2983396677
 20
556.4818116532
 30
0.0
 40
2.96898041505428
100
AcDbArc
 50
1.9095822527
 51
88.569531515
  0
SPLINE
  5
130
330
9A
100
AcDbEntity
  8
DV1_Default
  6
Continuous
 62
     7
100
AcDbSpline
210
0.0
220
0.0
230
1.0
 70
     8
 71
     3
 72
    15
 73
    11
 74
     0
 42
0.000000001
 43
0.0000000001
 40
0.0
 40
0.0
 40
0.0
 40
0.0
 40
0.1273504128171012
 40
0.2540232141030506
 40
0.3800214042584122
 40
0.505348008905374
 40
0.6300060794618689
 40
0.7539986937242337
 40
0.8773289564584557
 40
1.0
 40
1.0
 40
1.0
 40
1.0
 10
274.3724566752059
 20
559.4498668033159
 30
0.0
 10
274.4035110217306
 20
559.7096251489229
 30
0.0
 10
274.4654544794827
 20
560.227759707098
 30
0.0
 10
274.5434425717409
 20
560.8761756592577
 30
0.0
 10
274.6101565782905
 20
561.4282184548857
 30
0.0
 10
274.6645592845135
 20
561.8757278861459
 30
0.0
 10
274.7069268332091
 20
562.222074045027
 30
0.0
 10
274.7371841612194
 20
562.4677243281125
 30
0.0
 10
274.7553573430346
 20
562.6141546259447
 30
0.0
 10
274.7594077665969
 20
562.6464669835351
 30
0.0
 10
274.7594131888774
 20
562.6465247234489
 30
0.0
  0
ARC
  5
131
330
9A
100
AcDbEntity
  8
DV1_Default
  6
Continuous
 62
     7
100
AcDbCircle
 10
6228.5825999579
 20
489.3370862038
 30
0.0
 40
5951.174262782906
100
AcDbArc
 50
179.4796894364
 51
179.9693290129
  0
ARC
  5
132
330
9A
100
AcDbEntity
  8
DV1_Default
  6
Continuous
 62
     7
100
AcDbCircle
 10
258.6989018387
 20
483.7637992049
 30
0.0
 40
19.23152036901554
100
AcDbArc
 50
13.4393995567
 51
15.0307735432
  0
LINE
  5
133
330
9A
100
AcDbEntity
  8
DV1_Default
  6
Continuous
 62
     7
100
AcDbLine
 10
277.4097796193
 20
492.5228074189
 30
0.0
 11
277.4037997146
 21
488.2335272419
 31
0.0
  0
ARC
  5
134
330
9A
100
AcDbEntity
  8
DV1_Default
  6
Continuous
 62
     7
100
AcDbCircle
 10
275.8315780269
 20
488.127435994
 30
0.0
 40
2.605571649236703
100
AcDbArc
 50
261.5561566377
 51
0.8332815919
  0
LINE
  5
135
330
9A
100
AcDbEntity
  8
DV1_Default
  6
Continuous
 62
     7
100
AcDbLine
 10
278.4368488363
 20
488.1653288087
 30
0.0
 11
278.4486769477
 21
492.5226858325
 31
0.0
  0
ARC
  5
136
330
9A
100
AcDbEntity
  8
DV1_Default
  6
Continuous
 62
     7
100
AcDbCircle
 10
274.8427308448
 20
488.202361481
 30
0.0
 40
2.561250537824972
100
AcDbArc
 50
261.7783051684
 51
0.6972026384
  0
ARC
  5
137
330
9A
100
AcDbEntity
  8
DV1_Default
  6
Continuous
 62
     7
100
AcDbCircle
 10
274.2699678051
 20
488.784919243
 30
0.0
 40
3.002668820604187
100
AcDbArc
 50
272.0796498328
 51
359.3577043168
  0
ARC
  5
138
330
9A
100
AcDbEntity
  8
DV1_Default
  6
Continuous
 62
     7
100
AcDbCircle
 10
10210.2688200652
 20
472.25698268
 30
0.0
 40
9931.840771388972
100
AcDbArc
 50
179.6137532996
 51
179.8830891381
  0
LINE
  5
139
330
9A
100
AcDbEntity
  8
DV1_Default
  6
Continuous
 62
     7
100
AcDbLine
 10
277.6537231341
 20
543.3797452219
 30
0.0
 11
278.6537231341
 21
539.209761824
 31
0.0
  0
ARC
  5
13A
330
9A
100
AcDbEntity
  8
DV1_Default
  6
Continuous
 62
     7
100
AcDbCircle
 10
260.6222499143
 20
484.005828144
 30
0.0
 40
0.4814825446966163
100
AcDbArc
 50
267.8376343919
 51
0.3565384505
  0
LINE
  5
13B
330
9A
100
AcDbEntity
  8
DV1_Default
  6
Continuous
 62
     7
100
AcDbLine
 10
262.4037231341
 20
483.2837480286
 30
0.0
 11
265.6037481341
 21
483.2837480286
 31
0.0
  0
ARC
  5
13C
330
9A
100
AcDbEntity
  8
DV1_Default
  6
Continuous
 62
     7
100
AcDbCircle
 10
260.6037229751
 20
563.1757730826
 30
0.0
 40
0.5000000812314903
100
AcDbArc
 50
0.0
 51
89.9999817719
  0
LINE
  5
13D
330
9A
100
AcDbEntity
  8
DV1_Default
  6
Continuous
 62
     7
100
AcDbLine
 10
265.6001087676
 20
483.9931464295
 30
0.0
 11
275.7610218494
 21
484.3479733326
 31
0.0
  0
ARC
  5
13E
330
9A
100
AcDbEntity
  8
DV1_Default
  6
Continuous
 62
     7
100
AcDbCircle
 10
274.6542952228
 20
559.6489423685
 30
0.0
 40
2.999428197280315
100
AcDbArc
 50
359.9749805167
 51
87.9915985398
  0
LINE
  5
13F
330
9A
100
AcDbEntity
  8
DV1_Default
  6
Continuous
 62
     7
100
AcDbLine
 10
274.7826272123
 20
562.6457140719
 30
0.0
 11
261.103723134
 21
563.1233919287
 31
0.0
  0
LINE
  5
140
330
9A
100
AcDbEntity
  8
DV1_Default
  6
Continuous
 62
     7
100
AcDbLine
 10
277.6537231341
 20
543.3797452219
 30
0.0
 11
277.6537231341
 21
559.6501439391
 31
0.0
  0
ARC
  5
141
330
9A
100
AcDbEntity
  8
DV1_Default
  6
Continuous
 62
     7
100
AcDbCircle
 10
275.6537231339
 20
487.3460550121
 30
0.0
 40
3.000000000068931
100
AcDbArc
 50
271.5221196651
 51
0.4794715047
  0
LINE
  5
142
330
9A
100
AcDbEntity
  8
DV1_Default
  6
Continuous
 62
     7
100
AcDbLine
 10
278.6537231341
 20
487.3358792196
 30
0.0
 11
278.6537231341
 21
539.2142794341
 31
0.0
  0
LINE
  5
143
330
9A
100
AcDbEntity
  8
DV1_Default
  6
Continuous
 62
     7
100
AcDbLine
 10
265.6037231341
 20
483.2837230286
 30
0.0
 11
265.6037231341
 21
483.9933819777
 31
0.0
  0
LINE
  5
144
330
9A
100
AcDbEntity
  8
DV1_Default
  6
Continuous
 62
     7
100
AcDbLine
 10
260.6037231341
 20
563.6757730825
 30
0.0
 11
259.6037231341
 21
563.6757730825
 31
0.0
  0
LINE
  5
145
330
9A
100
AcDbEntity
  8
DV1_Default
  6
Continuous
 62
     7
100
AcDbLine
 10
259.0037231341
 20
563.6757730825
 30
0.0
 11
259.0037231341
 21
560.4218626919
 31
0.0
  0
LINE
  5
146
330
9A
100
AcDbEntity
  8
DV1_Default
  6
Continuous
 62
     7
100
AcDbLine
 10
259.0037231341
 20
560.4218626919
 30
0.0
 11
259.0037231341
 21
555.4840754553
 31
0.0
  0
LINE
  5
147
330
9A
100
AcDbEntity
  8
DV1_Default
  6
Continuous
 62
     7
100
AcDbLine
 10
259.0037231341
 20
555.4840754553
 30
0.0
 11
259.0037231341
 21
489.8871772106
 31
0.0
  0
LINE
  5
148
330
9A
100
AcDbEntity
  8
DV1_Default
  6
Continuous
 62
     7
100
AcDbLine
 10
259.0037231341
 20
489.8871772106
 30
0.0
 11
259.0037231341
 21
484.7784024256
 31
0.0
  0
LINE
  5
149
330
9A
100
AcDbEntity
  8
DV1_Default
  6
Continuous
 62
     7
100
AcDbLine
 10
259.0037231341
 20
484.7784024256
 30
0.0
 11
259.0037231341
 21
483.3199159585
 31
0.0
  0
LINE
  5
14A
330
9A
100
AcDbEntity
  8
DV1_Default
  6
Continuous
 62
     7
100
AcDbLine
 10
256.8037231341
 20
483.3199159585
 30
0.0
 11
259.0037231341
 21
483.3199159585
 31
0.0
  0
ARC
  5
14B
330
9A
100
AcDbEntity
  8
DV1_Default
  6
Continuous
 62
     7
100
AcDbCircle
 10
262.7885865988
 20
332.2449603364
 30
0.0
 40
151.3554060492674
100
AcDbArc
 50
91.811617932
 51
93.7066573267
  0
LINE
  5
14C
330
9A
100
AcDbEntity
  8
DV1_Default
  6
Continuous
 62
     7
100
AcDbLine
 10
259.6037231341
 20
484.1201092113
 30
0.0
 11
259.0037231341
 21
484.1201092113
 31
0.0
  0
LINE
  5
14D
330
9A
100
AcDbEntity
  8
DV1_Default
  6
Continuous
 62
     7
100
AcDbLine
 10
257.5037231341
 20
489.8871772106
 30
0.0
 11
257.5037231341
 21
485.2734397704
 31
0.0
  0
LINE
  5
14E
330
9A
100
AcDbEntity
  8
DV1_Default
  6
Continuous
 62
     7
100
AcDbLine
 10
257.5037231341
 20
555.4840754553
 30
0.0
 11
257.5037231341
 21
489.8871772106
 31
0.0
  0
LINE
  5
14F
330
9A
100
AcDbEntity
  8
DV1_Default
  6
Continuous
 62
     7
100
AcDbLine
 10
257.5037231341
 20
559.9433925083
 30
0.0
 11
257.5037231341
 21
555.4840754553
 31
0.0
  0
LINE
  5
150
330
9A
100
AcDbEntity
  8
DV1_Default
  6
Continuous
 62
     7
100
AcDbLine
 10
257.5037231341
 20
559.9433933567
 30
0.0
 11
257.5037231341
 21
563.1757714318
 31
0.0
  0
LINE
  5
151
330
9A
100
AcDbEntity
  8
DV1_Default
  6
Continuous
 62
     7
100
AcDbLine
 10
257.5037231341
 20
485.2734407989
 30
0.0
 11
257.5037231341
 21
484.0088263505
 31
0.0
  0
SPLINE
  5
152
330
9A
100
AcDbEntity
  8
DV1_Default
  6
Continuous
 62
     7
100
AcDbSpline
210
0.0
220
0.0
230
1.0
 70
     8
 71
     3
 72
    14
 73
    10
 74
     0
 42
0.000000001
 43
0.0000000001
 40
0.0
 40
0.0
 40
0.0
 40
0.0
 40
0.2500019411088268
 40
0.2500019411088268
 40
0.5000038822176537
 40
0.5000038822176537
 40
0.7500058233264806
 40
0.7500058233264806
 40
0.9999999999999999
 40
0.9999999999999999
 40
0.9999999999999999
 40
0.9999999999999999
 10
257.5037231327846
 20
484.0612841433515
 30
0.0
 10
256.8110873880801
 20
484.0612304740211
 30
0.0
 10
256.1882449639395
 20
484.0564291730004
 30
0.0
 10
255.0775880795696
 20
484.042455166601
 30
0.0
 10
254.5920131655326
 20
484.0332319629821
 30
0.0
 10
253.8134357821566
 20
484.0159965052234
 30
0.0
 10
253.5093737112715
 20
484.0077959384971
 30
0.0
 10
253.1060398635484
 20
483.9964569380787
 30
0.0
 10
253.0037293632058
 20
483.9932724290275
 30
0.0
 10
253.0037231343669
 20
483.9932726456374
 30
0.0
  0
ARC
  5
153
330
9A
100
AcDbEntity
  8
DV1_Default
  6
Continuous
 62
     7
100
AcDbCircle
 10
257.985040089
 20
484.0056705797
 30
0.0
 40
0.4813272879718108
100
AcDbArc
 50
179.6245905971
 51
272.2245333724
  0
LINE
  5
154
330
9A
100
AcDbEntity
  8
DV1_Default
  6
Continuous
 62
     7
100
AcDbLine
 10
245.5037231341
 20
556.7199570001
 30
0.0
 11
245.5037231341
 21
559.8072718783
 31
0.0
  0
LINE
  5
155
330
9A
100
AcDbEntity
  8
DV1_Default
  6
Continuous
 62
     7
100
AcDbLine
 10
245.5037231341
 20
555.4840754553
 30
0.0
 11
245.5037231341
 21
556.7199603632
 31
0.0
  0
LINE
  5
156
330
9A
100
AcDbEntity
  8
DV1_Default
  6
Continuous
 62
     7
100
AcDbLine
 10
245.5037231341
 20
489.8871805463
 30
0.0
 11
245.5037231341
 21
555.4840754553
 31
0.0
  0
LINE
  5
157
330
9A
100
AcDbEntity
  8
DV1_Default
  6
Continuous
 62
     7
100
AcDbLine
 10
245.5037231341
 20
489.8871805463
 30
0.0
 11
245.5037231341
 21
488.6084956479
 31
0.0
  0
LINE
  5
158
330
9A
100
AcDbEntity
  8
DV1_Default
  6
Continuous
 62
     7
100
AcDbLine
 10
245.5037231341
 20
488.6084977638
 30
0.0
 11
245.5037231341
 21
487.1522473806
 31
0.0
  0
LINE
  5
159
330
9A
100
AcDbEntity
  8
DV1_Default
  6
Continuous
 62
     7
100
AcDbLine
 10
227.2037231341
 20
539.2320274315
 30
0.0
 11
227.2037231345
 21
542.7551096178
 31
0.0
  0
LINE
  5
15A
330
9A
100
AcDbEntity
  8
DV1_Default
  6
Continuous
 62
     7
100
AcDbLine
 10
227.2037231341
 20
537.7677843827
 30
0.0
 11
227.2037231341
 21
539.2320274315
 31
0.0
  0
LINE
  5
15B
330
9A
100
AcDbEntity
  8
DV1_Default
  6
Continuous
 62
     7
100
AcDbLine
 10
227.2037231345
 20
542.7551096178
 30
0.0
 11
227.2037231343
 21
545.1589065082
 31
0.0
  0
LINE
  5
15C
330
9A
100
AcDbEntity
  8
DV1_Default
  6
Continuous
 62
     7
100
AcDbLine
 10
227.2037231343
 20
545.1589065082
 30
0.0
 11
227.2037231341
 21
548.6819886944
 31
0.0
  0
LINE
  5
15D
330
9A
100
AcDbEntity
  8
DV1_Default
  6
Continuous
 62
     7
100
AcDbLine
 10
227.2037231341
 20
548.6819886944
 30
0.0
 11
227.2037231341
 21
550.1462317432
 31
0.0
  0
ARC
  5
15E
330
9A
100
AcDbEntity
  8
DV1_Default
  6
Continuous
 62
     7
100
AcDbCircle
 10
227.7037231341
 20
537.7677899475
 30
0.0
 40
0.5000000000000129
100
AcDbArc
 50
180.000637678
 51
269.0000111283
  0
LINE
  5
15F
330
9A
100
AcDbEntity
  8
DV1_Default
  6
Continuous
 62
     7
100
AcDbLine
 10
227.6949969568
 20
537.2678620192
 30
0.0
 11
245.5037231341
 21
536.957008063
 31
0.0
  0
LINE
  5
160
330
9A
100
AcDbEntity
  8
DV1_Default
  6
Continuous
 62
     7
100
AcDbLine
 10
227.6949969495
 20
550.6461545238
 30
0.0
 11
245.5037231341
 21
550.957008063
 31
0.0
  0
ARC
  5
161
330
9A
100
AcDbEntity
  8
DV1_Default
  6
Continuous
 62
     7
100
AcDbCircle
 10
227.7037231341
 20
550.1462317432
 30
0.0
 40
0.5000000000000004
100
AcDbArc
 50
90.9999999995
 51
180.0
  0
ELLIPSE
  5
162
330
9A
100
AcDbEntity
  8
DV1_Default
  6
Continuous
 62
     7
100
AcDbEllipse
 10
223.4563364983
 20
543.957008063
 30
0.0
 11
0.0
 21
2.000000000000002
 31
0.0
210
0.0
220
0.0
230
1.0
 40
0.0263066821
 41
0.0
 42
3.141592653589793
  0
ELLIPSE
  5
163
330
9A
100
AcDbEntity
  8
DV1_Default
  6
Continuous
 62
     7
100
AcDbEllipse
 10
216.7563364983
 20
543.957008063
 30
0.0
 11
0.0
 21
-1.674999999999999
 31
0.0
210
0.0
220
0.0
230
1.0
 40
0.0263066821
 41
3.141592653589793
 42
6.283185307179586
  0
ELLIPSE
  5
164
330
9A
100
AcDbEntity
  8
DV1_Default
  6
Continuous
 62
     7
100
AcDbEllipse
 10
216.7563364983
 20
543.957008063
 30
0.0
 11
0.0
 21
2.000000000000002
 31
0.0
210
0.0
220
0.0
230
1.0
 40
0.0263066821
 41
5.7050809426132
 42
6.283185307179586
  0
ELLIPSE
  5
165
330
9A
100
AcDbEntity
  8
DV1_Default
  6
Continuous
 62
     7
100
AcDbEllipse
 10
216.7563364983
 20
543.957008063
 30
0.0
 11
0.0
 21
2.000000000000002
 31
0.0
210
0.0
220
0.0
230
1.0
 40
0.0263066821
 41
0.0
 42
3.719697018156179
  0
LINE
  5
166
330
9A
100
AcDbEntity
  8
DV1_Default
  6
Continuous
 62
     7
100
AcDbLine
 10
253.0037231341
 20
483.2837480287
 30
0.0
 11
256.8037231341
 21
483.2837480287
 31
0.0
  0
LINE
  5
167
330
9A
100
AcDbEntity
  8
DV1_Default
  6
Continuous
 62
     7
100
AcDbLine
 10
259.6037231341
 20
562.8757730825
 30
0.0
 11
259.0037231341
 21
562.8757730825
 31
0.0
  0
LINE
  5
168
330
9A
100
AcDbEntity
  8
DV1_Default
  6
Continuous
 62
     7
100
AcDbLine
 10
259.0037231341
 20
563.6757730825
 30
0.0
 11
258.0037231341
 21
563.6757730825
 31
0.0
  0
ARC
  5
169
330
9A
100
AcDbEntity
  8
DV1_Default
  6
Continuous
 62
     7
100
AcDbCircle
 10
258.0037231341
 20
563.1757730825
 30
0.0
 40
0.4999999999999935
100
AcDbArc
 50
90.0
 51
180.0000013086
  0
LINE
  5
16A
330
9A
100
AcDbEntity
  8
DV1_Default
  6
Continuous
 62
     7
100
AcDbLine
 10
248.3990246527
 20
484.1540722599
 30
0.0
 11
253.0037262426
 21
483.9932725371
 31
0.0
  0
LINE
  5
16B
330
9A
100
AcDbEntity
  8
DV1_Default
  6
Continuous
 62
     7
100
AcDbLine
 10
253.0037231341
 20
483.9932726457
 30
0.0
 11
253.0037231341
 21
483.2837480287
 31
0.0
  0
ARC
  5
16C
330
9A
100
AcDbEntity
  8
DV1_Default
  6
Continuous
 62
     7
100
AcDbCircle
 10
248.5037231341
 20
559.8072763699
 30
0.0
 40
3.000000000001932
100
AcDbArc
 50
91.9999999733
 51
180.0000428925
  0
ARC
  5
16D
330
9A
100
AcDbEntity
  8
DV1_Default
  6
Continuous
 62
     7
100
AcDbCircle
 10
248.5037231341
 20
487.1522447413
 30
0.0
 40
3.000000000000186
100
AcDbArc
 50
179.9999798911
 51
268.0000001668
  0
LINE
  5
16E
330
9A
100
AcDbEntity
  8
DV1_Default
  6
Continuous
 62
     7
100
AcDbLine
 10
223.4563364983
 20
541.957008063
 30
0.0
 11
227.2037231341
 21
541.957008063
 31
0.0
  0
LINE
  5
16F
330
9A
100
AcDbEntity
  8
DV1_Default
  6
Continuous
 62
     7
100
AcDbLine
 10
227.2037231341
 20
545.957008063
 30
0.0
 11
223.4563364983
 21
545.957008063
 31
0.0
  0
LINE
  5
170
330
9A
100
AcDbEntity
  8
DV1_Default
  6
Continuous
 62
     7
100
AcDbLine
 10
216.7563364983
 20
542.282008063
 30
0.0
 11
223.4275865923
 21
542.282008063
 31
0.0
  0
LINE
  5
171
330
9A
100
AcDbEntity
  8
DV1_Default
  6
Continuous
 62
     7
100
AcDbLine
 10
223.4275865923
 20
545.632008063
 30
0.0
 11
216.7563364983
 21
545.632008063
 31
0.0
  0
LINE
  5
172
330
9A
100
AcDbEntity
  8
DV1_Default
  6
Continuous
 62
     7
100
AcDbLine
 10
210.2030309728
 20
541.957008063
 30
0.0
 11
216.7563364983
 21
541.957008063
 31
0.0
  0
LINE
  5
173
330
9A
100
AcDbEntity
  8
DV1_Default
  6
Continuous
 62
     7
100
AcDbLine
 10
216.7563364983
 20
545.957008063
 30
0.0
 11
210.2030309728
 21
545.957008063
 31
0.0
  0
ARC
  5
174
330
9A
100
AcDbEntity
  8
DV1_Default
  6
Continuous
 62
     7
100
AcDbCircle
 10
210.2030309728
 20
543.957008063
 30
0.0
 40
1.999999999999998
100
AcDbArc
 50
90.0
 51
270.0
  0
LINE
  5
175
330
9A
100
AcDbEntity
  8
DV1_Default
  6
Continuous
 62
     7
100
AcDbLine
 10
257.5037231341
 20
563.1233919283
 30
0.0
 11
248.3990246454
 21
562.8054488511
 31
0.0
  0
LINE
  5
176
330
9A
100
AcDbEntity
  8
DV1_Default
  6
Continuous
 62
     7
100
AcDbLine
 10
256.8037231341
 20
482.9797605556
 30
0.0
 11
256.8037231341
 21
483.319919232
 31
0.0
  0
LINE
  5
177
330
9A
100
AcDbEntity
  8
DV1_Default
  6
Continuous
 62
     7
100
AcDbLine
 10
263.7102787205
 20
467.5797605556
 30
0.0
 11
255.4971675477
 21
467.5797605556
 31
0.0
  0
LINE
  5
178
330
9A
100
AcDbEntity
  8
DV1_Default
  6
Continuous
 62
     7
100
AcDbLine
 10
254.9737231341
 20
477.4797605556
 30
0.0
 11
258.7037231341
 21
477.4797605556
 31
0.0
  0
LINE
  5
179
330
9A
100
AcDbEntity
  8
DV1_Default
  6
Continuous
 62
     7
100
AcDbLine
 10
258.7037231341
 20
477.4797605556
 30
0.0
 11
258.7037231341
 21
478.6797605556
 31
0.0
  0
LINE
  5
17A
330
9A
100
AcDbEntity
  8
DV1_Default
  6
Continuous
 62
     7
100
AcDbLine
 10
258.7037231341
 20
478.6797605556
 30
0.0
 11
254.9337231341
 21
478.6797605556
 31
0.0
  0
LINE
  5
17B
330
9A
100
AcDbEntity
  8
DV1_Default
  6
Continuous
 62
     7
100
AcDbLine
 10
255.1070564674
 20
473.4797605556
 30
0.0
 11
258.7037231341
 21
473.4797605556
 31
0.0
  0
LINE
  5
17C
330
9A
100
AcDbEntity
  8
DV1_Default
  6
Continuous
 62
     7
100
AcDbLine
 10
258.7037231341
 20
472.2797605556
 30
0.0
 11
255.1470564674
 21
472.2797605556
 31
0.0
  0
LINE
  5
17D
330
9A
100
AcDbEntity
  8
DV1_Default
  6
Continuous
 62
     7
100
AcDbLine
 10
258.7037231341
 20
472.2797605556
 30
0.0
 11
258.7037231341
 21
473.4797605556
 31
0.0
  0
LINE
  5
17E
330
9A
100
AcDbEntity
  8
DV1_Default
  6
Continuous
 62
     7
100
AcDbLine
 10
260.5037231341
 20
478.6797605556
 30
0.0
 11
264.2737231341
 21
478.6797605556
 31
0.0
  0
LINE
  5
17F
330
9A
100
AcDbEntity
  8
DV1_Default
  6
Continuous
 62
     7
100
AcDbLine
 10
260.5037231341
 20
478.6797605556
 30
0.0
 11
260.5037231341
 21
477.4797605556
 31
0.0
  0
LINE
  5
180
330
9A
100
AcDbEntity
  8
DV1_Default
  6
Continuous
 62
     7
100
AcDbLine
 10
260.5037231341
 20
477.4797605556
 30
0.0
 11
264.2337231341
 21
477.4797605556
 31
0.0
  0
LINE
  5
181
330
9A
100
AcDbEntity
  8
DV1_Default
  6
Continuous
 62
     7
100
AcDbLine
 10
264.0603898007
 20
472.2797605556
 30
0.0
 11
260.5037231341
 21
472.2797605556
 31
0.0
  0
LINE
  5
182
330
9A
100
AcDbEntity
  8
DV1_Default
  6
Continuous
 62
     7
100
AcDbLine
 10
260.5037231341
 20
473.4797605556
 30
0.0
 11
264.1003898007
 21
473.4797605556
 31
0.0
  0
LINE
  5
183
330
9A
100
AcDbEntity
  8
DV1_Default
  6
Continuous
 62
     7
100
AcDbLine
 10
260.5037231341
 20
473.4797605556
 30
0.0
 11
260.5037231341
 21
472.2797605556
 31
0.0
  0
LINE
  5
184
330
9A
100
AcDbEntity
  8
DV1_Default
  6
Continuous
 62
     7
100
AcDbLine
 10
264.0570227847
 20
474.8797605556
 30
0.0
 11
264.097824206
 21
476.0797605556
 31
0.0
  0
LINE
  5
185
330
9A
100
AcDbEntity
  8
DV1_Default
  6
Continuous
 62
     7
100
AcDbLine
 10
255.1096220622
 20
476.0797605556
 30
0.0
 11
264.097824206
 21
476.0797605556
 31
0.0
  0
LINE
  5
186
330
9A
100
AcDbEntity
  8
DV1_Default
  6
Continuous
 62
     7
100
AcDbLine
 10
255.1096220622
 20
476.0797605556
 30
0.0
 11
255.1504234835
 21
474.8797605556
 31
0.0
  0
LINE
  5
187
330
9A
100
AcDbEntity
  8
DV1_Default
  6
Continuous
 62
     7
100
AcDbLine
 10
264.0570227847
 20
474.8797605556
 30
0.0
 11
255.1504234835
 21
474.8797605556
 31
0.0
  0
LINE
  5
188
330
9A
100
AcDbEntity
  8
DV1_Default
  6
Continuous
 62
     7
100
AcDbLine
 10
263.8800416442
 20
469.6797605556
 30
0.0
 11
255.327404624
 21
469.6797605556
 31
0.0
  0
LINE
  5
189
330
9A
100
AcDbEntity
  8
DV1_Default
  6
Continuous
 62
     7
100
AcDbLine
 10
263.8800416442
 20
469.6797605556
 30
0.0
 11
263.920909718
 21
470.8797605556
 31
0.0
  0
LINE
  5
18A
330
9A
100
AcDbEntity
  8
DV1_Default
  6
Continuous
 62
     7
100
AcDbLine
 10
255.2865365502
 20
470.8797605556
 30
0.0
 11
263.920909718
 21
470.8797605556
 31
0.0
  0
LINE
  5
18B
330
9A
100
AcDbEntity
  8
DV1_Default
  6
Continuous
 62
     7
100
AcDbLine
 10
255.2865365502
 20
470.8797605556
 30
0.0
 11
255.327404624
 21
469.6797605556
 31
0.0
  0
LINE
  5
18C
330
9A
100
AcDbEntity
  8
DV1_Default
  6
Continuous
 62
     7
100
AcDbLine
 10
254.0037231341
 20
481.0797605556
 30
0.0
 11
265.2037231341
 21
481.0797605556
 31
0.0
  0
LINE
  5
18D
330
9A
100
AcDbEntity
  8
DV1_Default
  6
Continuous
 62
     7
100
AcDbLine
 10
253.8037231341
 20
482.9797605556
 30
0.0
 11
265.4037231341
 21
482.9797605556
 31
0.0
  0
LINE
  5
18E
330
9A
100
AcDbEntity
  8
DV1_Default
  6
Continuous
 62
     7
100
AcDbLine
 10
262.4037231341
 20
482.9797605556
 30
0.0
 11
262.4037231341
 21
483.3199159584
 31
0.0
  0
LINE
  5
18F
330
9A
100
AcDbEntity
  8
DV1_Default
  6
Continuous
 62
     7
100
AcDbLine
 10
258.5037231341
 20
467.5797605556
 30
0.0
 11
258.5037231341
 21
459.5797605556
 31
0.0
  0
LINE
  5
190
330
9A
100
AcDbEntity
  8
DV1_Default
  6
Continuous
 62
     7
100
AcDbLine
 10
260.7037231341
 20
459.5797605556
 30
0.0
 11
260.7037231341
 21
467.5797605556
 31
0.0
  0
LINE
  5
191
330
9A
100
AcDbEntity
  8
DV1_Default
  6
Continuous
 62
     7
100
AcDbLine
 10
260.7037231341
 20
477.4797605556
 30
0.0
 11
260.7037231341
 21
478.6797605556
 31
0.0
  0
LINE
  5
192
330
9A
100
AcDbEntity
  8
DV1_Default
  6
Continuous
 62
     7
100
AcDbLine
 10
260.7037231341
 20
472.2797605556
 30
0.0
 11
260.7037231341
 21
473.4797605556
 31
0.0
  0
LINE
  5
193
330
9A
100
AcDbEntity
  8
DV1_Default
  6
Continuous
 62
     7
100
AcDbLine
 10
258.5037231341
 20
478.6797605556
 30
0.0
 11
258.5037231341
 21
477.4797605556
 31
0.0
  0
LINE
  5
194
330
9A
100
AcDbEntity
  8
DV1_Default
  6
Continuous
 62
     7
100
AcDbLine
 10
258.5037231341
 20
473.4797605556
 30
0.0
 11
258.5037231341
 21
472.2797605556
 31
0.0
  0
LINE
  5
195
330
9A
100
AcDbEntity
  8
DV1_Default
  6
Continuous
 62
     7
100
AcDbLine
 10
258.5037231341
 20
470.8797605556
 30
0.0
 11
258.5037231341
 21
469.6797605556
 31
0.0
  0
LINE
  5
196
330
9A
100
AcDbEntity
  8
DV1_Default
  6
Continuous
 62
     7
100
AcDbLine
 10
260.7037231341
 20
469.6797605556
 30
0.0
 11
260.7037231341
 21
470.8797605556
 31
0.0
  0
LINE
  5
197
330
9A
100
AcDbEntity
  8
DV1_Default
  6
Continuous
 62
     7
100
AcDbLine
 10
258.5037231341
 20
476.0797605556
 30
0.0
 11
258.5037231341
 21
474.8797605556
 31
0.0
  0
LINE
  5
198
330
9A
100
AcDbEntity
  8
DV1_Default
  6
Continuous
 62
     7
100
AcDbLine
 10
260.7037231341
 20
474.8797605556
 30
0.0
 11
260.7037231341
 21
476.0797605556
 31
0.0
  0
ARC
  5
199
330
9A
100
AcDbEntity
  8
DV1_Default
  6
Continuous
 62
     7
100
AcDbCircle
 10
263.7102787205
 20
467.7797605556
 30
0.0
 40
0.2000000000000057
100
AcDbArc
 50
270.0
 51
358.090847566
  0
ARC
  5
19A
330
9A
100
AcDbEntity
  8
DV1_Default
  6
Continuous
 62
     7
100
AcDbCircle
 10
255.4971675477
 20
467.7797605556
 30
0.0
 40
0.2000000000001434
100
AcDbArc
 50
181.909152434
 51
270.0
  0
LINE
  5
19B
330
9A
100
AcDbEntity
  8
DV1_Default
  6
Continuous
 62
     7
100
AcDbLine
 10
255.1470564674
 20
472.2797605556
 30
0.0
 11
255.2972785663
 21
467.7730975896
 31
0.0
  0
LINE
  5
19C
330
9A
100
AcDbEntity
  8
DV1_Default
  6
Continuous
 62
     7
100
AcDbLine
 10
254.9737231341
 20
477.4797605556
 30
0.0
 11
255.1070564674
 21
473.4797605556
 31
0.0
  0
LINE
  5
19D
330
9A
100
AcDbEntity
  8
DV1_Default
  6
Continuous
 62
     7
100
AcDbLine
 10
254.8537231341
 20
481.0797605556
 30
0.0
 11
254.9337231341
 21
478.6797605556
 31
0.0
  0
LINE
  5
19E
330
9A
100
AcDbEntity
  8
DV1_Default
  6
Continuous
 62
     7
100
AcDbLine
 10
264.2737231341
 20
478.6797605556
 30
0.0
 11
264.3537231341
 21
481.0797605556
 31
0.0
  0
LINE
  5
19F
330
9A
100
AcDbEntity
  8
DV1_Default
  6
Continuous
 62
     7
100
AcDbLine
 10
264.1003898007
 20
473.4797605556
 30
0.0
 11
264.2337231341
 21
477.4797605556
 31
0.0
  0
LINE
  5
1A0
330
9A
100
AcDbEntity
  8
DV1_Default
  6
Continuous
 62
     7
100
AcDbLine
 10
263.9101677019
 20
467.7730975896
 30
0.0
 11
264.0603898007
 21
472.2797605556
 31
0.0
  0
ARC
  5
1A1
330
9A
100
AcDbEntity
  8
DV1_Default
  6
Continuous
 62
     7
100
AcDbCircle
 10
265.2037231341
 20
481.2797605556
 30
0.0
 40
0.2000000000000057
100
AcDbArc
 50
270.0
 51
0.0
  0
ARC
  5
1A2
330
9A
100
AcDbEntity
  8
DV1_Default
  6
Continuous
 62
     7
100
AcDbCircle
 10
254.0037231341
 20
481.2797605556
 30
0.0
 40
0.1999999999999997
100
AcDbArc
 50
180.0
 51
270.0
  0
LINE
  5
1A3
330
9A
100
AcDbEntity
  8
DV1_Default
  6
Continuous
 62
     7
100
AcDbLine
 10
265.4037231341
 20
481.2797605556
 30
0.0
 11
265.4037231341
 21
482.9797605556
 31
0.0
  0
LINE
  5
1A4
330
9A
100
AcDbEntity
  8
DV1_Default
  6
Continuous
 62
     7
100
AcDbLine
 10
253.8037231341
 20
482.9797605556
 30
0.0
 11
253.8037231341
 21
481.2797605556
 31
0.0
  0
ENDBLK
  5
1A6
330
9A
100
AcDbEntity
  8
0
100
AcDbBlockEnd
  0
BLOCK
  5
283
330
1A7
100
AcDbEntity
  8
0
100
AcDbBlockBegin
  2
SE1
 70
     0
 10
0.0
 20
0.0
 30
0.0
  3
SE1
  1
SE1
  0
LINE
  5
1AA
330
1A7
100
AcDbEntity
  8
DV2_Default
  6
Continuous
 62
     7
100
AcDbLine
 10
44.2212754115
 20
332.7797605556
 30
0.0
 11
36.0212754115
 21
332.7797605556
 31
0.0
  0
LINE
  5
1AB
330
1A7
100
AcDbEntity
  8
DV2_Default
  6
Continuous
 62
     7
100
AcDbLine
 10
44.2212754115
 20
340.6797605556
 30
0.0
 11
36.0212754115
 21
340.6797605556
 31
0.0
  0
LINE
  5
1AC
330
1A7
100
AcDbEntity
  8
DV2_Default
  6
Continuous
 62
     7
100
AcDbLine
 10
44.2212754115
 20
342.6797605556
 30
0.0
 11
36.0212754115
 21
342.6797605556
 31
0.0
  0
LINE
  5
1AD
330
1A7
100
AcDbEntity
  8
DV2_Default
  6
Continuous
 62
     7
100
AcDbLine
 10
44.2212754115
 20
344.4797605556
 30
0.0
 11
36.0212754115
 21
344.4797605556
 31
0.0
  0
LINE
  5
1AE
330
1A7
100
AcDbEntity
  8
DV2_Default
  6
Continuous
 62
     7
100
AcDbLine
 10
44.2212754115
 20
346.4797605556
 30
0.0
 11
36.0212754115
 21
346.4797605556
 31
0.0
  0
LINE
  5
1AF
330
1A7
100
AcDbEntity
  8
DV2_Default
  6
Continuous
 62
     7
100
AcDbLine
 10
44.2212754115
 20
349.0300023849
 30
0.0
 11
36.0212754115
 21
349.0300023849
 31
0.0
  0
LINE
  5
1B0
330
1A7
100
AcDbEntity
  8
DV2_Default
  6
Continuous
 62
     7
100
AcDbLine
 10
42.4212754115
 20
353.4797605556
 30
0.0
 11
37.8212754115
 21
353.4797605556
 31
0.0
  0
LINE
  5
1B1
330
1A7
100
AcDbEntity
  8
DV2_Default
  6
Continuous
 62
     7
100
AcDbLine
 10
42.4212754115
 20
354.8643015276
 30
0.0
 11
37.8212754115
 21
354.8643015276
 31
0.0
  0
LINE
  5
1B2
330
1A7
100
AcDbEntity
  8
DV2_Default
  6
Continuous
 62
     7
100
AcDbLine
 10
42.4212754115
 20
356.3259750701
 30
0.0
 11
37.8212754115
 21
356.3259750701
 31
0.0
  0
LINE
  5
1B3
330
1A7
100
AcDbEntity
  8
DV2_Default
  6
Continuous
 62
     7
100
AcDbLine
 10
42.4212754115
 20
359.7797605556
 30
0.0
 11
37.8212754115
 21
359.7797605556
 31
0.0
  0
LINE
  5
1B4
330
1A7
100
AcDbEntity
  8
DV2_Default
  6
Continuous
 62
     7
100
AcDbLine
 10
36.0212754115
 20
340.6797605556
 30
0.0
 11
36.0212754115
 21
332.7797605556
 31
0.0
  0
LINE
  5
1B5
330
1A7
100
AcDbEntity
  8
DV2_Default
  6
Continuous
 62
     7
100
AcDbLine
 10
44.2212754115
 20
332.7797605556
 30
0.0
 11
44.2212754115
 21
340.6797605556
 31
0.0
  0
LINE
  5
1B6
330
1A7
100
AcDbEntity
  8
DV2_Default
  6
Continuous
 62
     7
100
AcDbLine
 10
36.5212754115
 20
342.6797605556
 30
0.0
 11
36.5212754115
 21
340.6797605556
 31
0.0
  0
LINE
  5
1B7
330
1A7
100
AcDbEntity
  8
DV2_Default
  6
Continuous
 62
     7
100
AcDbLine
 10
43.7212754115
 20
340.6797605556
 30
0.0
 11
43.7212754115
 21
342.6797605556
 31
0.0
  0
LINE
  5
1B8
330
1A7
100
AcDbEntity
  8
DV2_Default
  6
Continuous
 62
     7
100
AcDbLine
 10
36.0212754115
 20
344.4797605556
 30
0.0
 11
36.0212754115
 21
342.6797605556
 31
0.0
  0
LINE
  5
1B9
330
1A7
100
AcDbEntity
  8
DV2_Default
  6
Continuous
 62
     7
100
AcDbLine
 10
44.2212754115
 20
342.6797605556
 30
0.0
 11
44.2212754115
 21
344.4797605556
 31
0.0
  0
LINE
  5
1BA
330
1A7
100
AcDbEntity
  8
DV2_Default
  6
Continuous
 62
     7
100
AcDbLine
 10
36.5212754115
 20
346.4797605556
 30
0.0
 11
36.5212754115
 21
344.4797605556
 31
0.0
  0
LINE
  5
1BB
330
1A7
100
AcDbEntity
  8
DV2_Default
  6
Continuous
 62
     7
100
AcDbLine
 10
43.7212754115
 20
344.4797605556
 30
0.0
 11
43.7212754115
 21
346.4797605556
 31
0.0
  0
LINE
  5
1BC
330
1A7
100
AcDbEntity
  8
DV2_Default
  6
Continuous
 62
     7
100
AcDbLine
 10
36.0212754115
 20
349.0300023849
 30
0.0
 11
36.0212754115
 21
346.4797605556
 31
0.0
  0
LINE
  5
1BD
330
1A7
100
AcDbEntity
  8
DV2_Default
  6
Continuous
 62
     7
100
AcDbLine
 10
44.2212754115
 20
346.4797605556
 30
0.0
 11
44.2212754115
 21
349.0300023849
 31
0.0
  0
LINE
  5
1BE
330
1A7
100
AcDbEntity
  8
DV2_Default
  6
Continuous
 62
     7
100
AcDbLine
 10
44.2212754115
 20
349.0300023849
 30
0.0
 11
42.4212754115
 21
353.4797605556
 31
0.0
  0
LINE
  5
1BF
330
1A7
100
AcDbEntity
  8
DV2_Default
  6
Continuous
 62
     7
100
AcDbLine
 10
37.8212754115
 20
353.4797605556
 30
0.0
 11
36.0212754115
 21
349.0300023849
 31
0.0
  0
LINE
  5
1C0
330
1A7
100
AcDbEntity
  8
DV2_Default
  6
Continuous
 62
     7
100
AcDbLine
 10
37.8212754115
 20
354.8643015276
 30
0.0
 11
37.8212754115
 21
353.4797605556
 31
0.0
  0
LINE
  5
1C1
330
1A7
100
AcDbEntity
  8
DV2_Default
  6
Continuous
 62
     7
100
AcDbLine
 10
42.4212754115
 20
353.4797605556
 30
0.0
 11
42.4212754115
 21
354.8643015276
 31
0.0
  0
ARC
  5
1C2
330
1A7
100
AcDbEntity
  8
DV2_Default
  6
Continuous
 62
     7
100
AcDbCircle
 10
36.5058581409
 20
355.5951382989
 30
0.0
 40
1.504807290627041
100
AcDbArc
 50
330.9437517292
 51
29.0562482709
  0
ARC
  5
1C3
330
1A7
100
AcDbEntity
  8
DV2_Default
  6
Continuous
 62
     7
100
AcDbCircle
 10
43.736692682
 20
355.5951382989
 30
0.0
 40
1.504807290627046
100
AcDbArc
 50
150.9437517291
 51
209.0562482708
  0
LINE
  5
1C4
330
1A7
100
AcDbEntity
  8
DV2_Default
  6
Continuous
 62
     7
100
AcDbLine
 10
37.8212754115
 20
359.7797605556
 30
0.0
 11
37.8212754115
 21
356.3259750701
 31
0.0
  0
LINE
  5
1C5
330
1A7
100
AcDbEntity
  8
DV2_Default
  6
Continuous
 62
     7
100
AcDbLine
 10
42.4212754115
 20
356.3259750701
 30
0.0
 11
42.4212754115
 21
359.7797605556
 31
0.0
  0
LINE
  5
1C6
330
1A7
100
AcDbEntity
  8
DV2_Default
  6
Continuous
 62
     7
100
AcDbLine
 10
139.0212754115
 20
483.4797605556
 30
0.0
 11
139.0212754115
 21
523.294813125
 31
0.0
  0
LINE
  5
1C7
330
1A7
100
AcDbEntity
  8
DV2_Default
  6
Continuous
 62
     7
100
AcDbLine
 10
136.8212754115
 20
523.4154372742
 30
0.0
 11
136.8212754115
 21
483.4797605556
 31
0.0
  0
LINE
  5
1C8
330
1A7
100
AcDbEntity
  8
DV2_Default
  6
Continuous
 62
     7
100
AcDbLine
 10
42.3212754115
 20
359.7797605556
 30
0.0
 11
42.3212754115
 21
459.5797605556
 31
0.0
  0
LINE
  5
1C9
330
1A7
100
AcDbEntity
  8
DV2_Default
  6
Continuous
 62
     7
100
AcDbLine
 10
40.1212754115
 20
459.5797605556
 30
0.0
 11
40.1212754115
 21
359.7797605556
 31
0.0
  0
LINE
  5
1CA
330
1A7
100
AcDbEntity
  8
DV2_Default
  6
Continuous
 62
     7
100
AcDbLine
 10
135.9212754115
 20
461.1613942016
 30
0.0
 11
141.0212754115
 21
461.1613942016
 31
0.0
  0
LINE
  5
1CB
330
1A7
100
AcDbEntity
  8
DV2_Default
  6
Continuous
 62
     7
100
AcDbLine
 10
135.9212754115
 20
461.3613942016
 30
0.0
 11
141.0212754115
 21
461.3613942016
 31
0.0
  0
LINE
  5
1CC
330
1A7
100
AcDbEntity
  8
DV2_Default
  6
Continuous
 62
     7
100
AcDbLine
 10
134.7212754115
 20
463.5322931191
 30
0.0
 11
141.1212754115
 21
463.5322931191
 31
0.0
  0
LINE
  5
1CD
330
1A7
100
AcDbEntity
  8
DV2_Default
  6
Continuous
 62
     7
100
AcDbLine
 10
134.7212754115
 20
466.0322931191
 30
0.0
 11
141.1212754115
 21
466.0322931191
 31
0.0
  0
LINE
  5
1CE
330
1A7
100
AcDbEntity
  8
DV2_Default
  6
Continuous
 62
     7
100
AcDbLine
 10
134.7212754115
 20
468.5322931191
 30
0.0
 11
141.1212754115
 21
468.5322931191
 31
0.0
  0
LINE
  5
1CF
330
1A7
100
AcDbEntity
  8
DV2_Default
  6
Continuous
 62
     7
100
AcDbLine
 10
134.7212754115
 20
471.0322931191
 30
0.0
 11
141.1212754115
 21
471.0322931191
 31
0.0
  0
LINE
  5
1D0
330
1A7
100
AcDbEntity
  8
DV2_Default
  6
Continuous
 62
     7
100
AcDbLine
 10
134.7212754115
 20
473.5322931191
 30
0.0
 11
141.1212754115
 21
473.5322931191
 31
0.0
  0
LINE
  5
1D1
330
1A7
100
AcDbEntity
  8
DV2_Default
  6
Continuous
 62
     7
100
AcDbLine
 10
134.8734809116
 20
475.8820817332
 30
0.0
 11
140.9690699113
 21
475.8820817332
 31
0.0
  0
LINE
  5
1D2
330
1A7
100
AcDbEntity
  8
DV2_Default
  6
Continuous
 62
     7
100
AcDbLine
 10
135.4212754115
 20
476.832667577
 30
0.0
 11
140.4212754115
 21
476.832667577
 31
0.0
  0
LINE
  5
1D3
330
1A7
100
AcDbEntity
  8
DV2_Default
  6
Continuous
 62
     7
100
AcDbLine
 10
135.4212754115
 20
477.4797605556
 30
0.0
 11
140.4212754115
 21
477.4797605556
 31
0.0
  0
LINE
  5
1D4
330
1A7
100
AcDbEntity
  8
DV2_Default
  6
Continuous
 62
     7
100
AcDbLine
 10
135.6712754115
 20
483.4797605556
 30
0.0
 11
140.1712754115
 21
483.4797605556
 31
0.0
  0
LINE
  5
1D5
330
1A7
100
AcDbEntity
  8
DV2_Default
  6
Continuous
 62
     7
100
AcDbLine
 10
135.9212754115
 20
456.2613942016
 30
0.0
 11
140.9212754115
 21
456.2613942016
 31
0.0
  0
LINE
  5
1D6
330
1A7
100
AcDbEntity
  8
DV2_Default
  6
Continuous
 62
     7
100
AcDbLine
 10
135.9212754115
 20
457.3613942016
 30
0.0
 11
141.0212754115
 21
457.3613942016
 31
0.0
  0
LINE
  5
1D7
330
1A7
100
AcDbEntity
  8
DV2_Default
  6
Continuous
 62
     7
100
AcDbLine
 10
135.9212754115
 20
457.5613942016
 30
0.0
 11
141.0212754115
 21
457.5613942016
 31
0.0
  0
LINE
  5
1D8
330
1A7
100
AcDbEntity
  8
DV2_Default
  6
Continuous
 62
     7
100
AcDbLine
 10
135.9212754115
 20
459.3613942016
 30
0.0
 11
141.0212754115
 21
459.3613942016
 31
0.0
  0
LINE
  5
1D9
330
1A7
100
AcDbEntity
  8
DV2_Default
  6
Continuous
 62
     7
100
AcDbLine
 10
135.9212754115
 20
459.5613942016
 30
0.0
 11
141.0212754115
 21
459.5613942016
 31
0.0
  0
LINE
  5
1DA
330
1A7
100
AcDbEntity
  8
DV2_Default
  6
Continuous
 62
     7
100
AcDbLine
 10
135.9212754115
 20
461.3613942016
 30
0.0
 11
135.9212754115
 21
461.1613942016
 31
0.0
  0
LINE
  5
1DB
330
1A7
100
AcDbEntity
  8
DV2_Default
  6
Continuous
 62
     7
100
AcDbLine
 10
135.9212754115
 20
462.4813942016
 30
0.0
 11
134.9212754115
 21
462.4813942016
 31
0.0
  0
LINE
  5
1DC
330
1A7
100
AcDbEntity
  8
DV2_Default
  6
Continuous
 62
     7
100
AcDbLine
 10
135.9212754115
 20
462.4813942016
 30
0.0
 11
135.9212754115
 21
461.3613942016
 31
0.0
  0
LINE
  5
1DD
330
1A7
100
AcDbEntity
  8
DV2_Default
  6
Continuous
 62
     7
100
AcDbLine
 10
135.9212754115
 20
461.1613942016
 30
0.0
 11
135.9212754115
 21
459.5613942016
 31
0.0
  0
LINE
  5
1DE
330
1A7
100
AcDbEntity
  8
DV2_Default
  6
Continuous
 62
     7
100
AcDbLine
 10
135.9212754115
 20
459.5613942016
 30
0.0
 11
135.9212754115
 21
459.3613942016
 31
0.0
  0
LINE
  5
1DF
330
1A7
100
AcDbEntity
  8
DV2_Default
  6
Continuous
 62
     7
100
AcDbLine
 10
135.9212754115
 20
459.3613942016
 30
0.0
 11
135.9212754115
 21
457.5613942016
 31
0.0
  0
LINE
  5
1E0
330
1A7
100
AcDbEntity
  8
DV2_Default
  6
Continuous
 62
     7
100
AcDbLine
 10
135.9212754115
 20
457.5613942016
 30
0.0
 11
135.9212754115
 21
457.3613942016
 31
0.0
  0
LINE
  5
1E1
330
1A7
100
AcDbEntity
  8
DV2_Default
  6
Continuous
 62
     7
100
AcDbLine
 10
135.9212754115
 20
457.3613942016
 30
0.0
 11
135.9212754115
 21
456.2613942016
 31
0.0
  0
LINE
  5
1E2
330
1A7
100
AcDbEntity
  8
DV2_Default
  6
Continuous
 62
     7
100
AcDbLine
 10
134.7212754115
 20
466.0322931191
 30
0.0
 11
134.7212754115
 21
463.5322931191
 31
0.0
  0
LINE
  5
1E3
330
1A7
100
AcDbEntity
  8
DV2_Default
  6
Continuous
 62
     7
100
AcDbLine
 10
141.1212754115
 20
463.5322931191
 30
0.0
 11
141.1212754115
 21
466.0322931191
 31
0.0
  0
LINE
  5
1E4
330
1A7
100
AcDbEntity
  8
DV2_Default
  6
Continuous
 62
     7
100
AcDbLine
 10
134.9212754115
 20
468.5322931191
 30
0.0
 11
134.9212754115
 21
466.0322931191
 31
0.0
  0
LINE
  5
1E5
330
1A7
100
AcDbEntity
  8
DV2_Default
  6
Continuous
 62
     7
100
AcDbLine
 10
140.9212754115
 20
466.0322931191
 30
0.0
 11
140.9212754115
 21
468.5322931191
 31
0.0
  0
LINE
  5
1E6
330
1A7
100
AcDbEntity
  8
DV2_Default
  6
Continuous
 62
     7
100
AcDbLine
 10
134.7212754115
 20
471.0322931191
 30
0.0
 11
134.7212754115
 21
468.5322931191
 31
0.0
  0
LINE
  5
1E7
330
1A7
100
AcDbEntity
  8
DV2_Default
  6
Continuous
 62
     7
100
AcDbLine
 10
141.1212754115
 20
468.5322931191
 30
0.0
 11
141.1212754115
 21
471.0322931191
 31
0.0
  0
LINE
  5
1E8
330
1A7
100
AcDbEntity
  8
DV2_Default
  6
Continuous
 62
     7
100
AcDbLine
 10
134.9212754115
 20
473.5322931191
 30
0.0
 11
134.9212754115
 21
471.0322931191
 31
0.0
  0
LINE
  5
1E9
330
1A7
100
AcDbEntity
  8
DV2_Default
  6
Continuous
 62
     7
100
AcDbLine
 10
140.9212754115
 20
471.0322931191
 30
0.0
 11
140.9212754115
 21
473.5322931191
 31
0.0
  0
LINE
  5
1EA
330
1A7
100
AcDbEntity
  8
DV2_Default
  6
Continuous
 62
     7
100
AcDbLine
 10
134.7212754115
 20
474.9386483828
 30
0.0
 11
134.7212754115
 21
473.5322931191
 31
0.0
  0
LINE
  5
1EB
330
1A7
100
AcDbEntity
  8
DV2_Default
  6
Continuous
 62
     7
100
AcDbLine
 10
141.1212754115
 20
473.5322931191
 30
0.0
 11
141.1212754115
 21
474.9386483828
 31
0.0
  0
ARC
  5
1EC
330
1A7
100
AcDbEntity
  8
DV2_Default
  6
Continuous
 62
     7
100
AcDbCircle
 10
137.7212754115
 20
474.9386483828
 30
0.0
 40
2.999999999999401
100
AcDbArc
 50
161.6707090552
 51
180.0
  0
ARC
  5
1ED
330
1A7
100
AcDbEntity
  8
DV2_Default
  6
Continuous
 62
     7
100
AcDbCircle
 10
138.1212754115
 20
474.9386483828
 30
0.0
 40
2.999999999999403
100
AcDbArc
 50
0.0
 51
18.3292909448
  0
LINE
  5
1EE
330
1A7
100
AcDbEntity
  8
DV2_Default
  6
Continuous
 62
     7
100
AcDbLine
 10
140.9690699113
 20
475.8820817332
 30
0.0
 11
140.4212754115
 21
476.832667577
 31
0.0
  0
LINE
  5
1EF
330
1A7
100
AcDbEntity
  8
DV2_Default
  6
Continuous
 62
     7
100
AcDbLine
 10
135.4212754115
 20
476.832667577
 30
0.0
 11
134.8734809116
 21
475.8820817332
 31
0.0
  0
LINE
  5
1F0
330
1A7
100
AcDbEntity
  8
DV2_Default
  6
Continuous
 62
     7
100
AcDbLine
 10
135.4212754115
 20
477.4797605556
 30
0.0
 11
135.4212754115
 21
476.832667577
 31
0.0
  0
LINE
  5
1F1
330
1A7
100
AcDbEntity
  8
DV2_Default
  6
Continuous
 62
     7
100
AcDbLine
 10
140.4212754115
 20
476.832667577
 30
0.0
 11
140.4212754115
 21
477.4797605556
 31
0.0
  0
LINE
  5
1F2
330
1A7
100
AcDbEntity
  8
DV2_Default
  6
Continuous
 62
     7
100
AcDbLine
 10
135.6712754115
 20
483.4797605556
 30
0.0
 11
135.6712754115
 21
477.4797605556
 31
0.0
  0
LINE
  5
1F3
330
1A7
100
AcDbEntity
  8
DV2_Default
  6
Continuous
 62
     7
100
AcDbLine
 10
140.1712754115
 20
477.4797605556
 30
0.0
 11
140.1712754115
 21
483.4797605556
 31
0.0
  0
ARC
  5
1F4
330
1A7
100
AcDbEntity
  8
DV2_Default
  6
Continuous
 62
     7
100
AcDbCircle
 10
141.0212754115
 20
461.2613942016
 30
0.0
 40
0.1000000000000723
100
AcDbArc
 50
269.9999999999
 51
90.0
  0
LINE
  5
1F5
330
1A7
100
AcDbEntity
  8
DV2_Default
  6
Continuous
 62
     7
100
AcDbLine
 10
134.9212754115
 20
463.5322931191
 30
0.0
 11
134.9212754115
 21
462.4813942016
 31
0.0
  0
LINE
  5
1F6
330
1A7
100
AcDbEntity
  8
DV2_Default
  6
Continuous
 62
     7
100
AcDbLine
 10
140.9212754115
 20
461.3613942016
 30
0.0
 11
140.9212754115
 21
463.5322931191
 31
0.0
  0
LINE
  5
1F7
330
1A7
100
AcDbEntity
  8
DV2_Default
  6
Continuous
 62
     7
100
AcDbLine
 10
140.9212754115
 20
456.2613942016
 30
0.0
 11
140.9212754115
 21
457.3613942016
 31
0.0
  0
ARC
  5
1F8
330
1A7
100
AcDbEntity
  8
DV2_Default
  6
Continuous
 62
     7
100
AcDbCircle
 10
141.0212754115
 20
457.4613942016
 30
0.0
 40
0.1000000000000723
100
AcDbArc
 50
270.0
 51
90.0
  0
LINE
  5
1F9
330
1A7
100
AcDbEntity
  8
DV2_Default
  6
Continuous
 62
     7
100
AcDbLine
 10
140.9212754115
 20
457.5613942016
 30
0.0
 11
140.9212754115
 21
459.3613942016
 31
0.0
  0
ARC
  5
1FA
330
1A7
100
AcDbEntity
  8
DV2_Default
  6
Continuous
 62
     7
100
AcDbCircle
 10
141.0212754115
 20
459.4613942016
 30
0.0
 40
0.1000000000000723
100
AcDbArc
 50
269.9999999999
 51
90.0
  0
LINE
  5
1FB
330
1A7
100
AcDbEntity
  8
DV2_Default
  6
Continuous
 62
     7
100
AcDbLine
 10
140.9212754115
 20
459.5613942016
 30
0.0
 11
140.9212754115
 21
461.1613942016
 31
0.0
  0
LINE
  5
1FC
330
1A7
100
AcDbEntity
  8
DV2_Default
  6
Continuous
 62
     7
100
AcDbLine
 10
40.1212754115
 20
359.7797605556
 30
0.0
 11
40.1212754115
 21
459.5797605556
 31
0.0
  0
LINE
  5
1FD
330
1A7
100
AcDbEntity
  8
DV2_Default
  6
Continuous
 62
     7
100
AcDbLine
 10
37.9212754115
 20
459.5797605556
 30
0.0
 11
37.9212754115
 21
359.7797605556
 31
0.0
  0
LINE
  5
1FE
330
1A7
100
AcDbEntity
  8
DV2_Default
  6
Continuous
 62
     7
100
AcDbLine
 10
141.2212754115
 20
523.294813125
 30
0.0
 11
141.2212754115
 21
448.4555488315
 31
0.0
  0
LINE
  5
1FF
330
1A7
100
AcDbEntity
  8
DV2_Default
  6
Continuous
 62
     7
100
AcDbLine
 10
143.4212754115
 20
448.4555488315
 30
0.0
 11
143.4212754115
 21
523.4154372742
 31
0.0
  0
CIRCLE
  5
200
330
1A7
100
AcDbEntity
  8
DV2_Default
  6
Continuous
 62
     7
100
AcDbCircle
 10
142.3212754115
 20
423.4797605556
 30
0.0
 40
25.0
  0
CIRCLE
  5
201
330
1A7
100
AcDbEntity
  8
DV2_Default
  6
Continuous
 62
     7
100
AcDbCircle
 10
142.3212754115
 20
423.4797605556
 30
0.0
 40
24.0
  0
ARC
  5
202
330
1A7
100
AcDbEntity
  8
DV2_Default
  6
Continuous
 62
     7
100
AcDbCircle
 10
140.1212754115
 20
563.4797605556
 30
0.0
 40
42.00000000000001
100
AcDbArc
 50
275.0540369742
 51
264.9459630258
  0
ARC
  5
203
330
1A7
100
AcDbEntity
  8
DV2_Default
  6
Continuous
 62
     7
100
AcDbCircle
 10
140.1212754115
 20
563.4797605556
 30
0.0
 40
42.13092960784595
100
AcDbArc
 50
0.0
 51
265.5075773272
  0
ARC
  5
204
330
1A7
100
AcDbEntity
  8
DV2_Default
  6
Continuous
 62
     7
100
AcDbCircle
 10
140.1212754115
 20
563.4797605556
 30
0.0
 40
42.13092960784595
100
AcDbArc
 50
268.5038896408
 51
271.4961103592
  0
ARC
  5
205
330
1A7
100
AcDbEntity
  8
DV2_Default
  6
Continuous
 62
     7
100
AcDbCircle
 10
140.1212754115
 20
563.4797605556
 30
0.0
 40
42.13092960784595
100
AcDbArc
 50
274.4924226728
 51
0.0
  0
ARC
  5
206
330
1A7
100
AcDbEntity
  8
DV2_Default
  6
Continuous
 62
     7
100
AcDbCircle
 10
140.1212754115
 20
563.4797605556
 30
0.0
 40
41.99999999999999
100
AcDbArc
 50
269.0450261262
 51
270.9549738738
  0
LINE
  5
207
330
1A7
100
AcDbEntity
  8
DV2_Default
  6
Continuous
 62
     7
100
AcDbLine
 10
139.4212754115
 20
521.4201204101
 30
0.0
 11
139.4212754115
 21
521.4855942941
 31
0.0
  0
ARC
  5
208
330
1A7
100
AcDbEntity
  8
DV2_Default
  6
Continuous
 62
     7
100
AcDbCircle
 10
138.816728574
 20
538.5860223195
 30
0.0
 40
17.17654404244917
100
AcDbArc
 50
261.9833584747
 51
263.2994609268
  0
ARC
  5
209
330
1A7
100
AcDbEntity
  8
DV2_Default
  6
Continuous
 62
     7
100
AcDbCircle
 10
138.816728574
 20
538.5860223195
 30
0.0
 40
17.17654404244917
100
AcDbArc
 50
270.7030270603
 51
272.0170028142
  0
LINE
  5
20A
330
1A7
100
AcDbEntity
  8
DV2_Default
  6
Continuous
 62
     7
100
AcDbLine
 10
136.4212754115
 20
521.6430541843
 30
0.0
 11
136.4212754115
 21
521.5773342635
 31
0.0
  0
ARC
  5
20B
330
1A7
100
AcDbEntity
  8
DV2_Default
  6
Continuous
 62
     7
100
AcDbCircle
 10
141.4258222489
 20
538.5860223195
 30
0.0
 40
17.17654404244919
100
AcDbArc
 50
276.7005390732
 51
278.0166415253
  0
ARC
  5
20C
330
1A7
100
AcDbEntity
  8
DV2_Default
  6
Continuous
 62
     7
100
AcDbCircle
 10
141.4258222489
 20
538.5860223195
 30
0.0
 40
17.17654404244919
100
AcDbArc
 50
267.9829971858
 51
269.2969729397
  0
LINE
  5
20D
330
1A7
100
AcDbEntity
  8
DV2_Default
  6
Continuous
 62
     7
100
AcDbLine
 10
143.8212754115
 20
521.6430541843
 30
0.0
 11
143.8212754115
 21
521.5773342635
 31
0.0
  0
LINE
  5
20E
330
1A7
100
AcDbEntity
  8
DV2_Default
  6
Continuous
 62
     7
100
AcDbLine
 10
140.8212754115
 20
521.4201204101
 30
0.0
 11
140.8212754115
 21
521.4855942941
 31
0.0
  0
ARC
  5
20F
330
1A7
100
AcDbEntity
  8
DV2_Default
  6
Continuous
 62
     7
100
AcDbCircle
 10
140.1212754115
 20
563.4797605556
 30
0.0
 40
40.20000000000095
100
AcDbArc
 50
264.7190337509
 51
269.002261872
  0
ARC
  5
210
330
1A7
100
AcDbEntity
  8
DV2_Default
  6
Continuous
 62
     7
100
AcDbCircle
 10
140.1212754115
 20
563.4797605556
 30
0.0
 40
40.20000000000095
100
AcDbArc
 50
270.997738128
 51
275.2809662491
  0
CIRCLE
  5
211
330
1A7
100
AcDbEntity
  8
DV2_Default
  6
Continuous
 62
     7
100
AcDbCircle
 10
140.1212754115
 20
563.4797605556
 30
0.0
 40
35.3763480521534
  0
CIRCLE
  5
212
330
1A7
100
AcDbEntity
  8
DV2_Default
  6
Continuous
 62
     7
100
AcDbCircle
 10
140.1212754115
 20
563.4797605556
 30
0.0
 40
34.8763480521534
  0
ARC
  5
213
330
1A7
100
AcDbEntity
  8
DV2_Default
  6
Continuous
 62
     7
100
AcDbCircle
 10
40.1212005455
 20
633.8427390891
 30
0.0
 40
150.5589910603977
100
AcDbArc
 50
273.2419793314
 51
278.0801201098
  0
ARC
  5
214
330
1A7
100
AcDbEntity
  8
DV2_Default
  6
Continuous
 62
     7
100
AcDbCircle
 10
40.1212005465
 20
633.8427391451
 30
0.0
 40
150.5589911164319
100
AcDbArc
 50
266.7581191131
 51
273.2419793298
  0
ARC
  5
215
330
1A7
100
AcDbEntity
  8
DV2_Default
  6
Continuous
 62
     7
100
AcDbCircle
 10
40.1212005503
 20
633.8427390845
 30
0.0
 40
150.558991056
100
AcDbArc
 50
261.9199394829
 51
266.7581191104
  0
ARC
  5
216
330
1A7
100
AcDbEntity
  8
DV2_Default
  6
Continuous
 62
     7
100
AcDbCircle
 10
19.6844002711
 20
489.8871772106
 30
0.0
 40
5.1600000000069
100
AcDbArc
 50
179.9999999993
 51
261.919939483
  0
LINE
  5
217
330
1A7
100
AcDbEntity
  8
DV2_Default
  6
Continuous
 62
     7
100
AcDbLine
 10
14.5244002711
 20
489.8871772106
 30
0.0
 11
14.5244002711
 21
555.4840754553
 31
0.0
  0
LINE
  5
218
330
1A7
100
AcDbEntity
  8
DV2_Default
  6
Continuous
 62
     7
100
AcDbLine
 10
15.0243999568
 20
489.8871772106
 30
0.0
 11
15.0221250133
 21
555.48407276
 31
0.0
  0
ARC
  5
219
330
1A7
100
AcDbEntity
  8
DV2_Default
  6
Continuous
 62
     7
100
AcDbCircle
 10
19.6844002709
 20
555.4840754552
 30
0.0
 40
5.159999999839599
100
AcDbArc
 50
106.8759522744
 51
179.9999999994
  0
ARC
  5
21A
330
1A7
100
AcDbEntity
  8
DV2_Default
  6
Continuous
 62
     7
100
AcDbCircle
 10
19.6914187008
 20
555.4777301174
 30
0.0
 40
4.669297995392112
100
AcDbArc
 50
106.9358831456
 51
179.9221710065
  0
ARC
  5
21B
330
1A7
100
AcDbEntity
  8
DV2_Default
  6
Continuous
 62
     7
100
AcDbCircle
 10
40.1212754115
 20
488.1167576644
 30
0.0
 40
75.55901541804998
100
AcDbArc
 50
73.1240477245
 51
106.8759522756
  0
ARC
  5
21C
330
1A7
100
AcDbEntity
  8
DV2_Default
  6
Continuous
 62
     7
100
AcDbCircle
 10
60.558150552
 20
555.4840754552
 30
0.0
 40
5.159999999960222
100
AcDbArc
 50
0.0
 51
73.1240477259
  0
ARC
  5
21D
330
1A7
100
AcDbEntity
  8
DV2_Default
  6
Continuous
 62
     7
100
AcDbCircle
 10
60.5611963679
 20
555.4851070307
 30
0.0
 40
4.656950094167007
100
AcDbArc
 50
359.9873082343
 51
73.1561910939
  0
LINE
  5
21E
330
1A7
100
AcDbEntity
  8
DV2_Default
  6
Continuous
 62
     7
100
AcDbLine
 10
65.7181505519
 20
555.4840754552
 30
0.0
 11
65.7181505519
 21
489.8871984669
 31
0.0
  0
ARC
  5
21F
330
1A7
100
AcDbEntity
  8
DV2_Default
  6
Continuous
 62
     7
100
AcDbCircle
 10
60.558150552
 20
489.8871984668
 30
0.0
 40
5.159999999838099
100
AcDbArc
 50
278.0801201094
 51
0.0
  0
ARC
  5
220
330
1A7
100
AcDbEntity
  8
DV2_Default
  6
Continuous
 62
     7
100
AcDbCircle
 10
60.6350351178
 20
489.8754701962
 30
0.0
 40
4.583128125976494
100
AcDbArc
 50
340.3187442117
 51
0.1466206341
  0
ARC
  5
221
330
1A7
100
AcDbEntity
  8
DV2_Default
  6
Continuous
 62
     7
100
AcDbCircle
 10
60.5620391946
 20
489.8796181527
 30
0.0
 40
4.651945022823939
100
AcDbArc
 50
278.0458239408
 51
326.4671696138
  0
SPLINE
  5
222
330
1A7
100
AcDbEntity
  8
DV2_Default
  6
Continuous
 62
     7
100
AcDbSpline
210
0.0
220
0.0
230
1.0
 70
     8
 71
     3
 72
    12
 73
     8
 74
     0
 42
0.000000001
 43
0.0000000001
 40
0.0
 40
0.0
 40
0.0
 40
0.0
 40
0.249999999999996
 40
0.249999999999996
 40
0.499999999999992
 40
0.499999999999992
 40
1.0
 40
1.0
 40
1.0
 40
1.0
 10
48.33711208746189
 20
484.0088324837208
 30
0.0
 10
48.33711038319728
 20
483.9378463988925
 30
0.0
 10
48.3469951572712
 20
483.8682290299998
 30
0.0
 10
48.38226271975879
 20
483.7447126837631
 30
0.0
 10
48.40753941146652
 20
483.6907045371285
 30
0.0
 10
48.49510088627941
 20
483.5621572105778
 30
0.0
 10
48.56686731693276
 20
483.5208885891875
 30
0.0
 10
48.63576694265461
 20
483.5247030845704
 30
0.0
  0
LINE
  5
223
330
1A7
100
AcDbEntity
  8
DV2_Default
  6
Continuous
 62
     7
100
AcDbLine
 10
48.3371138038
 20
484.061292357
 30
0.0
 11
48.3371120875
 21
484.0088324837
 31
0.0
  0
LINE
  5
224
330
1A7
100
AcDbEntity
  8
DV2_Default
  6
Continuous
 62
     7
100
AcDbLine
 10
31.9054370486
 20
484.0088242797
 30
0.0
 11
31.905437019
 21
484.0612841441
 31
0.0
  0
ARC
  5
225
330
1A7
100
AcDbEntity
  8
DV2_Default
  6
Continuous
 62
     7
100
AcDbCircle
 10
40.1212005477
 20
633.8427390575
 30
0.0
 40
150.0066098701438
100
AcDbArc
 50
261.9200515092
 51
266.8603767957
  0
ARC
  5
226
330
1A7
100
AcDbEntity
  8
DV2_Default
  6
Continuous
 62
     7
100
AcDbCircle
 10
19.6844002711
 20
489.8871772107
 30
0.0
 40
4.607618845869979
100
AcDbArc
 50
180.0000000009
 51
261.9235866474
  0
LINE
  5
227
330
1A7
100
AcDbEntity
  8
DV2_Default
  6
Continuous
 62
     7
100
AcDbLine
 10
15.0767814252
 20
555.4840754551
 30
0.0
 11
15.0767814253
 21
489.8871772106
 31
0.0
  0
ARC
  5
228
330
1A7
100
AcDbEntity
  8
DV2_Default
  6
Continuous
 62
     7
100
AcDbCircle
 10
19.6844002711
 20
555.4840754551
 30
0.0
 40
4.607618845858849
100
AcDbArc
 50
106.8759622294
 51
180.0000000002
  0
ARC
  5
229
330
1A7
100
AcDbEntity
  8
DV2_Default
  6
Continuous
 62
     7
100
AcDbCircle
 10
40.1212754114
 20
488.1167576654
 30
0.0
 40
75.00663426293846
100
AcDbArc
 50
73.1240411603
 51
106.8759528871
  0
ARC
  5
22A
330
1A7
100
AcDbEntity
  8
DV2_Default
  6
Continuous
 62
     7
100
AcDbCircle
 10
60.5581505517
 20
555.4840754551
 30
0.0
 40
4.607618845974679
100
AcDbArc
 50
0.0
 51
73.1239408693
  0
LINE
  5
22B
330
1A7
100
AcDbEntity
  8
DV2_Default
  6
Continuous
 62
     7
100
AcDbLine
 10
65.1657693975
 20
489.887198467
 30
0.0
 11
65.1657693977
 21
555.4840754551
 31
0.0
  0
ARC
  5
22C
330
1A7
100
AcDbEntity
  8
DV2_Default
  6
Continuous
 62
     7
100
AcDbCircle
 10
60.5581505519
 20
489.887198467
 30
0.0
 40
4.607618846008144
100
AcDbArc
 50
278.0792804693
 51
0.0
  0
ARC
  5
22D
330
1A7
100
AcDbEntity
  8
DV2_Default
  6
Continuous
 62
     7
100
AcDbCircle
 10
40.1212005477
 20
633.8427390575
 30
0.0
 40
150.006609874308
100
AcDbArc
 50
273.1396804795
 51
278.0800943201
  0
ARC
  5
22E
330
1A7
100
AcDbEntity
  8
DV2_Default
  6
Continuous
 62
     7
100
AcDbCircle
 10
40.1210299289
 20
975.2020646352
 30
0.0
 40
491.2094891471623
100
AcDbArc
 50
269.0416700836
 51
270.9583871917
  0
SPLINE
  5
22F
330
1A7
100
AcDbEntity
  8
DV2_Default
  6
Continuous
 62
     7
100
AcDbSpline
210
0.0
220
0.0
230
1.0
 70
     8
 71
     3
 72
     8
 73
     4
 74
     0
 42
0.000000001
 43
0.0000000001
 40
0.0
 40
0.0
 40
0.0
 40
0.0
 40
1.0
 40
1.0
 40
1.0
 40
1.0
 10
60.26843850580728
 20
485.6667030223624
 30
0.0
 10
60.56136474724642
 20
485.7060911481445
 30
0.0
 10
60.85272037733642
 20
485.7454407485046
 30
0.0
 10
61.14037155067273
 20
485.7842621357553
 30
0.0
  0
LINE
  5
230
330
1A7
100
AcDbEntity
  8
DV2_Default
  6
Continuous
 62
     7
100
AcDbLine
 10
59.1267674469
 20
485.5500679009
 30
0.0
 11
60.2684407221
 21
485.6667040013
 31
0.0
  0
LINE
  5
231
330
1A7
100
AcDbEntity
  8
DV2_Default
  6
Continuous
 62
     7
100
AcDbLine
 10
19.968576037
 20
485.6672661793
 30
0.0
 11
21.1145332968
 21
485.5501621864
 31
0.0
  0
LINE
  5
232
330
1A7
100
AcDbEntity
  8
DV2_Default
  6
Continuous
 62
     7
100
AcDbLine
 10
19.1022809105
 20
485.7842281219
 30
0.0
 11
19.9685685238
 21
485.6672675026
 31
0.0
  0
LINE
  5
233
330
1A7
100
AcDbEntity
  8
DV2_Default
  6
Continuous
 62
     7
100
AcDbLine
 10
15.5390567994
 20
555.4840691868
 30
0.0
 11
18.4213951467
 21
555.4840754551
 31
0.0
  0
ARC
  5
234
330
1A7
100
AcDbEntity
  8
DV2_Default
  6
Continuous
 62
     7
100
AcDbCircle
 10
19.6828860586
 20
555.4840711448
 30
0.0
 40
4.143829259159831
100
AcDbArc
 50
106.8560180911
 51
180.0000270735
  0
ARC
  5
235
330
1A7
100
AcDbEntity
  8
DV2_Default
  6
Continuous
 62
     7
100
AcDbCircle
 10
19.593414221
 20
555.4630218153
 30
0.0
 40
1.172208158204298
100
AcDbArc
 50
107.5376087092
 51
178.9708742753
  0
ARC
  5
236
330
1A7
100
AcDbEntity
  8
DV2_Default
  6
Continuous
 62
     7
100
AcDbCircle
 10
49.7893403443
 20
566.1958991991
 30
0.0
 40
32.02657857696885
100
AcDbArc
 50
192.1597761121
 51
197.4710701047
  0
ARC
  5
237
330
1A7
100
AcDbEntity
  8
DV2_Default
  6
Continuous
 62
     7
100
AcDbCircle
 10
40.1212790664
 20
487.801368603
 30
0.0
 40
74.84514391829303
100
AcDbArc
 50
73.1941335187
 51
106.8058718845
  0
ARC
  5
238
330
1A7
100
AcDbEntity
  8
DV2_Default
  6
Continuous
 62
     7
100
AcDbCircle
 10
29.429224301
 20
566.46665911
 30
0.0
 40
33.0846594752261
100
AcDbArc
 50
342.6140567263
 51
347.7553797549
  0
SPLINE
  5
239
330
1A7
100
AcDbEntity
  8
DV2_Default
  6
Continuous
 62
     7
100
AcDbSpline
210
0.0
220
0.0
230
1.0
 70
     8
 71
     3
 72
    24
 73
    20
 74
     0
 42
0.000000001
 43
0.0000000001
 40
0.0
 40
0.0
 40
0.0
 40
0.0
 40
0.03125
 40
0.0625
 40
0.09375
 40
0.125
 40
0.15625
 40
0.1875
 40
0.25
 40
0.3125
 40
0.375
 40
0.4375
 40
0.5
 40
0.5625
 40
0.625
 40
0.6875
 40
0.75
 40
0.875
 40
1.0
 40
1.0
 40
1.0
 40
1.0
 10
61.00236695053641
 20
556.5807420648745
 30
0.0
 10
61.01946557817642
 20
556.5698399751445
 30
0.0
 10
61.05904996793642
 20
556.5810177064545
 30
0.0
 10
61.11884271658642
 20
556.5622808993845
 30
0.0
 10
61.16857951840642
 20
556.5292502181345
 30
0.0
 10
61.21155422515642
 20
556.4938327100946
 30
0.0
 10
61.25105850942643
 20
556.4679365742246
 30
0.0
 10
61.29964217823643
 20
556.4408704565045
 30
0.0
 10
61.35369674461642
 20
556.4112109336645
 30
0.0
 10
61.40470100555643
 20
556.3603615917744
 30
0.0
 10
61.45056975516643
 20
556.3031657551545
 30
0.0
 10
61.50012033432642
 20
556.2485749771445
 30
0.0
 10
61.55895274577642
 20
556.1902503512244
 30
0.0
 10
61.63272520057643
 20
556.1218697412545
 30
0.0
 10
61.66857297424642
 20
556.0646215323845
 30
0.0
 10
61.70126016619643
 20
555.9873397421146
 30
0.0
 10
61.74549814204643
 20
555.8687278067746
 30
0.0
 10
61.81060732193642
 20
555.7125567890246
 30
0.0
 10
61.82301323094642
 20
555.5652083658746
 30
0.0
 10
61.82115573755642
 20
555.4840757016145
 30
0.0
  0
LINE
  5
23A
330
1A7
100
AcDbEntity
  8
DV2_Default
  6
Continuous
 62
     7
100
AcDbLine
 10
61.8211557376
 20
555.4840757016
 30
0.0
 11
64.7034941787
 21
555.4840754638
 31
0.0
  0
ARC
  5
23B
330
1A7
100
AcDbEntity
  8
DV2_Default
  6
Continuous
 62
     7
100
AcDbCircle
 10
60.5560363636
 20
555.4813812526
 30
0.0
 40
4.147458690220306
100
AcDbArc
 50
0.0372196458
 51
73.1067863497
  0
ARC
  5
23C
330
1A7
100
AcDbEntity
  8
DV2_Default
  6
Continuous
 62
     7
100
AcDbCircle
 10
29.7281715419
 20
483.9976529798
 30
0.0
 40
31.4629668287429
100
AcDbArc
 50
3.2552637907
 51
8.6925176048
  0
SPLINE
  5
23D
330
1A7
100
AcDbEntity
  8
DV2_Default
  6
Continuous
 62
     7
100
AcDbSpline
210
0.0
220
0.0
230
1.0
 70
     8
 71
     3
 72
    22
 73
    18
 74
     0
 42
0.000000001
 43
0.0000000001
 40
0.0
 40
0.0
 40
0.0
 40
0.0
 40
0.0480114463705992
 40
0.0942630314241188
 40
0.1388373784574806
 40
0.1818087252415365
 40
0.2232427511655137
 40
0.2631965836641282
 40
0.4075912300721316
 40
0.5266539606592017
 40
0.6609994221173874
 40
0.7723533891972018
 40
0.8271096458580713
 40
0.8795244965424599
 40
0.918724982839347
 40
0.9586517139956944
 40
1.0
 40
1.0
 40
1.0
 40
1.0
 10
60.26843850580728
 20
485.6667030223624
 30
0.0
 10
60.19838279579624
 20
485.6614926193821
 30
0.0
 10
60.06083459052682
 20
485.6512633183343
 30
0.0
 10
59.85841758917229
 20
485.6487924734581
 30
0.0
 10
59.66380414369697
 20
485.6553510440539
 30
0.0
 10
59.47687959003304
 20
485.6710127206987
 30
0.0
 10
59.29753058631737
 20
485.6948708254127
 30
0.0
 10
58.97394825611761
 20
485.7535001244674
 30
0.0
 10
58.54610061141345
 20
485.8844810212603
 30
0.0
 10
58.01494668763939
 20
486.1673976016891
 30
0.0
 10
57.56967646424948
 20
486.5404901037463
 30
0.0
 10
57.26424702133108
 20
486.9531532038999
 30
0.0
 10
57.08811228381304
 20
487.3012348793353
 30
0.0
 10
56.99523102151988
 20
487.5545600136556
 30
0.0
 10
56.93497748900625
 20
487.7941860259882
 30
0.0
 10
56.89640532907121
 20
488.0199463489491
 30
0.0
 10
56.88538929632762
 20
488.1748458376115
 30
0.0
 10
56.87978721282642
 20
488.2536503034545
 30
0.0
  0
ARC
  5
23E
330
1A7
100
AcDbEntity
  8
DV2_Default
  6
Continuous
 62
     7
100
AcDbCircle
 10
40.126873592
 20
636.7319473628
 30
0.0
 40
149.4204297022951
100
AcDbArc
 50
276.4374982531
 51
277.9642087199
  0
SPLINE
  5
23F
330
1A7
100
AcDbEntity
  8
DV2_Default
  6
Continuous
 62
     7
100
AcDbSpline
210
0.0
220
0.0
230
1.0
 70
     8
 71
     3
 72
    20
 73
    16
 74
     0
 42
0.000000001
 43
0.0000000001
 40
0.0
 40
0.0
 40
0.0
 40
0.0
 40
0.1250000000000001
 40
0.1250000000000001
 40
0.2500000000000002
 40
0.2500000000000002
 40
0.3750000000000001
 40
0.3750000000000001
 40
0.5000000000000001
 40
0.5000000000000001
 40
0.6250000000000001
 40
0.6250000000000001
 40
0.75
 40
0.875
 40
1.0
 40
1.0
 40
1.0
 40
1.0
 10
40.12127541182288
 20
543.3797452218946
 30
0.0
 10
38.19442308040862
 20
543.2302733249734
 30
0.0
 10
35.99742714346203
 20
542.2848947123401
 30
0.0
 10
32.8603293675493
 20
539.7056698021631
 30
0.0
 10
31.92022624942042
 20
538.0718235706153
 30
0.0
 10
30.24256399398555
 20
534.2735731015632
 30
0.0
 10
29.50500561143011
 20
532.1091704429396
 30
0.0
 10
28.35744424191235
 20
528.1723878401266
 30
0.0
 10
27.94744075257351
 20
526.4000050662686
 30
0.0
 10
27.02859103031174
 20
521.5876363370938
 30
0.0
 10
26.51974525535215
 20
518.5476537774256
 30
0.0
 10
25.60540689769515
 20
512.3424566907328
 30
0.0
 10
24.7944211626199
 20
506.0120227815617
 30
0.0
 10
24.04923857204801
 20
499.138202935413
 30
0.0
 10
23.68505212104931
 20
494.4516635780216
 30
0.0
 10
23.56433044462643
 20
492.5228074188745
 30
0.0
  0
SPLINE
  5
240
330
1A7
100
AcDbEntity
  8
DV2_Default
  6
Continuous
 62
     7
100
AcDbSpline
210
0.0
220
0.0
230
1.0
 70
     8
 71
     3
 72
    31
 73
    27
 74
     0
 42
0.000000001
 43
0.0000000001
 40
0.0
 40
0.0
 40
0.0
 40
0.0
 40
0.0729059719402536
 40
0.1457822781520813
 40
0.2151884711610735
 40
0.2850831629943598
 40
0.3535659630915587
 40
0.4159193200784184
 40
0.4693196734133686
 40
0.5123583909879994
 40
0.5450915647863053
 40
0.5684858584638717
 40
0.583998528835796
 40
0.5928317933099588
 40
0.6401580568297487
 40
0.6896761804669641
 40
0.7476980305224539
 40
0.7954516009853526
 40
0.8266371595426069
 40
0.8538557430188234
 40
0.8785311618269117
 40
0.9028418574995052
 40
0.9513507649359476
 40
0.9756745347486837
 40
0.9901381603975837
 40
1.0
 40
1.0
 40
1.0
 40
1.0
 10
56.67671344762643
 20
492.5228335928945
 30
0.0
 10
56.5831373566496
 20
493.8959143668629
 30
0.0
 10
56.3957733315386
 20
496.6415026816427
 30
0.0
 10
56.02084365654744
 20
500.6865804785419
 30
0.0
 10
55.58839579660389
 20
504.6684435640697
 30
0.0
 10
55.11888960404568
 20
508.5625732658679
 30
0.0
 10
54.63114910798199
 20
512.32023769188
 30
0.0
 10
54.14182961947773
 20
515.763511248344
 30
0.0
 10
53.68083143284603
 20
518.7253904839455
 30
0.0
 10
53.27849474842063
 20
521.1303493571918
 30
0.0
 10
52.94966576540047
 20
522.9731969689407
 30
0.0
 10
52.69844089922412
 20
524.3019983483362
 30
0.0
 10
52.52237718213186
 20
525.1858210354529
 30
0.0
 10
52.24777765217289
 20
526.5105718547367
 30
0.0
 10
51.80155196834835
 20
528.4556566830325
 30
0.0
 10
50.9983788542228
 20
531.2677658565455
 30
0.0
 10
50.05136347679816
 20
534.043575663758
 30
0.0
 10
49.07513496778977
 20
536.4394947860385
 30
0.0
 10
48.17406471844681
 20
538.2328235984928
 30
0.0
 10
47.29614888067689
 20
539.5385672905994
 30
0.0
 10
46.31908915078319
 20
540.602597251333
 30
0.0
 10
44.8740511260854
 20
541.750495513003
 30
0.0
 10
43.23455919806219
 20
542.615925431608
 30
0.0
 10
41.66416272252793
 20
543.1245264106677
 30
0.0
 10
40.76348571710954
 20
543.3136405338477
 30
0.0
 10
40.30653058326298
 20
543.3606763355546
 30
0.0
 10
40.12127541182288
 20
543.3797452218946
 30
0.0
  0
LINE
  5
241
330
1A7
100
AcDbEntity
  8
DV2_Default
  6
Continuous
 62
     7
100
AcDbLine
 10
56.8797874688
 20
488.2536503035
 30
0.0
 11
56.6767183565
 21
492.5228335929
 31
0.0
  0
ARC
  5
242
330
1A7
100
AcDbEntity
  8
DV2_Default
  6
Continuous
 62
     7
100
AcDbCircle
 10
63.9711711403
 20
812.4675231683
 30
0.0
 40
326.7670973790676
100
AcDbArc
 50
262.1645090225
 51
262.8611917613
  0
LINE
  5
243
330
1A7
100
AcDbEntity
  8
DV2_Default
  6
Continuous
 62
     7
100
AcDbLine
 10
23.564313062
 20
492.5228074189
 30
0.0
 11
23.3626519056
 21
488.2335272419
 31
0.0
  0
SPLINE
  5
244
330
1A7
100
AcDbEntity
  8
DV2_Default
  6
Continuous
 62
     7
100
AcDbSpline
210
0.0
220
0.0
230
1.0
 70
     8
 71
     3
 72
    16
 73
    12
 74
     0
 42
0.000000001
 43
0.0000000001
 40
0.0
 40
0.0
 40
0.0
 40
0.0
 40
0.1363212024587825
 40
0.2230261202554661
 40
0.2610479949508092
 40
0.4522812506130605
 40
0.594236782286273
 40
0.7011634799231045
 40
0.8634481225783418
 40
0.9319201302180974
 40
1.0
 40
1.0
 40
1.0
 40
1.0
 10
21.11464299087128
 20
485.5501080666071
 30
0.0
 10
21.3127690241358
 20
485.5384759896976
 30
0.0
 10
21.6371067315306
 20
485.5194921601058
 30
0.0
 10
22.01270504441376
 20
485.5605755162323
 30
0.0
 10
22.46216911998013
 20
485.6411312037515
 30
0.0
 10
22.97924877963329
 20
485.8182778671381
 30
0.0
 10
23.53749153633387
 20
486.2003668202193
 30
0.0
 10
23.99290977993687
 20
486.6940405971491
 30
0.0
 10
24.28322237227933
 20
487.2325845443912
 30
0.0
 10
24.44661440100948
 20
487.7742869863878
 30
0.0
 10
24.47946076034659
 20
488.0352329107793
 30
0.0
 10
24.49586512241642
 20
488.1653288086545
 30
0.0
  0
LINE
  5
245
330
1A7
100
AcDbEntity
  8
DV2_Default
  6
Continuous
 62
     7
100
AcDbLine
 10
24.4958658245
 20
488.1653288087
 30
0.0
 11
24.9278570373
 21
492.5226858325
 31
0.0
  0
SPLINE
  5
246
330
1A7
100
AcDbEntity
  8
DV2_Default
  6
Continuous
 62
     7
100
AcDbSpline
210
0.0
220
0.0
230
1.0
 70
     8
 71
     3
 72
    25
 73
    21
 74
     0
 42
0.000000001
 43
0.0000000001
 40
0.0
 40
0.0
 40
0.0
 40
0.0
 40
0.0249245481991566
 40
0.0493992710975121
 40
0.0736189456332207
 40
0.0977658299267299
 40
0.1220063100692003
 40
0.1464885111210378
 40
0.1713410401848641
 40
0.1966728547287995
 40
0.2225741217161347
 40
0.2771483701641322
 40
0.3355928685378783
 40
0.3997342174967243
 40
0.4718481104581583
 40
0.5938991701432671
 40
0.7432552371979777
 40
0.8229996551454224
 40
0.908408397207584
 40
1.0
 40
1.0
 40
1.0
 40
1.0
 10
23.36265214291643
 20
488.2335272419245
 30
0.0
 10
23.3598518149833
 20
488.1860676498145
 30
0.0
 10
23.35427459731752
 20
488.092005865279
 30
0.0
 10
23.33693621467273
 20
487.9529758714407
 30
0.0
 10
23.31315402714232
 20
487.8171291813586
 30
0.0
 10
23.2823618281561
 20
487.6841435032766
 30
0.0
 10
23.24476994732839
 20
487.553727997475
 30
0.0
 10
23.20036806123843
 20
487.4256825584752
 30
0.0
 10
23.14919770984948
 20
487.2998797869116
 30
0.0
 10
23.09123919969776
 20
487.1763067668601
 30
0.0
 10
23.00328683959593
 20
487.0112001820714
 30
0.0
 10
22.87307997078761
 20
486.8095501030933
 30
0.0
 10
22.68653409275914
 20
486.5798040626803
 30
0.0
 10
22.46086454664281
 20
486.3615687225115
 30
0.0
 10
22.13952644868661
 20
486.1178038997949
 30
0.0
 10
21.6804151571518
 20
485.8756744779548
 30
0.0
 10
21.18519092001063
 20
485.7287660010595
 30
0.0
 10
20.73281678812154
 20
485.6634373803356
 30
0.0
 10
20.36006943435727
 20
485.6423505016648
 30
0.0
 10
20.10209804828192
 20
485.6589179996047
 30
0.0
 10
19.96859130991642
 20
485.6674350816924
 30
0.0
  0
ARC
  5
247
330
1A7
100
AcDbEntity
  8
DV2_Default
  6
Continuous
 62
     7
100
AcDbCircle
 10
52.4676408569
 20
483.6756002205
 30
0.0
 40
33.43192425758492
100
AcDbArc
 50
171.2675444649
 51
176.3838238484
  0
SPLINE
  5
248
330
1A7
100
AcDbEntity
  8
DV2_Default
  6
Continuous
 62
     7
100
AcDbSpline
210
0.0
220
0.0
230
1.0
 70
     8
 71
     3
 72
    15
 73
    11
 74
     0
 42
0.000000001
 43
0.0000000001
 40
0.0
 40
0.0
 40
0.0
 40
0.0
 40
0.1250000012558285
 40
0.2500000010720984
 40
0.3750000008883682
 40
0.500000000704638
 40
0.6250000005209079
 40
0.7500000003371776
 40
0.8750000001534475
 40
1.0
 40
1.0
 40
1.0
 40
1.0
 10
24.92785575198643
 20
492.5226858324645
 30
0.0
 10
25.12358134912981
 20
494.2485202017794
 30
0.0
 10
25.74912585542689
 20
499.1292183730639
 30
0.0
 10
26.62958666016951
 20
505.4916827048525
 30
0.0
 10
27.98544908865008
 20
514.9660293589902
 30
0.0
 10
29.22401929119033
 20
520.6983974536196
 30
0.0
 10
30.54939180474355
 20
526.7699891396562
 30
0.0
 10
32.23765185601584
 20
531.1875707679307
 30
0.0
 10
35.05355555086452
 20
536.4992666388248
 30
0.0
 10
38.39315808264636
 20
539.0352605207864
 30
0.0
 10
40.12127540481955
 20
539.2097618239845
 30
0.0
  0
LINE
  5
249
330
1A7
100
AcDbEntity
  8
DV2_Default
  6
Continuous
 62
     7
100
AcDbLine
 10
40.1212754118
 20
543.3797452219
 30
0.0
 11
40.1212754048
 21
539.209761824
 31
0.0
  0
SPLINE
  5
24A
330
1A7
100
AcDbEntity
  8
DV2_Default
  6
Continuous
 62
     7
100
AcDbSpline
210
0.0
220
0.0
230
1.0
 70
     8
 71
     3
 72
    15
 73
    11
 74
     0
 42
0.000000001
 43
0.0000000001
 40
0.0
 40
0.0
 40
0.0
 40
0.0
 40
0.1250000000003311
 40
0.2500000000002703
 40
0.3750000000002096
 40
0.5000000000001488
 40
0.6250000000000879
 40
0.7500000000000272
 40
0.8749999999999665
 40
1.0
 40
1.0
 40
1.0
 40
1.0
 10
40.12127540481955
 20
539.2097618239845
 30
0.0
 10
41.9054759423182
 20
539.0232240411876
 30
0.0
 10
45.27079861241204
 20
536.3771472930051
 30
0.0
 10
48.05142373659463
 20
531.0651740211281
 30
0.0
 10
49.63775841887197
 20
526.9466863560185
 30
0.0
 10
51.02578584862168
 20
520.6966750124258
 30
0.0
 10
52.26993676418429
 20
514.8747257625757
 30
0.0
 10
53.59998804034059
 20
505.5929454126878
 30
0.0
 10
54.48859979888433
 20
499.1643512886862
 30
0.0
 10
55.11217124483721
 20
494.3051956808854
 30
0.0
 10
55.31496763375643
 20
492.5227783471146
 30
0.0
  0
LINE
  5
24B
330
1A7
100
AcDbEntity
  8
DV2_Default
  6
Continuous
 62
     7
100
AcDbLine
 10
55.3149676248
 20
492.5227783471
 30
0.0
 11
55.7467074017
 21
488.1654372894
 31
0.0
  0
SPLINE
  5
24C
330
1A7
100
AcDbEntity
  8
DV2_Default
  6
Continuous
 62
     7
100
AcDbSpline
210
0.0
220
0.0
230
1.0
 70
     8
 71
     3
 72
    16
 73
    12
 74
     0
 42
0.000000001
 43
0.0000000001
 40
0.0
 40
0.0
 40
0.0
 40
0.0
 40
0.0638969930609969
 40
0.1271062503873047
 40
0.192733339253338
 40
0.2807291351723358
 40
0.3811141733076149
 40
0.5010986577493294
 40
0.6413941897101157
 40
0.7590782318755457
 40
1.0
 40
1.0
 40
1.0
 40
1.0
 10
55.74671018177642
 20
488.1654372893946
 30
0.0
 10
55.76169253157613
 20
488.0432783490301
 30
0.0
 10
55.79118877134158
 20
487.8002495517939
 30
0.0
 10
55.89242635991995
 20
487.4485647350061
 30
0.0
 10
56.04331072664857
 20
487.0792937767202
 30
0.0
 10
56.27030742964227
 20
486.6939091350832
 30
0.0
 10
56.59929753137555
 20
486.3015400416657
 30
0.0
 10
57.04248285734457
 20
485.9544830477246
 30
0.0
 10
57.55050704277625
 20
485.7133140761883
 30
0.0
 10
58.25291831183247
 20
485.5265424818514
 30
0.0
 10
58.77562116480126
 20
485.5405178447083
 30
0.0
 10
59.12651885858207
 20
485.5499503425141
 30
0.0
  0
SPLINE
  5
24D
330
1A7
100
AcDbEntity
  8
DV2_Default
  6
Continuous
 62
     7
100
AcDbSpline
210
0.0
220
0.0
230
1.0
 70
     8
 71
     3
 72
    14
 73
    10
 74
     0
 42
0.000000001
 43
0.0000000001
 40
0.0
 40
0.0
 40
0.0
 40
0.0
 40
0.25
 40
0.25
 40
0.5
 40
0.5
 40
0.75
 40
0.75
 40
1.0
 40
1.0
 40
1.0
 40
1.0
 10
31.60689241975265
 20
483.5246884554654
 30
0.0
 10
31.64132098569482
 20
483.5227888686384
 30
0.0
 10
31.67556960493279
 20
483.5320166113639
 30
0.0
 10
31.74331753256283
 20
483.5728626751222
 30
0.0
 10
31.7762555268415
 20
483.6046362089892
 30
0.0
 10
31.83436540551016
 20
483.6895627637536
 30
0.0
 10
31.85978214189747
 20
483.7431924295094
 30
0.0
 10
31.89567562519366
 20
483.8684073792263
 30
0.0
 10
31.90543703656835
 20
483.9375998838745
 30
0.0
 10
31.90543704860757
 20
484.0088242797133
 30
0.0
  0
LINE
  5
24E
330
1A7
100
AcDbEntity
  8
DV2_Default
  6
Continuous
 62
     7
100
AcDbLine
 10
41.8537309435
 20
478.6797605556
 30
0.0
 11
41.8537309435
 21
477.4797605556
 31
0.0
  0
LINE
  5
24F
330
1A7
100
AcDbEntity
  8
DV2_Default
  6
Continuous
 62
     7
100
AcDbLine
 10
40.5888198794
 20
477.4797605556
 30
0.0
 11
40.5888198794
 21
478.6797605556
 31
0.0
  0
LINE
  5
250
330
1A7
100
AcDbEntity
  8
DV2_Default
  6
Continuous
 62
     7
100
AcDbLine
 10
39.6537309435
 20
478.6797605556
 30
0.0
 11
39.6537309435
 21
477.4797605556
 31
0.0
  0
LINE
  5
251
330
1A7
100
AcDbEntity
  8
DV2_Default
  6
Continuous
 62
     7
100
AcDbLine
 10
38.3888198794
 20
477.4797605556
 30
0.0
 11
38.3888198794
 21
478.6797605556
 31
0.0
  0
LINE
  5
252
330
1A7
100
AcDbEntity
  8
DV2_Default
  6
Continuous
 62
     7
100
AcDbLine
 10
40.5888198794
 20
472.2797605556
 30
0.0
 11
40.5888198794
 21
473.4797605556
 31
0.0
  0
LINE
  5
253
330
1A7
100
AcDbEntity
  8
DV2_Default
  6
Continuous
 62
     7
100
AcDbLine
 10
41.8537309435
 20
473.4797605556
 30
0.0
 11
41.8537309435
 21
472.2797605556
 31
0.0
  0
LINE
  5
254
330
1A7
100
AcDbEntity
  8
DV2_Default
  6
Continuous
 62
     7
100
AcDbLine
 10
39.6537309435
 20
473.4797605556
 30
0.0
 11
39.6537309435
 21
472.2797605556
 31
0.0
  0
LINE
  5
255
330
1A7
100
AcDbEntity
  8
DV2_Default
  6
Continuous
 62
     7
100
AcDbLine
 10
38.3888198794
 20
472.2797605556
 30
0.0
 11
38.3888198794
 21
473.4797605556
 31
0.0
  0
LINE
  5
256
330
1A7
100
AcDbEntity
  8
DV2_Default
  6
Continuous
 62
     7
100
AcDbLine
 10
44.2278309979
 20
467.5797605556
 30
0.0
 11
36.0147198251
 21
467.5797605556
 31
0.0
  0
LINE
  5
257
330
1A7
100
AcDbEntity
  8
DV2_Default
  6
Continuous
 62
     7
100
AcDbLine
 10
35.5388197379
 20
478.6797605556
 30
0.0
 11
44.703731085
 21
478.6797605556
 31
0.0
  0
LINE
  5
258
330
1A7
100
AcDbEntity
  8
DV2_Default
  6
Continuous
 62
     7
100
AcDbLine
 10
35.5388197379
 20
478.6797605556
 30
0.0
 11
35.579590702
 21
477.4797605556
 31
0.0
  0
LINE
  5
259
330
1A7
100
AcDbEntity
  8
DV2_Default
  6
Continuous
 62
     7
100
AcDbLine
 10
44.6629601209
 20
477.4797605556
 30
0.0
 11
35.579590702
 21
477.4797605556
 31
0.0
  0
LINE
  5
25A
330
1A7
100
AcDbEntity
  8
DV2_Default
  6
Continuous
 62
     7
100
AcDbLine
 10
44.6629601209
 20
477.4797605556
 30
0.0
 11
44.703731085
 21
478.6797605556
 31
0.0
  0
LINE
  5
25B
330
1A7
100
AcDbEntity
  8
DV2_Default
  6
Continuous
 62
     7
100
AcDbLine
 10
44.4861210877
 20
472.2797605556
 30
0.0
 11
35.7564297352
 21
472.2797605556
 31
0.0
  0
LINE
  5
25C
330
1A7
100
AcDbEntity
  8
DV2_Default
  6
Continuous
 62
     7
100
AcDbLine
 10
44.4861210877
 20
472.2797605556
 30
0.0
 11
44.5269548268
 21
473.4797605556
 31
0.0
  0
LINE
  5
25D
330
1A7
100
AcDbEntity
  8
DV2_Default
  6
Continuous
 62
     7
100
AcDbLine
 10
35.7155959961
 20
473.4797605556
 30
0.0
 11
44.5269548268
 21
473.4797605556
 31
0.0
  0
LINE
  5
25E
330
1A7
100
AcDbEntity
  8
DV2_Default
  6
Continuous
 62
     7
100
AcDbLine
 10
35.7155959961
 20
473.4797605556
 30
0.0
 11
35.7564297352
 21
472.2797605556
 31
0.0
  0
LINE
  5
25F
330
1A7
100
AcDbEntity
  8
DV2_Default
  6
Continuous
 62
     7
100
AcDbLine
 10
39.2212754115
 20
474.8797605556
 30
0.0
 11
39.2212754115
 21
476.0797605556
 31
0.0
  0
LINE
  5
260
330
1A7
100
AcDbEntity
  8
DV2_Default
  6
Continuous
 62
     7
100
AcDbLine
 10
39.2212754115
 20
476.0797605556
 30
0.0
 11
35.5379420781
 21
476.0797605556
 31
0.0
  0
LINE
  5
261
330
1A7
100
AcDbEntity
  8
DV2_Default
  6
Continuous
 62
     7
100
AcDbLine
 10
35.5779420781
 20
474.8797605556
 30
0.0
 11
39.2212754115
 21
474.8797605556
 31
0.0
  0
LINE
  5
262
330
1A7
100
AcDbEntity
  8
DV2_Default
  6
Continuous
 62
     7
100
AcDbLine
 10
35.7512754115
 20
469.6797605556
 30
0.0
 11
39.2212754115
 21
469.6797605556
 31
0.0
  0
LINE
  5
263
330
1A7
100
AcDbEntity
  8
DV2_Default
  6
Continuous
 62
     7
100
AcDbLine
 10
39.2212754115
 20
469.6797605556
 30
0.0
 11
39.2212754115
 21
470.8797605556
 31
0.0
  0
LINE
  5
264
330
1A7
100
AcDbEntity
  8
DV2_Default
  6
Continuous
 62
     7
100
AcDbLine
 10
39.2212754115
 20
470.8797605556
 30
0.0
 11
35.7112754115
 21
470.8797605556
 31
0.0
  0
LINE
  5
265
330
1A7
100
AcDbEntity
  8
DV2_Default
  6
Continuous
 62
     7
100
AcDbLine
 10
41.0212754115
 20
476.0797605556
 30
0.0
 11
41.0212754115
 21
474.8797605556
 31
0.0
  0
LINE
  5
266
330
1A7
100
AcDbEntity
  8
DV2_Default
  6
Continuous
 62
     7
100
AcDbLine
 10
41.0212754115
 20
474.8797605556
 30
0.0
 11
44.6646087448
 21
474.8797605556
 31
0.0
  0
LINE
  5
267
330
1A7
100
AcDbEntity
  8
DV2_Default
  6
Continuous
 62
     7
100
AcDbLine
 10
41.0212754115
 20
476.0797605556
 30
0.0
 11
44.7046087448
 21
476.0797605556
 31
0.0
  0
LINE
  5
268
330
1A7
100
AcDbEntity
  8
DV2_Default
  6
Continuous
 62
     7
100
AcDbLine
 10
41.0212754115
 20
470.8797605556
 30
0.0
 11
41.0212754115
 21
469.6797605556
 31
0.0
  0
LINE
  5
269
330
1A7
100
AcDbEntity
  8
DV2_Default
  6
Continuous
 62
     7
100
AcDbLine
 10
44.4912754115
 20
469.6797605556
 30
0.0
 11
41.0212754115
 21
469.6797605556
 31
0.0
  0
LINE
  5
26A
330
1A7
100
AcDbEntity
  8
DV2_Default
  6
Continuous
 62
     7
100
AcDbLine
 10
41.0212754115
 20
470.8797605556
 30
0.0
 11
44.5312754115
 21
470.8797605556
 31
0.0
  0
LINE
  5
26B
330
1A7
100
AcDbEntity
  8
DV2_Default
  6
Continuous
 62
     7
100
AcDbLine
 10
34.5214795286
 20
481.0797605556
 30
0.0
 11
45.7212754115
 21
481.0797605556
 31
0.0
  0
LINE
  5
26C
330
1A7
100
AcDbEntity
  8
DV2_Default
  6
Continuous
 62
     7
100
AcDbLine
 10
34.3212754115
 20
482.9797605556
 30
0.0
 11
45.9212754115
 21
482.9797605556
 31
0.0
  0
LINE
  5
26D
330
1A7
100
AcDbEntity
  8
DV2_Default
  6
Continuous
 62
     7
100
AcDbLine
 10
36.8212754115
 20
482.9797605556
 30
0.0
 11
36.8212754115
 21
483.3217117633
 31
0.0
  0
LINE
  5
26E
330
1A7
100
AcDbEntity
  8
DV2_Default
  6
Continuous
 62
     7
100
AcDbLine
 10
43.4212754115
 20
482.9797605556
 30
0.0
 11
43.4212754115
 21
483.3214453845
 31
0.0
  0
LINE
  5
26F
330
1A7
100
AcDbEntity
  8
DV2_Default
  6
Continuous
 62
     7
100
AcDbLine
 10
37.9212754115
 20
467.5797605556
 30
0.0
 11
37.9212754115
 21
459.5797605556
 31
0.0
  0
LINE
  5
270
330
1A7
100
AcDbEntity
  8
DV2_Default
  6
Continuous
 62
     7
100
AcDbLine
 10
40.1212754115
 20
459.5797605556
 30
0.0
 11
40.1212754115
 21
467.5797605556
 31
0.0
  0
LINE
  5
271
330
1A7
100
AcDbEntity
  8
DV2_Default
  6
Continuous
 62
     7
100
AcDbLine
 10
37.9212754115
 20
470.8797605556
 30
0.0
 11
37.9212754115
 21
469.6797605556
 31
0.0
  0
LINE
  5
272
330
1A7
100
AcDbEntity
  8
DV2_Default
  6
Continuous
 62
     7
100
AcDbLine
 10
37.9212754115
 20
476.0797605556
 30
0.0
 11
37.9212754115
 21
474.8797605556
 31
0.0
  0
LINE
  5
273
330
1A7
100
AcDbEntity
  8
DV2_Default
  6
Continuous
 62
     7
100
AcDbLine
 10
42.3212754115
 20
474.8797605556
 30
0.0
 11
42.3212754115
 21
476.0797605556
 31
0.0
  0
LINE
  5
274
330
1A7
100
AcDbEntity
  8
DV2_Default
  6
Continuous
 62
     7
100
AcDbLine
 10
42.3212754115
 20
469.6797605556
 30
0.0
 11
42.3212754115
 21
470.8797605556
 31
0.0
  0
ARC
  5
275
330
1A7
100
AcDbEntity
  8
DV2_Default
  6
Continuous
 62
     7
100
AcDbCircle
 10
44.2278309979
 20
467.7797605556
 30
0.0
 40
0.2000000000000057
100
AcDbArc
 50
270.0
 51
358.090847566
  0
ARC
  5
276
330
1A7
100
AcDbEntity
  8
DV2_Default
  6
Continuous
 62
     7
100
AcDbCircle
 10
36.0147198251
 20
467.7797605556
 30
0.0
 40
0.2000000000001477
100
AcDbArc
 50
181.909152434
 51
270.0
  0
LINE
  5
277
330
1A7
100
AcDbEntity
  8
DV2_Default
  6
Continuous
 62
     7
100
AcDbLine
 10
35.7512754115
 20
469.6797605556
 30
0.0
 11
35.8148308437
 21
467.7730975896
 31
0.0
  0
LINE
  5
278
330
1A7
100
AcDbEntity
  8
DV2_Default
  6
Continuous
 62
     7
100
AcDbLine
 10
35.5779420781
 20
474.8797605556
 30
0.0
 11
35.7112754115
 21
470.8797605556
 31
0.0
  0
LINE
  5
279
330
1A7
100
AcDbEntity
  8
DV2_Default
  6
Continuous
 62
     7
100
AcDbLine
 10
35.3712754115
 20
481.0797605556
 30
0.0
 11
35.5379420781
 21
476.0797605556
 31
0.0
  0
LINE
  5
27A
330
1A7
100
AcDbEntity
  8
DV2_Default
  6
Continuous
 62
     7
100
AcDbLine
 10
44.7046087448
 20
476.0797605556
 30
0.0
 11
44.8712754115
 21
481.0797605556
 31
0.0
  0
LINE
  5
27B
330
1A7
100
AcDbEntity
  8
DV2_Default
  6
Continuous
 62
     7
100
AcDbLine
 10
44.5312754115
 20
470.8797605556
 30
0.0
 11
44.6646087448
 21
474.8797605556
 31
0.0
  0
LINE
  5
27C
330
1A7
100
AcDbEntity
  8
DV2_Default
  6
Continuous
 62
     7
100
AcDbLine
 10
44.4277199793
 20
467.7730975896
 30
0.0
 11
44.4912754115
 21
469.6797605556
 31
0.0
  0
ARC
  5
27D
330
1A7
100
AcDbEntity
  8
DV2_Default
  6
Continuous
 62
     7
100
AcDbCircle
 10
45.7212754115
 20
481.2797605556
 30
0.0
 40
0.2000000000000057
100
AcDbArc
 50
270.0
 51
0.0
  0
ARC
  5
27E
330
1A7
100
AcDbEntity
  8
DV2_Default
  6
Continuous
 62
     7
100
AcDbCircle
 10
34.5212754115
 20
481.2797605556
 30
0.0
 40
0.2000000000000057
100
AcDbArc
 50
180.0
 51
270.0
  0
LINE
  5
27F
330
1A7
100
AcDbEntity
  8
DV2_Default
  6
Continuous
 62
     7
100
AcDbLine
 10
45.9212754115
 20
481.2797605556
 30
0.0
 11
45.9212754115
 21
482.9797605556
 31
0.0
  0
LINE
  5
280
330
1A7
100
AcDbEntity
  8
DV2_Default
  6
Continuous
 62
     7
100
AcDbLine
 10
34.3212754115
 20
482.9797605556
 30
0.0
 11
34.3212754115
 21
481.2797605556
 31
0.0
  0
LINE
  5
281
330
1A7
100
AcDbEntity
  8
DV2_Default
  6
Continuous
 62
     7
100
AcDbLine
 10
42.3212754115
 20
459.5797605556
 30
0.0
 11
42.3212754115
 21
467.5797605556
 31
0.0
  0
LINE
  5
282
330
1A7
100
AcDbEntity
  8
DV2_Default
  6
Continuous
 62
     7
100
AcDbLine
 10
40.1212754115
 20
467.5797605556
 30
0.0
 11
40.1212754115
 21
459.5797605556
 31
0.0
  0
ENDBLK
  5
284
330
1A7
100
AcDbEntity
  8
0
100
AcDbBlockEnd
  0
BLOCK
  5
311
330
285
100
AcDbEntity
  8
0
100
AcDbBlockBegin
  2
SE2
 70
     0
 10
0.0
 20
0.0
 30
0.0
  3
SE2
  1
SE2
  0
LINE
  5
288
330
285
100
AcDbEntity
  8
DV3_Default
  6
Continuous
 62
     7
100
AcDbLine
 10
132.9544575516
 20
204.0071781673
 30
0.0
 11
134.8553171095
 21
204.0071781673
 31
0.0
  0
LINE
  5
289
330
285
100
AcDbEntity
  8
DV3_Default
  6
Continuous
 62
     7
100
AcDbLine
 10
145.3872337134
 20
204.0071781673
 30
0.0
 11
147.280664364
 21
204.0071781673
 31
0.0
  0
LINE
  5
28A
330
285
100
AcDbEntity
  8
DV3_Default
  6
Continuous
 62
     7
100
AcDbLine
 10
134.8684100703
 20
204.5071781673
 30
0.0
 11
145.3741407526
 21
204.5071781673
 31
0.0
  0
LINE
  5
28B
330
285
100
AcDbEntity
  8
DV3_Default
  6
Continuous
 62
     7
100
AcDbLine
 10
145.3741407526
 20
204.5071781673
 30
0.0
 11
145.4524366581
 21
201.5171781673
 31
0.0
  0
LINE
  5
28C
330
285
100
AcDbEntity
  8
DV3_Default
  6
Continuous
 62
     7
100
AcDbLine
 10
182.1212754115
 20
196.5071781673
 30
0.0
 11
98.1212754115
 21
196.5071781673
 31
0.0
  0
LINE
  5
28D
330
285
100
AcDbEntity
  8
DV3_Default
  6
Continuous
 62
     7
100
AcDbLine
 10
97.9903458036
 20
201.5071781673
 30
0.0
 11
182.2522050193
 21
201.5071781673
 31
0.0
  0
LINE
  5
28E
330
285
100
AcDbEntity
  8
DV3_Default
  6
Continuous
 62
     7
100
AcDbLine
 10
134.8684100703
 20
204.5071781673
 30
0.0
 11
134.7901141648
 21
201.5171781673
 31
0.0
  0
LINE
  5
28F
330
285
100
AcDbEntity
  8
DV3_Default
  6
Continuous
 62
     7
100
AcDbLine
 10
146.7011300667
 20
201.8071781673
 30
0.0
 11
145.4448427409
 21
201.8071781673
 31
0.0
  0
LINE
  5
290
330
285
100
AcDbEntity
  8
DV3_Default
  6
Continuous
 62
     7
100
AcDbLine
 10
134.797708082
 20
201.8071781673
 30
0.0
 11
133.5414205472
 21
201.8071781673
 31
0.0
  0
LINE
  5
291
330
285
100
AcDbEntity
  8
DV3_Default
  6
Continuous
 62
     7
100
AcDbLine
 10
133.3311295786
 20
202.6071781673
 30
0.0
 11
134.1712754115
 21
202.6071781673
 31
0.0
  0
LINE
  5
292
330
285
100
AcDbEntity
  8
DV3_Default
  6
Continuous
 62
     7
100
AcDbLine
 10
133.4625614339
 20
202.1071781673
 30
0.0
 11
134.8055638585
 21
202.1071781673
 31
0.0
  0
LINE
  5
293
330
285
100
AcDbEntity
  8
DV3_Default
  6
Continuous
 62
     7
100
AcDbLine
 10
146.0712754115
 20
202.6071781673
 30
0.0
 11
146.9114210985
 21
202.6071781673
 31
0.0
  0
LINE
  5
294
330
285
100
AcDbEntity
  8
DV3_Default
  6
Continuous
 62
     7
100
AcDbLine
 10
145.4369869644
 20
202.1071781673
 30
0.0
 11
146.7799892036
 21
202.1071781673
 31
0.0
  0
ARC
  5
295
330
285
100
AcDbEntity
  8
DV3_Default
  6
Continuous
 62
     7
100
AcDbCircle
 10
145.5712754115
 20
202.2071781673
 30
0.0
 40
0.0999999999999992
100
AcDbArc
 50
270.0
 51
0.0
  0
ARC
  5
296
330
285
100
AcDbEntity
  8
DV3_Default
  6
Continuous
 62
     7
100
AcDbCircle
 10
134.6712754115
 20
202.2071781673
 30
0.0
 40
0.0999999999999992
100
AcDbArc
 50
180.0
 51
270.0
  0
ARC
  5
297
330
285
100
AcDbEntity
  8
DV3_Default
  6
Continuous
 62
     7
100
AcDbCircle
 10
134.1712754115
 20
202.2071781673
 30
0.0
 40
0.3999999999999972
100
AcDbArc
 50
0.0
 51
90.0
  0
ARC
  5
298
330
285
100
AcDbEntity
  8
DV3_Default
  6
Continuous
 62
     7
100
AcDbCircle
 10
146.0712754115
 20
202.2071781673
 30
0.0
 40
0.399999999999993
100
AcDbArc
 50
90.0
 51
180.0
  0
LINE
  5
299
330
285
100
AcDbEntity
  8
DV3_Default
  6
Continuous
 62
     7
100
AcDbLine
 10
97.9903458036
 20
201.5071781673
 30
0.0
 11
98.1212754115
 21
196.5071781673
 31
0.0
  0
LINE
  5
29A
330
285
100
AcDbEntity
  8
DV3_Default
  6
Continuous
 62
     7
100
AcDbLine
 10
182.1212754115
 20
196.5071781673
 30
0.0
 11
182.2522050193
 21
201.5071781673
 31
0.0
  0
LINE
  5
29B
330
285
100
AcDbEntity
  8
DV3_Default
  6
Continuous
 62
     7
100
AcDbLine
 10
137.186710557
 20
204.9071781673
 30
0.0
 11
143.0558402659
 21
204.9071781673
 31
0.0
  0
ARC
  5
29C
330
285
100
AcDbEntity
  8
DV3_Default
  6
Continuous
 62
     7
100
AcDbCircle
 10
143.0558402659
 20
204.4071781673
 30
0.0
 40
0.5
100
AcDbArc
 50
11.5369590328
 51
90.0
  0
SPLINE
  5
29D
330
285
100
AcDbEntity
  8
DV3_Default
  6
Continuous
 62
     7
100
AcDbSpline
210
0.0
220
0.0
230
1.0
 70
     8
 71
     3
 72
     9
 73
     5
 74
     0
 42
0.000000001
 43
0.0000000001
 40
0.0
 40
0.0
 40
0.0
 40
0.0
 40
0.6037122998019424
 40
1.0
 40
1.0
 40
1.0
 40
1.0
 10
104.3877558840269
 20
204.1891472890062
 30
0.0
 10
104.3876249788893
 20
204.1939954647443
 30
0.0
 10
104.3891284921309
 20
204.2019475928355
 30
0.0
 10
104.3945331334312
 20
204.2097222246374
 30
0.0
 10
104.397265249692
 20
204.2127692859217
 30
0.0
  0
SPLINE
  5
29E
330
285
100
AcDbEntity
  8
DV3_Default
  6
Continuous
 62
     7
100
AcDbSpline
210
0.0
220
0.0
230
1.0
 70
     8
 71
     3
 72
     9
 73
     5
 74
     0
 42
0.000000001
 43
0.0000000001
 40
0.0
 40
0.0
 40
0.0
 40
0.0
 40
0.0226870211696677
 40
1.0
 40
1.0
 40
1.0
 40
1.0
 10
175.8438420086847
 20
204.2131964209276
 30
0.0
 10
175.8440225212227
 20
204.2130231828981
 30
0.0
 10
175.8519100560752
 20
204.2053821525386
 30
0.0
 10
175.8567492277773
 20
204.1975213678414
 30
0.0
 10
175.8579910699991
 20
204.189687365362
 30
0.0
  0
ARC
  5
29F
330
285
100
AcDbEntity
  8
DV3_Default
  6
Continuous
 62
     7
100
AcDbCircle
 10
137.186710557
 20
204.4071781673
 30
0.0
 40
0.4999999999999976
100
AcDbArc
 50
90.0
 51
168.4630409672
  0
LINE
  5
2A0
330
285
100
AcDbEntity
  8
DV3_Default
  6
Continuous
 62
     7
100
AcDbLine
 10
132.0340568862
 20
204.9071781673
 30
0.0
 11
132.1090659204
 21
204.9071781673
 31
0.0
  0
ARC
  5
2A1
330
285
100
AcDbEntity
  8
DV3_Default
  6
Continuous
 62
     7
100
AcDbCircle
 10
105.1920699007
 20
204.1186480939
 30
0.0
 40
0.7885893918620014
100
AcDbArc
 50
90.7027644334
 51
177.7907948398
  0
LINE
  5
2A2
330
285
100
AcDbEntity
  8
DV3_Default
  6
Continuous
 62
     7
100
AcDbLine
 10
105.1823976414
 20
204.9071781673
 30
0.0
 11
132.0340568862
 21
204.9071781673
 31
0.0
  0
LINE
  5
2A3
330
285
100
AcDbEntity
  8
DV3_Default
  6
Continuous
 62
     7
100
AcDbLine
 10
148.1330035585
 20
204.9071781673
 30
0.0
 11
148.2085434261
 21
204.9071781673
 31
0.0
  0
ARC
  5
2A4
330
285
100
AcDbEntity
  8
DV3_Default
  6
Continuous
 62
     7
100
AcDbCircle
 10
175.0504705533
 20
204.1186375954
 30
0.0
 40
0.7886001578097606
100
AcDbArc
 50
2.2099383249
 51
89.2956581274
  0
LINE
  5
2A5
330
285
100
AcDbEntity
  8
DV3_Default
  6
Continuous
 62
     7
100
AcDbLine
 10
148.20854343
 20
204.9071781673
 30
0.0
 11
175.0601646377
 21
204.9071781673
 31
0.0
  0
LINE
  5
2A6
330
285
100
AcDbEntity
  8
DV3_Default
  6
Continuous
 62
     7
100
AcDbLine
 10
180.721206853
 20
201.5171781673
 30
0.0
 11
99.52134397
 21
201.5171781673
 31
0.0
  0
LINE
  5
2A7
330
285
100
AcDbEntity
  8
DV3_Default
  6
Continuous
 62
     7
100
AcDbLine
 10
147.359348429
 20
204.3112064437
 30
0.0
 11
146.9114210985
 21
202.6071781673
 31
0.0
  0
LINE
  5
2A8
330
285
100
AcDbEntity
  8
DV3_Default
  6
Continuous
 62
     7
100
AcDbLine
 10
176.1218860586
 20
201.5186065629
 30
0.0
 11
175.8574026901
 21
204.190299756
 31
0.0
  0
LINE
  5
2A9
330
285
100
AcDbEntity
  8
DV3_Default
  6
Continuous
 62
     7
100
AcDbLine
 10
133.3311295786
 20
202.6071781673
 30
0.0
 11
132.8831989928
 21
204.3112193394
 31
0.0
  0
LINE
  5
2AA
330
285
100
AcDbEntity
  8
DV3_Default
  6
Continuous
 62
     7
100
AcDbLine
 10
104.3851490499
 20
204.190308802
 30
0.0
 11
104.1206304726
 21
201.5182482317
 31
0.0
  0
LINE
  5
2AB
330
285
100
AcDbEntity
  8
DV3_Default
  6
Continuous
 62
     7
100
AcDbLine
 10
133.6225855921
 20
201.4984067084
 30
0.0
 11
132.8832023939
 21
204.3112064437
 31
0.0
  0
LINE
  5
2AC
330
285
100
AcDbEntity
  8
DV3_Default
  6
Continuous
 62
     7
100
AcDbLine
 10
104.3851481329
 20
204.190299756
 30
0.0
 11
104.1206647643
 21
201.5186065629
 31
0.0
  0
LINE
  5
2AD
330
285
100
AcDbEntity
  8
DV3_Default
  6
Continuous
 62
     7
100
AcDbLine
 10
147.3593518301
 20
204.3112193394
 30
0.0
 11
146.620142128
 21
201.4990787818
 31
0.0
  0
LINE
  5
2AE
330
285
100
AcDbEntity
  8
DV3_Default
  6
Continuous
 62
     7
100
AcDbLine
 10
176.1219203503
 20
201.5182482317
 30
0.0
 11
175.857401773
 21
204.190308802
 31
0.0
  0
ARC
  5
2AF
330
285
100
AcDbEntity
  8
DV3_Default
  6
Continuous
 62
     7
100
AcDbCircle
 10
148.1359158754
 20
204.1034127682
 30
0.0
 40
0.8037736948792823
100
AcDbArc
 50
89.7396859868
 51
165.0875999067
  0
SPLINE
  5
2B0
330
285
100
AcDbEntity
  8
DV3_Default
  6
Continuous
 62
     7
100
AcDbSpline
210
0.0
220
0.0
230
1.0
 70
     8
 71
     3
 72
     8
 73
     4
 74
     0
 42
0.000000001
 43
0.0000000001
 40
0.0
 40
0.0
 40
0.0
 40
0.0
 40
0.9999999999999999
 40
0.9999999999999999
 40
0.9999999999999999
 40
0.9999999999999999
 10
175.8547855011989
 20
204.1981357124564
 30
0.0
 10
175.8491263067673
 20
204.2271026497552
 30
0.0
 10
175.8436922918146
 20
204.2538504389925
 30
0.0
 10
175.8374260001673
 20
204.279545438868
 30
0.0
  0
SPLINE
  5
2B1
330
285
100
AcDbEntity
  8
DV3_Default
  6
Continuous
 62
     7
100
AcDbSpline
210
0.0
220
0.0
230
1.0
 70
     8
 71
     3
 72
     8
 73
     4
 74
     0
 42
0.000000001
 43
0.0000000001
 40
0.0
 40
0.0
 40
0.0
 40
0.0
 40
1.0
 40
1.0
 40
1.0
 40
1.0
 10
104.4048699689382
 20
204.2783916545267
 30
0.0
 10
104.3987085971379
 20
204.2531042957146
 30
0.0
 10
104.3933298957495
 20
204.2267781691984
 30
0.0
 10
104.3877307136427
 20
204.1983077904659
 30
0.0
  0
ARC
  5
2B2
330
285
100
AcDbEntity
  8
DV3_Default
  6
Continuous
 62
     7
100
AcDbCircle
 10
132.1066349475
 20
204.1034127682
 30
0.0
 40
0.8037736948793092
100
AcDbArc
 50
14.9124000933
 51
90.2603140132
  0
SPLINE
  5
2B3
330
285
100
AcDbEntity
  8
DV3_Default
  6
Continuous
 62
     7
100
AcDbSpline
210
0.0
220
0.0
230
1.0
 70
     8
 71
     3
 72
    22
 73
    18
 74
     0
 42
0.000000001
 43
0.0000000001
 40
0.0
 40
0.0
 40
0.0
 40
0.0
 40
0.0541195799056818
 40
0.1105835092844177
 40
0.2273423204215815
 40
0.2833725479965599
 40
0.3103062871450982
 40
0.3374643607479875
 40
0.3665221080963113
 40
0.3988697668235911
 40
0.4744628127614499
 40
0.6452176428522918
 40
0.7186423525814163
 40
0.7811208800759081
 40
0.8373150182298226
 40
0.8914797217654556
 40
1.0
 40
1.0
 40
1.0
 40
1.0
 10
105.188843501134
 20
204.9071781673432
 30
0.0
 10
105.1628980180798
 20
204.9068014590505
 30
0.0
 10
105.1171935366619
 20
204.9058719454508
 30
0.0
 10
105.0278972491531
 20
204.894320161471
 30
0.0
 10
104.9711397257763
 20
204.8740861983052
 30
0.0
 10
104.9252844926487
 20
204.8454530733258
 30
0.0
 10
104.8937876136894
 20
204.8254712311776
 30
0.0
 10
104.8657810943206
 20
204.8085755644535
 30
0.0
 10
104.8323475801156
 20
204.7898159438215
 30
0.0
 10
104.7795541916858
 20
204.76102416534
 30
0.0
 10
104.6766274233306
 20
204.7030022969427
 30
0.0
 10
104.5835802198523
 20
204.6338314577097
 30
0.0
 10
104.5095329031657
 20
204.541141146105
 30
0.0
 10
104.4677583847858
 20
204.4706539387375
 30
0.0
 10
104.4366050756071
 20
204.4009497910023
 30
0.0
 10
104.4072951508142
 20
204.3116635357493
 30
0.0
 10
104.4018714865072
 20
204.2558360795838
 30
0.0
 10
104.3984713934589
 20
204.2129774142587
 30
0.0
  0
ARC
  5
2B4
330
285
100
AcDbEntity
  8
DV3_Default
  6
Continuous
 62
     7
100
AcDbCircle
 10
148.1359310274
 20
204.1034721869
 30
0.0
 40
0.8037142883208547
100
AcDbArc
 50
89.739485186
 51
165.0913849247
  0
SPLINE
  5
2B5
330
285
100
AcDbEntity
  8
DV3_Default
  6
Continuous
 62
     7
100
AcDbSpline
210
0.0
220
0.0
230
1.0
 70
     8
 71
     3
 72
    21
 73
    17
 74
     0
 42
0.000000001
 43
0.0000000001
 40
0.0
 40
0.0
 40
0.0
 40
0.0
 40
0.1085294734134432
 40
0.1626817519362539
 40
0.2188673873235855
 40
0.2813274743913732
 40
0.3547921797708465
 40
0.5257326226486191
 40
0.6013822953486078
 40
0.6337504634652519
 40
0.6628125113273122
 40
0.6899642276619115
 40
0.7726210161837836
 40
0.8894257849784271
 40
0.9458598704919314
 40
1.0
 40
1.0
 40
1.0
 40
1.0
 10
175.8438571249806
 20
204.2131986978226
 30
0.0
 10
175.8405281315391
 20
204.2560365797025
 30
0.0
 10
175.8351883602135
 20
204.3118447118009
 30
0.0
 10
175.8059197825006
 20
204.4011557201636
 30
0.0
 10
175.7747547803661
 20
204.4708203756471
 30
0.0
 10
175.7328808248063
 20
204.5413052621814
 30
0.0
 10
175.6586365560302
 20
204.6339560210969
 30
0.0
 10
175.5654732438161
 20
204.7030904328176
 30
0.0
 10
175.4623604588636
 20
204.7610954817597
 30
0.0
 10
175.4095171246342
 20
204.7898743939913
 30
0.0
 10
175.3760851003434
 20
204.8086158687045
 30
0.0
 10
175.3293242341759
 20
204.8368908950481
 30
0.0
 10
175.2773652803388
 20
204.8720275192049
 30
0.0
 10
175.2146583220139
 20
204.894277455206
 30
0.0
 10
175.1253373646689
 20
204.9058836156394
 30
0.0
 10
175.0796656712668
 20
204.9068026055044
 30
0.0
 10
175.0537145573961
 20
204.9071781673432
 30
0.0
  0
LINE
  5
2B6
330
285
100
AcDbEntity
  8
DV3_Default
  6
Continuous
 62
     7
100
AcDbLine
 10
99.52134397
 20
201.5171781673
 30
0.0
 11
99.52134397
 21
201.5071781673
 31
0.0
  0
LINE
  5
2B7
330
285
100
AcDbEntity
  8
DV3_Default
  6
Continuous
 62
     7
100
AcDbLine
 10
180.721206853
 20
201.5071781673
 30
0.0
 11
180.721206853
 21
201.5171781673
 31
0.0
  0
LINE
  5
2B8
330
285
100
AcDbEntity
  8
DV3_Default
  6
Continuous
 62
     7
100
AcDbLine
 10
99.1362759909
 20
170.3071781673
 30
0.0
 11
181.1062748321
 21
170.3071781673
 31
0.0
  0
ARC
  5
2B9
330
285
100
AcDbEntity
  8
DV3_Default
  6
Continuous
 62
     7
100
AcDbCircle
 10
181.1062748321
 20
170.8071781673
 30
0.0
 40
0.5000000000000004
100
AcDbArc
 50
270.0
 51
359.0
  0
ARC
  5
2BA
330
285
100
AcDbEntity
  8
DV3_Default
  6
Continuous
 62
     7
100
AcDbCircle
 10
99.1362759909
 20
170.8071781673
 30
0.0
 40
0.4999999999999999
100
AcDbArc
 50
181.0
 51
270.0
  0
LINE
  5
2BB
330
285
100
AcDbEntity
  8
DV3_Default
  6
Continuous
 62
     7
100
AcDbLine
 10
98.1876046582
 20
196.5071781673
 30
0.0
 11
98.6363521433
 21
170.7984519641
 31
0.0
  0
LINE
  5
2BC
330
285
100
AcDbEntity
  8
DV3_Default
  6
Continuous
 62
     7
100
AcDbLine
 10
181.6061986796
 20
170.7984519641
 30
0.0
 11
182.0549461647
 21
196.5071781673
 31
0.0
  0
LINE
  5
2BD
330
285
100
AcDbEntity
  8
DV3_Default
  6
Continuous
 62
     7
100
AcDbLine
 10
18.1864492685
 20
200.9071781673
 30
0.0
 11
14.524400271
 21
200.9071781673
 31
0.0
  0
LINE
  5
2BE
330
285
100
AcDbEntity
  8
DV3_Default
  6
Continuous
 62
     7
100
AcDbLine
 10
18.1864492685
 20
200.9071781673
 30
0.0
 11
62.0561015544
 21
200.9071781673
 31
0.0
  0
LINE
  5
2BF
330
285
100
AcDbEntity
  8
DV3_Default
  6
Continuous
 62
     7
100
AcDbLine
 10
65.7181505519
 20
200.9071781673
 30
0.0
 11
62.0561015544
 21
200.9071781673
 31
0.0
  0
LINE
  5
2C0
330
285
100
AcDbEntity
  8
DV3_Default
  6
Continuous
 62
     7
100
AcDbLine
 10
14.5244002711
 20
199.9071781678
 30
0.0
 11
14.524400271
 21
200.9071781673
 31
0.0
  0
ARC
  5
2C1
330
285
100
AcDbEntity
  8
DV3_Default
  6
Continuous
 62
     7
100
AcDbCircle
 10
15.024400271
 20
199.9071781683
 30
0.0
 40
0.4999999999875937
100
AcDbArc
 50
180.0000000569
 51
269.7392737856
  0
LINE
  5
2C2
330
285
100
AcDbEntity
  8
DV3_Default
  6
Continuous
 62
     7
100
AcDbLine
 10
15.0221250133
 20
199.407183302
 30
0.0
 11
18.3312458032
 21
199.4071798104
 31
0.0
  0
LINE
  5
2C3
330
285
100
AcDbEntity
  8
DV3_Default
  6
Continuous
 62
     7
100
AcDbLine
 10
18.3315900731
 20
199.4071781708
 30
0.0
 11
61.9109537498
 21
199.4071781708
 31
0.0
  0
LINE
  5
2C4
330
285
100
AcDbEntity
  8
DV3_Default
  6
Continuous
 62
     7
100
AcDbLine
 10
61.9106114025
 20
199.4071800242
 30
0.0
 11
65.2181463478
 21
199.4071781674
 31
0.0
  0
ARC
  5
2C5
330
285
100
AcDbEntity
  8
DV3_Default
  6
Continuous
 62
     7
100
AcDbCircle
 10
65.2181505519
 20
199.9071781672
 30
0.0
 40
0.4999999999221877
100
AcDbArc
 50
269.9995182379
 51
0.0
  0
LINE
  5
2C6
330
285
100
AcDbEntity
  8
DV3_Default
  6
Continuous
 62
     7
100
AcDbLine
 10
15.5390567994
 20
186.1693434656
 30
0.0
 11
15.0767814252
 21
199.4071781673
 31
0.0
  0
ARC
  5
2C7
330
285
100
AcDbEntity
  8
DV3_Default
  6
Continuous
 62
     7
100
AcDbCircle
 10
18.5412489997
 20
186.2780385128
 30
0.0
 40
3.004159220265279
100
AcDbArc
 50
205.3287312815
 51
262.3606482459
  0
SPLINE
  5
2C8
330
285
100
AcDbEntity
  8
DV3_Default
  6
Continuous
 62
     7
100
AcDbSpline
210
0.0
220
0.0
230
1.0
 70
     8
 71
     3
 72
    28
 73
    24
 74
     0
 42
0.000000001
 43
0.0000000001
 40
0.0
 40
0.0
 40
0.0
 40
0.0
 40
0.0396604599463689
 40
0.0801171736739169
 40
0.1213700972965837
 40
0.163419182596503
 40
0.2062643771060934
 40
0.249905624182664
 40
0.2943428630763514
 40
0.3395760289920871
 40
0.385605053146227
 40
0.4324298628183641
 40
0.4800503813988248
 40
0.528466528432283
 40
0.5776782196578389
 40
0.6276853670459343
 40
0.6784878788323765
 40
0.7300856595497542
 40
0.7824786100564796
 40
0.8356666275636534
 40
0.8896496056599886
 40
0.9444274343349056
 40
1.0
 40
1.0
 40
1.0
 40
1.0
 10
15.53905679939932
 20
186.1693434655907
 30
0.0
 10
15.54007946320682
 20
186.1693645507894
 30
0.0
 10
15.54214532280222
 20
186.1694071422467
 30
0.0
 10
15.55911292179367
 20
186.1692782653987
 30
0.0
 10
15.58693852837893
 20
186.169010663004
 30
0.0
 10
15.62721126711711
 20
186.1685895922088
 30
0.0
 10
15.68020439285106
 20
186.1680191158013
 30
0.0
 10
15.74650764148776
 20
186.1672981102754
 30
0.0
 10
15.82656818975639
 20
186.1664268819617
 30
0.0
 10
15.92080786892301
 20
186.165405343494
 30
0.0
 10
16.02958121049176
 20
186.1642335161176
 30
0.0
 10
16.15317703205897
 20
186.1629113913903
 30
0.0
 10
16.2918078146785
 20
186.1614389691472
 30
0.0
 10
16.4456022742893
 20
186.1598162473472
 30
0.0
 10
16.61459709122807
 20
186.1580432236902
 30
0.0
 10
16.79872861028393
 20
186.1561198996041
 30
0.0
 10
16.99782595889542
 20
186.1540462621544
 30
0.0
 10
17.21159939205921
 20
186.1518223539045
 30
0.0
 10
17.43964834934622
 20
186.1494480058175
 30
0.0
 10
17.68139619341905
 20
186.1469238571797
 30
0.0
 10
17.93630741989241
 20
186.1442474623933
 30
0.0
 10
18.20303015496102
 20
186.1414281467634
 30
0.0
 10
18.38810555691418
 20
186.1394438965498
 30
0.0
 10
18.48130970894537
 20
186.1384446262198
 30
0.0
  0
ARC
  5
2C9
330
285
100
AcDbEntity
  8
DV3_Default
  6
Continuous
 62
     7
100
AcDbCircle
 10
40.0950180912
 20
744.164566408
 30
0.0
 40
561.3068908885119
100
AcDbArc
 50
267.7871001995
 51
267.8707393529
  0
SPLINE
  5
2CA
330
285
100
AcDbEntity
  8
DV3_Default
  6
Continuous
 62
     7
100
AcDbSpline
210
0.0
220
0.0
230
1.0
 70
     8
 71
     3
 72
    11
 73
     7
 74
     0
 42
0.000000001
 43
0.0000000001
 40
0.0
 40
0.0
 40
0.0
 40
0.0
 40
0.25
 40
0.5
 40
0.75
 40
1.0
 40
1.0
 40
1.0
 40
1.0
 10
19.24019068475642
 20
183.2452300210632
 30
0.0
 10
19.13110543094643
 20
183.2492798618732
 30
0.0
 10
18.92041331686642
 20
183.4091448503932
 30
0.0
 10
18.66564322765642
 20
184.0422658050632
 30
0.0
 10
18.51097412161642
 20
185.0067377828132
 30
0.0
 10
18.47870547952642
 20
185.7609491194032
 30
0.0
 10
18.48130970894537
 20
186.1384446262198
 30
0.0
  0
ARC
  5
2CB
330
285
100
AcDbEntity
  8
DV3_Default
  6
Continuous
 62
     7
100
AcDbCircle
 10
40.1204292986
 20
791.4366715916
 30
0.0
 40
605.6848975037001
100
AcDbArc
 50
267.9525754495
 51
272.047584784
  0
ARC
  5
2CC
330
285
100
AcDbEntity
  8
DV3_Default
  6
Continuous
 62
     7
100
AcDbCircle
 10
40.1212754114
 20
744.8571782152
 30
0.0
 40
562.0000000478101
100
AcDbArc
 50
267.8706877813
 51
272.1293129137
  0
SPLINE
  5
2CD
330
285
100
AcDbEntity
  8
DV3_Default
  6
Continuous
 62
     7
100
AcDbSpline
210
0.0
220
0.0
230
1.0
 70
     8
 71
     3
 72
    21
 73
    17
 74
     0
 42
0.000000001
 43
0.0000000001
 40
0.0
 40
0.0
 40
0.0
 40
0.0
 40
0.0312499999999996
 40
0.0624999999999996
 40
0.1249999999999996
 40
0.2499999999999996
 40
0.3749999999999997
 40
0.4999999999999997
 40
0.6249999999999998
 40
0.7499999999999998
 40
0.8124999999999998
 40
0.8749999999999998
 40
0.9374999999999998
 40
0.9687499999999998
 40
0.9843749999999998
 40
1.0
 40
1.0
 40
1.0
 40
1.0
 10
61.76124166699622
 20
186.138505144613
 30
0.0
 10
61.76156856473246
 20
186.0913177640874
 30
0.0
 10
61.76164782334546
 20
185.9970191368444
 30
0.0
 10
61.75949312268062
 20
185.8089924221436
 30
0.0
 10
61.74963595679505
 20
185.4822643043727
 30
0.0
 10
61.71814564192821
 20
185.0275343121542
 30
0.0
 10
61.65465695862345
 20
184.524178164269
 30
0.0
 10
61.56422137105838
 20
184.0841614980925
 30
0.0
 10
61.44963426971808
 20
183.7242386363
 30
0.0
 10
61.33700944767943
 20
183.5030987409136
 30
0.0
 10
61.23918384160275
 20
183.3736853393493
 30
0.0
 10
61.16266750072827
 20
183.3021821216907
 30
0.0
 10
61.09681411997482
 20
183.2650111118298
 30
0.0
 10
61.0498473077673
 20
183.2510666539968
 30
0.0
 10
61.02278582030841
 20
183.2465708512222
 30
0.0
 10
61.00918444880703
 20
183.2454833860376
 30
0.0
 10
61.00236695053641
 20
183.2452302743532
 30
0.0
  0
SPLINE
  5
2CE
330
285
100
AcDbEntity
  8
DV3_Default
  6
Continuous
 62
     7
100
AcDbSpline
210
0.0
220
0.0
230
1.0
 70
     8
 71
     3
 72
    24
 73
    20
 74
     0
 42
0.000000001
 43
0.0000000001
 40
0.0
 40
0.0
 40
0.0
 40
0.0
 40
0.03125
 40
0.0625
 40
0.09375
 40
0.125
 40
0.15625
 40
0.1875
 40
0.25
 40
0.3125
 40
0.375
 40
0.4375
 40
0.5
 40
0.5625
 40
0.625
 40
0.6875
 40
0.75
 40
0.875
 40
1.0
 40
1.0
 40
1.0
 40
1.0
 10
61.00236695053641
 20
183.2452302743532
 30
0.0
 10
61.01946557817642
 20
183.2458660122732
 30
0.0
 10
61.05904996793642
 20
183.2473394733032
 30
0.0
 10
61.11884271658642
 20
183.2495720817732
 30
0.0
 10
61.16857951840642
 20
183.2514338168832
 30
0.0
 10
61.21155422515642
 20
183.2530463855931
 30
0.0
 10
61.25105850942643
 20
183.2545314195432
 30
0.0
 10
61.29964217823643
 20
183.2563610535732
 30
0.0
 10
61.35369674461642
 20
183.2584022176931
 30
0.0
 10
61.40470100555643
 20
183.2603322049532
 30
0.0
 10
61.45056975516643
 20
183.2620725162332
 30
0.0
 10
61.50012033432642
 20
183.2639558209131
 30
0.0
 10
61.55895274577642
 20
183.2661992025832
 30
0.0
 10
61.63272520057643
 20
183.2690218147231
 30
0.0
 10
61.66857297424642
 20
183.2703972566831
 30
0.0
 10
61.70126016619643
 20
183.2716509729532
 30
0.0
 10
61.74549814204643
 20
183.2733514940032
 30
0.0
 10
61.81060732193642
 20
183.2758640984732
 30
0.0
 10
61.82301323094642
 20
183.2763428648032
 30
0.0
 10
61.82115573755642
 20
183.2762710899432
 30
0.0
  0
ARC
  5
2CF
330
285
100
AcDbEntity
  8
DV3_Default
  6
Continuous
 62
     7
100
AcDbCircle
 10
61.7016388861
 20
186.2777026949
 30
0.0
 40
3.003810239867407
100
AcDbArc
 50
282.8759387044
 51
309.7491903432
  0
SPLINE
  5
2D0
330
285
100
AcDbEntity
  8
DV3_Default
  6
Continuous
 62
     7
100
AcDbSpline
210
0.0
220
0.0
230
1.0
 70
     8
 71
     3
 72
    24
 73
    20
 74
     0
 42
0.000000001
 43
0.0000000001
 40
0.0
 40
0.0
 40
0.0
 40
0.0
 40
0.124999999999496
 40
0.2499999999996108
 40
0.3124999999996681
 40
0.3749999999997254
 40
0.4374999999997828
 40
0.4999999999998401
 40
0.5624999999998975
 40
0.6249999999999549
 40
0.6875000000000122
 40
0.7500000000000696
 40
0.8125000000001269
 40
0.8437500000001557
 40
0.8750000000001843
 40
0.9062500000002129
 40
0.9375000000002416
 40
0.9687500000002703
 40
1.0
 40
1.0
 40
1.0
 40
1.0
 10
64.70349417869642
 20
186.1693479106032
 30
0.0
 10
64.70348061482504
 20
186.1689595047043
 30
0.0
 10
64.6673684614425
 20
186.16791123274
 30
0.0
 10
64.53481188556006
 20
186.1660093238758
 30
0.0
 10
64.38017144087327
 20
186.1641543190158
 30
0.0
 10
64.24021080832338
 20
186.1625866306364
 30
0.0
 10
64.07694600970747
 20
186.1608466039264
 30
0.0
 10
63.89117170545394
 20
186.1589349402629
 30
0.0
 10
63.68362034007893
 20
186.1568520123086
 30
0.0
 10
63.45595771297317
 20
186.1546236227574
 30
0.0
 10
63.2099049674807
 20
186.1522823053129
 30
0.0
 10
62.94715908875366
 20
186.1498419442424
 30
0.0
 10
62.71588180174757
 20
186.1477136265279
 30
0.0
 10
62.52411933633788
 20
186.145912386301
 30
0.0
 10
62.37709737566684
 20
186.1445067530162
 30
0.0
 10
62.22706968260579
 20
186.1430549938914
 30
0.0
 10
62.07429764689497
 20
186.1415652910159
 30
0.0
 10
61.91904283136692
 20
186.1400464481465
 30
0.0
 10
61.81405955283782
 20
186.1390202259734
 30
0.0
 10
61.76124166699622
 20
186.138505144613
 30
0.0
  0
LINE
  5
2D1
330
285
100
AcDbEntity
  8
DV3_Default
  6
Continuous
 62
     7
100
AcDbLine
 10
65.1657693977
 20
199.4071781673
 30
0.0
 11
64.7034941787
 21
186.1693479106
 31
0.0
  0
LINE
  5
2D2
330
285
100
AcDbEntity
  8
DV3_Default
  6
Continuous
 62
     7
100
AcDbLine
 10
56.8797874688
 20
183.107098262
 30
0.0
 11
56.6767183565
 21
183.1010769019
 31
0.0
  0
LINE
  5
2D3
330
285
100
AcDbEntity
  8
DV3_Default
  6
Continuous
 62
     7
100
AcDbLine
 10
23.564313062
 20
183.1011216822
 30
0.0
 11
23.3626519056
 21
183.1071015868
 31
0.0
  0
SPLINE
  5
2D4
330
285
100
AcDbEntity
  8
DV3_Default
  6
Continuous
 62
     7
100
AcDbSpline
210
0.0
220
0.0
230
1.0
 70
     8
 71
     3
 72
    12
 73
     8
 74
     0
 42
0.000000001
 43
0.0000000001
 40
0.0
 40
0.0
 40
0.0
 40
0.0
 40
0.15103535832312
 40
0.3747544673552982
 40
0.7142971303836311
 40
0.8575587935731063
 40
1.0
 40
1.0
 40
1.0
 40
1.0
 10
23.30469828126901
 20
183.1083320202234
 30
0.0
 10
23.39565247956067
 20
183.0241510805292
 30
0.0
 10
23.61476832877281
 20
182.8206794708477
 30
0.0
 10
23.99290977993687
 20
182.4685872836577
 30
0.0
 10
24.28322237227933
 20
182.2101430781046
 30
0.0
 10
24.44661440100948
 20
182.0899558119009
 30
0.0
 10
24.47946076034659
 20
182.0793068233125
 30
0.0
 10
24.49586512241642
 20
182.0740271773932
 30
0.0
  0
LINE
  5
2D5
330
285
100
AcDbEntity
  8
DV3_Default
  6
Continuous
 62
     7
100
AcDbLine
 10
24.4958658245
 20
182.0740524651
 30
0.0
 11
24.9278570373
 21
182.0622243538
 31
0.0
  0
ARC
  5
2D6
330
285
100
AcDbEntity
  8
DV3_Default
  6
Continuous
 62
     7
100
AcDbCircle
 10
40.1218652037
 20
745.0316958078
 30
0.0
 40
563.1745176408075
100
AcDbArc
 50
268.4540169482
 51
269.9999399955
  0
LINE
  5
2D7
330
285
100
AcDbEntity
  8
DV3_Default
  6
Continuous
 62
     7
100
AcDbLine
 10
40.1212754118
 20
182.8571781674
 30
0.0
 11
40.1212754048
 21
181.8571781673
 31
0.0
  0
ARC
  5
2D8
330
285
100
AcDbEntity
  8
DV3_Default
  6
Continuous
 62
     7
100
AcDbCircle
 10
40.1212136395
 20
744.8626624269
 30
0.0
 40
563.005484259539
100
AcDbArc
 50
270.0000062857
 51
271.5464213144
  0
LINE
  5
2D9
330
285
100
AcDbEntity
  8
DV3_Default
  6
Continuous
 62
     7
100
AcDbLine
 10
55.3149676248
 20
182.0622317464
 30
0.0
 11
55.7467074017
 21
182.0740530871
 31
0.0
  0
SPLINE
  5
2DA
330
285
100
AcDbEntity
  8
DV3_Default
  6
Continuous
 62
     7
100
AcDbSpline
210
0.0
220
0.0
230
1.0
 70
     8
 71
     3
 72
    13
 73
     9
 74
     0
 42
0.000000001
 43
0.0000000001
 40
0.0
 40
0.0
 40
0.0
 40
0.0
 40
0.1335931365306177
 40
0.2657483842107599
 40
0.4029587320375748
 40
0.5869366285734094
 40
0.7968174298880427
 40
0.9999999999999999
 40
0.9999999999999999
 40
0.9999999999999999
 40
0.9999999999999999
 10
55.74671018177642
 20
182.0739529553431
 30
0.0
 10
55.76169253157613
 20
182.0782712335534
 30
0.0
 10
55.79118877134158
 20
182.087181777044
 30
0.0
 10
55.89242635991995
 20
182.1602168127461
 30
0.0
 10
56.04331072664857
 20
182.2851233553665
 30
0.0
 10
56.27030742964227
 20
182.4887487675695
 30
0.0
 10
56.57496917777048
 20
182.7712326721559
 30
0.0
 10
56.81442861528091
 20
182.9939670643447
 30
0.0
 10
56.9369243161831
 20
183.1073467605033
 30
0.0
  0
LINE
  5
2DB
330
285
100
AcDbEntity
  8
DV3_Default
  6
Continuous
 62
     7
100
AcDbLine
 10
65.7181505519
 20
200.9071781673
 30
0.0
 11
65.7181505519
 21
199.9071781673
 31
0.0
  0
ARC
  5
2DC
330
285
100
AcDbEntity
  8
DV3_Default
  6
Continuous
 62
     7
100
AcDbCircle
 10
18.0343791343
 20
186.0448834316
 30
0.0
 40
2.444818114088446
100
AcDbArc
 50
177.0852412977
 51
205.5458024098
  0
ARC
  5
2DD
330
285
100
AcDbEntity
  8
DV3_Default
  6
Continuous
 62
     7
100
AcDbCircle
 10
18.5214616357
 20
196.7977984777
 30
0.0
 40
13.50243304373398
100
AcDbArc
 50
268.3891873412
 51
272.3714855963
  0
ARC
  5
2DE
330
285
100
AcDbEntity
  8
DV3_Default
  6
Continuous
 62
     7
100
AcDbCircle
 10
61.5839932196
 20
186.2586976668
 30
0.0
 40
3.067239418519923
100
AcDbArc
 50
311.6249630303
 51
358.3016581373
  0
ARC
  5
2DF
330
285
100
AcDbEntity
  8
DV3_Default
  6
Continuous
 62
     7
100
AcDbCircle
 10
61.5103842086
 20
190.448676393
 30
0.0
 40
7.150487157860121
100
AcDbArc
 50
267.2093856619
 51
276.9120881491
  0
LINE
  5
2E0
330
285
100
AcDbEntity
  8
DV3_Default
  6
Continuous
 62
     7
100
AcDbLine
 10
65.7181505519
 20
201.5071781673
 30
0.0
 11
62.0561015545
 21
201.5071781673
 31
0.0
  0
LINE
  5
2E1
330
285
100
AcDbEntity
  8
DV3_Default
  6
Continuous
 62
     7
100
AcDbLine
 10
62.0561015545
 20
201.5071781673
 30
0.0
 11
18.1864492685
 21
201.5071781673
 31
0.0
  0
LINE
  5
2E2
330
285
100
AcDbEntity
  8
DV3_Default
  6
Continuous
 62
     7
100
AcDbLine
 10
18.1864492685
 20
201.5071781673
 30
0.0
 11
14.524400271
 21
201.5071781673
 31
0.0
  0
LINE
  5
2E3
330
285
100
AcDbEntity
  8
DV3_Default
  6
Continuous
 62
     7
100
AcDbLine
 10
64.9181505519
 20
200.9071781673
 30
0.0
 11
64.9181505519
 21
201.5071781673
 31
0.0
  0
LINE
  5
2E4
330
285
100
AcDbEntity
  8
DV3_Default
  6
Continuous
 62
     7
100
AcDbLine
 10
15.324400271
 20
200.9071781673
 30
0.0
 11
15.324400271
 21
201.5071781673
 31
0.0
  0
LINE
  5
2E5
330
285
100
AcDbEntity
  8
DV3_Default
  6
Continuous
 62
     7
100
AcDbLine
 10
65.7181505519
 20
202.5071781673
 30
0.0
 11
65.7181505519
 21
201.5071781673
 31
0.0
  0
LINE
  5
2E6
330
285
100
AcDbEntity
  8
DV3_Default
  6
Continuous
 62
     7
100
AcDbLine
 10
14.524400271
 20
202.5071781673
 30
0.0
 11
14.524400271
 21
201.5071781673
 31
0.0
  0
ARC
  5
2E7
330
285
100
AcDbEntity
  8
DV3_Default
  6
Continuous
 62
     7
100
AcDbCircle
 10
15.024400271
 20
202.5071781673
 30
0.0
 40
0.4999999999942579
100
AcDbArc
 50
89.9998114292
 51
180.0
  0
LINE
  5
2E8
330
285
100
AcDbEntity
  8
DV3_Default
  6
Continuous
 62
     7
100
AcDbLine
 10
18.331600296
 20
203.0071781673
 30
0.0
 11
15.0244028084
 21
203.0071781673
 31
0.0
  0
LINE
  5
2E9
330
285
100
AcDbEntity
  8
DV3_Default
  6
Continuous
 62
     7
100
AcDbLine
 10
61.9109507843
 20
203.0071781673
 30
0.0
 11
18.3316000386
 21
203.0071781673
 31
0.0
  0
LINE
  5
2EA
330
285
100
AcDbEntity
  8
DV3_Default
  6
Continuous
 62
     7
100
AcDbLine
 10
65.2181489063
 20
203.0071781673
 30
0.0
 11
61.9109507858
 21
203.0071781673
 31
0.0
  0
ARC
  5
2EB
330
285
100
AcDbEntity
  8
DV3_Default
  6
Continuous
 62
     7
100
AcDbCircle
 10
65.2181505519
 20
202.5071781673
 30
0.0
 40
0.4999999999942579
100
AcDbArc
 50
0.0
 51
90.0001885699
  0
LINE
  5
2EC
330
285
100
AcDbEntity
  8
DV3_Default
  6
Continuous
 62
     7
100
AcDbLine
 10
64.8478263173
 20
212.1118767465
 30
0.0
 11
65.1657693977
 21
203.0071781673
 31
0.0
  0
ARC
  5
2ED
330
285
100
AcDbEntity
  8
DV3_Default
  6
Continuous
 62
     7
100
AcDbCircle
 10
61.8496538393
 20
212.0071781673
 30
0.0
 40
3.000000000000004
100
AcDbArc
 50
2.0000017022
 51
90.0000031629
  0
LINE
  5
2EE
330
285
100
AcDbEntity
  8
DV3_Default
  6
Continuous
 62
     7
100
AcDbLine
 10
60.9330699937
 20
215.0071781674
 30
0.0
 11
61.8496499308
 21
215.0071781673
 31
0.0
  0
LINE
  5
2EF
330
285
100
AcDbEntity
  8
DV3_Default
  6
Continuous
 62
     7
100
AcDbLine
 10
19.3094790171
 20
215.0071781673
 30
0.0
 11
60.9330698244
 21
215.0071781673
 31
0.0
  0
LINE
  5
2F0
330
285
100
AcDbEntity
  8
DV3_Default
  6
Continuous
 62
     7
100
AcDbLine
 10
18.3928979607
 20
215.0071781673
 30
0.0
 11
19.3094779968
 21
215.0071781673
 31
0.0
  0
ARC
  5
2F1
330
285
100
AcDbEntity
  8
DV3_Default
  6
Continuous
 62
     7
100
AcDbCircle
 10
18.3928969836
 20
212.0071781673
 30
0.0
 40
3.00000000001544
100
AcDbArc
 50
89.9999813382
 51
177.999997989
  0
LINE
  5
2F2
330
285
100
AcDbEntity
  8
DV3_Default
  6
Continuous
 62
     7
100
AcDbLine
 10
23.3042945832
 20
233.3071781673
 30
0.0
 11
23.8021657123
 21
233.3071781671
 31
0.0
  0
LINE
  5
2F3
330
285
100
AcDbEntity
  8
DV3_Default
  6
Continuous
 62
     7
100
AcDbLine
 10
23.8021657123
 20
233.3071781671
 30
0.0
 11
27.3252478986
 21
233.3071781673
 31
0.0
  0
LINE
  5
2F4
330
285
100
AcDbEntity
  8
DV3_Default
  6
Continuous
 62
     7
100
AcDbLine
 10
27.3252478986
 20
233.3071781673
 30
0.0
 11
30.8602433256
 21
233.3071781673
 31
0.0
  0
LINE
  5
2F5
330
285
100
AcDbEntity
  8
DV3_Default
  6
Continuous
 62
     7
100
AcDbLine
 10
30.8602433256
 20
233.3071781673
 30
0.0
 11
49.3823075205
 21
233.3071781673
 31
0.0
  0
LINE
  5
2F6
330
285
100
AcDbEntity
  8
DV3_Default
  6
Continuous
 62
     7
100
AcDbLine
 10
49.3823075205
 20
233.3071781673
 30
0.0
 11
52.9173029475
 21
233.3071781673
 31
0.0
  0
LINE
  5
2F7
330
285
100
AcDbEntity
  8
DV3_Default
  6
Continuous
 62
     7
100
AcDbLine
 10
52.9173029475
 20
233.3071781673
 30
0.0
 11
56.4403851337
 21
233.3071781669
 31
0.0
  0
LINE
  5
2F8
330
285
100
AcDbEntity
  8
DV3_Default
  6
Continuous
 62
     7
100
AcDbLine
 10
56.9382562629
 20
233.3071781673
 30
0.0
 11
56.4403851337
 21
233.3071781671
 31
0.0
  0
LINE
  5
2F9
330
285
100
AcDbEntity
  8
DV3_Default
  6
Continuous
 62
     7
100
AcDbLine
 10
28.9705830221
 20
237.1071781673
 30
0.0
 11
32.9691986995
 21
237.001951439
 31
0.0
  0
LINE
  5
2FA
330
285
100
AcDbEntity
  8
DV3_Default
  6
Continuous
 62
     7
100
AcDbLine
 10
33.145514489
 20
243.701951439
 30
0.0
 11
29.1468988116
 21
243.8071781673
 31
0.0
  0
LINE
  5
2FB
330
285
100
AcDbEntity
  8
DV3_Default
  6
Continuous
 62
     7
100
AcDbLine
 10
47.2733521465
 20
237.001951439
 30
0.0
 11
51.271967824
 21
237.1071781673
 31
0.0
  0
LINE
  5
2FC
330
285
100
AcDbEntity
  8
DV3_Default
  6
Continuous
 62
     7
100
AcDbLine
 10
51.0956520345
 20
243.8071781673
 30
0.0
 11
47.0970363571
 21
243.701951439
 31
0.0
  0
LINE
  5
2FD
330
285
100
AcDbEntity
  8
DV3_Default
  6
Continuous
 62
     7
100
AcDbLine
 10
15.3947245062
 20
212.1118767627
 30
0.0
 11
15.0767814253
 21
203.0071781673
 31
0.0
  0
SPLINE
  5
2FE
330
285
100
AcDbEntity
  8
DV3_Default
  6
Continuous
 62
     7
100
AcDbSpline
210
0.0
220
0.0
230
1.0
 70
     8
 71
     3
 72
    11
 73
     7
 74
     0
 42
0.000000001
 43
0.0000000001
 40
0.0
 40
0.0
 40
0.0
 40
0.0
 40
0.1375575907494432
 40
0.4970265328030841
 40
0.85649398604297
 40
1.0
 40
1.0
 40
1.0
 40
1.0
 10
57.42386353649818
 20
232.8195672082811
 30
0.0
 10
57.42672909137547
 20
232.8580207673812
 30
0.0
 10
57.43355748829543
 20
232.9788467700258
 30
0.0
 10
57.30430144868015
 20
233.1832346238629
 30
0.0
 10
57.09933508044071
 20
233.2958057507197
 30
0.0
 10
56.97842609067786
 20
233.3049680660675
 30
0.0
 10
56.93825920256609
 20
233.3071781673446
 30
0.0
  0
LINE
  5
2FF
330
285
100
AcDbEntity
  8
DV3_Default
  6
Continuous
 62
     7
100
AcDbLine
 10
57.8778208679
 20
215.0071781673
 30
0.0
 11
57.4381199024
 21
232.819517203
 31
0.0
  0
SPLINE
  5
300
330
285
100
AcDbEntity
  8
DV3_Default
  6
Continuous
 62
     7
100
AcDbSpline
210
0.0
220
0.0
230
1.0
 70
     8
 71
     3
 72
    11
 73
     7
 74
     0
 42
0.000000001
 43
0.0000000001
 40
0.0
 40
0.0
 40
0.0
 40
0.0
 40
0.1435060140966552
 40
0.502973467791464
 40
0.8624424103022005
 40
1.0
 40
1.0
 40
1.0
 40
1.0
 10
23.30429164350165
 20
233.3071781673444
 30
0.0
 10
23.26412475539966
 20
233.3049680660683
 30
0.0
 10
23.1432157656374
 20
233.295805750723
 30
0.0
 10
22.93824939743055
 20
233.1832346238714
 30
0.0
 10
22.80899335786789
 20
232.9788467703133
 30
0.0
 10
22.81582175474017
 20
232.8580207679655
 30
0.0
 10
22.8186873095754
 20
232.819567209205
 30
0.0
  0
LINE
  5
301
330
285
100
AcDbEntity
  8
DV3_Default
  6
Continuous
 62
     7
100
AcDbLine
 10
22.8044309437
 20
232.8195172039
 30
0.0
 11
22.3647299782
 21
215.0071781673
 31
0.0
  0
LINE
  5
302
330
285
100
AcDbEntity
  8
DV3_Default
  6
Continuous
 62
     7
100
AcDbLine
 10
28.9705830221
 20
237.1071781673
 30
0.0
 11
28.8705830221
 21
233.3071781673
 31
0.0
  0
LINE
  5
303
330
285
100
AcDbEntity
  8
DV3_Default
  6
Continuous
 62
     7
100
AcDbLine
 10
32.871967824
 20
233.3071781673
 30
0.0
 11
32.9691986995
 21
237.001951439
 31
0.0
  0
LINE
  5
304
330
285
100
AcDbEntity
  8
DV3_Default
  6
Continuous
 62
     7
100
AcDbLine
 10
29.4717863354
 20
243.7986284957
 30
0.0
 11
29.2954705459
 21
237.0986284957
 31
0.0
  0
LINE
  5
305
330
285
100
AcDbEntity
  8
DV3_Default
  6
Continuous
 62
     7
100
AcDbLine
 10
32.6443111757
 20
237.0105011107
 30
0.0
 11
32.8206269652
 21
243.7105011107
 31
0.0
  0
LINE
  5
306
330
285
100
AcDbEntity
  8
DV3_Default
  6
Continuous
 62
     7
100
AcDbLine
 10
29.3193542202
 20
250.3604836928
 30
0.0
 11
29.1468988116
 21
243.8071781673
 31
0.0
  0
LINE
  5
307
330
285
100
AcDbEntity
  8
DV3_Default
  6
Continuous
 62
     7
100
AcDbLine
 10
33.145514489
 20
243.701951439
 30
0.0
 11
33.3179698976
 21
250.2552569645
 31
0.0
  0
ARC
  5
308
330
285
100
AcDbEntity
  8
DV3_Default
  6
Continuous
 62
     7
100
AcDbCircle
 10
31.3186620589
 20
250.3078703286
 30
0.0
 40
1.999999999999999
100
AcDbArc
 50
358.4925642412
 51
178.4925642412
  0
LINE
  5
309
330
285
100
AcDbEntity
  8
DV3_Default
  6
Continuous
 62
     7
100
AcDbLine
 10
51.371967824
 20
233.3071781673
 30
0.0
 11
51.271967824
 21
237.1071781673
 31
0.0
  0
LINE
  5
30A
330
285
100
AcDbEntity
  8
DV3_Default
  6
Continuous
 62
     7
100
AcDbLine
 10
47.2733521465
 20
237.001951439
 30
0.0
 11
47.3705830221
 21
233.3071781673
 31
0.0
  0
LINE
  5
30B
330
285
100
AcDbEntity
  8
DV3_Default
  6
Continuous
 62
     7
100
AcDbLine
 10
50.9470803002
 20
237.0986284957
 30
0.0
 11
50.7707645107
 21
243.7986284957
 31
0.0
  0
LINE
  5
30C
330
285
100
AcDbEntity
  8
DV3_Default
  6
Continuous
 62
     7
100
AcDbLine
 10
47.4219238809
 20
243.7105011107
 30
0.0
 11
47.5982396703
 21
237.0105011107
 31
0.0
  0
LINE
  5
30D
330
285
100
AcDbEntity
  8
DV3_Default
  6
Continuous
 62
     7
100
AcDbLine
 10
51.0956520345
 20
243.8071781673
 30
0.0
 11
50.9231966259
 21
250.3604836928
 31
0.0
  0
LINE
  5
30E
330
285
100
AcDbEntity
  8
DV3_Default
  6
Continuous
 62
     7
100
AcDbLine
 10
46.9245809485
 20
250.2552569645
 30
0.0
 11
47.0970363571
 21
243.701951439
 31
0.0
  0
ARC
  5
30F
330
285
100
AcDbEntity
  8
DV3_Default
  6
Continuous
 62
     7
100
AcDbCircle
 10
48.9238887872
 20
250.3078703286
 30
0.0
 40
2.0
100
AcDbArc
 50
1.5074357588
 51
180.0
  0
ARC
  5
310
330
285
100
AcDbEntity
  8
DV3_Default
  6
Continuous
 62
     7
100
AcDbCircle
 10
48.9238887872
 20
250.3078703286
 30
0.0
 40
2.000000000000002
100
AcDbArc
 50
180.0
 51
181.5074357588
  0
ENDBLK
  5
312
330
285
100
AcDbEntity
  8
0
100
AcDbBlockEnd
  0
ENDSEC
  0
SECTION
  2
ENTITIES
  0
INSERT
  5
6C
330
1F
100
AcDbEntity
  8
Default
100
AcDbBlockReference
  2
SEANNOT_GROUP
 10
0.0
 20
0.0
 30
0.0
  0
INSERT
  5
73
330
1F
100
AcDbEntity
  8
Default
100
AcDbBlockReference
  2
SEANNOT_GROUP1
 10
0.0
 20
0.0
 30
0.0
  0
INSERT
  5
79
330
1F
100
AcDbEntity
  8
Default
100
AcDbBlockReference
  2
SEANNOT_GROUP2
 10
0.0
 20
0.0
 30
0.0
  0
INSERT
  5
7F
330
1F
100
AcDbEntity
  8
Default
100
AcDbBlockReference
  2
SEANNOT_GROUP3
 10
0.0
 20
0.0
 30
0.0
  0
INSERT
  5
85
330
1F
100
AcDbEntity
  8
Default
100
AcDbBlockReference
  2
SEANNOT_GROUP4
 10
0.0
 20
0.0
 30
0.0
  0
INSERT
  5
8F
330
1F
100
AcDbEntity
  8
Default
100
AcDbBlockReference
  2
SEANNOT_GROUP5
 10
0.0
 20
0.0
 30
0.0
  0
INSERT
  5
95
330
1F
100
AcDbEntity
  8
Default
100
AcDbBlockReference
  2
SEANNOT_GROUP6
 10
0.0
 20
0.0
 30
0.0
  0
INSERT
  5
9B
330
1F
100
AcDbEntity
  8
Default
100
AcDbBlockReference
  2
SE
 10
0.0
 20
0.0
 30
0.0
  0
INSERT
  5
1A8
330
1F
100
AcDbEntity
  8
Default
100
AcDbBlockReference
  2
SE1
 10
0.0
 20
0.0
 30
0.0
  0
INSERT
  5
286
330
1F
100
AcDbEntity
  8
Default
100
AcDbBlockReference
  2
SE2
 10
0.0
 20
0.0
 30
0.0
  0
MTEXT
  5
313
330
1F
100
AcDbEntity
  8
Default
100
AcDbMText
 10
5.9362635081
 20
63.4225120485
 30
0.0
 40
10.0
 41
113.8626497168
 71
     1
 72
     1
  1
{\fSolid Edge ISO|b0||i0||c0|p34;\C7;\H10.;\W1.;Grohe AG\P}{\fSolid Edge ISO|b0||i0||c0|p34;\C7;\H10.;\W1.;\P}{\fSolid Edge ISO|b0||i0||c0|p34;\C7;\H10.;\W1.;ecn:\P}{\fSolid Edge ISO|b0||i0||c0|p34;\C7;\H10.;\W1.;unit: mm}
 73
     1
 44
1.0
1001
ACAD
1000
ACAD_MTEXT_DEFINED_HEIGHT_BEGIN
1070
    46
1040
65.4545454545
1000
ACAD_MTEXT_DEFINED_HEIGHT_END
  0
LINE
  5
314
330
1F
100
AcDbEntity
  8
Default
  6
Continuous
 62
     7
100
AcDbLine
 10
0.0
 20
0.0
 30
0.0
 11
100.0
 21
0.0
 31
0.0
  0
LINE
  5
315
330
1F
100
AcDbEntity
  8
Default
  6
Continuous
 62
     7
100
AcDbLine
 10
0.0
 20
0.0
 30
0.0
 11
0.0
 21
100.0
 31
0.0
  0
MTEXT
  5
316
330
1F
100
AcDbEntity
  8
Default
100
AcDbMText
 10
24.3923665681
 20
-8.2375342018
 30
0.0
 40
10.0
 41
35.00001
 71
     1
 72
     1
  1
{\fSolid Edge ISO|b0||i0||c0|p34;\C7;\H10.;\W1.;100 mm}
 73
     1
 44
1.0
1001
ACAD
1000
ACAD_MTEXT_DEFINED_HEIGHT_BEGIN
1070
    46
1040
16.3636363636
1000
ACAD_MTEXT_DEFINED_HEIGHT_END
  0
MTEXT
  5
317
330
1F
100
AcDbEntity
  8
Default
100
AcDbMText
 10
-20.5695763349
 20
24.6231930421
 30
0.0
 40
10.0
 41
35.00001
 71
     1
 72
     1
  1
{\fSolid Edge ISO|b0||i0||c0|p34;\C7;\H10.;\W1.;100 mm}
 11
6.123233995736766E-17
 21
1.0
 31
0.0
 73
     1
 44
1.0
1001
ACAD
1000
ACAD_MTEXT_DEFINED_HEIGHT_BEGIN
1070
    46
1040
16.3636363636
1000
ACAD_MTEXT_DEFINED_HEIGHT_END
  0
MTEXT
  5
318
330
1F
100
AcDbEntity
  8
Default
100
AcDbMText
 10
28.4878128572
 20
24.8634936442
 30
0.0
 40
10.0
 41
86.691737001
 71
     4
 72
     1
  1
{\fSolid Edge ISO|b0||i0||c0|p34;\C7;\H10.;\W1.;238832}
 73
     1
 44
1.0
1001
ACAD
1000
ACAD_MTEXT_DEFINED_HEIGHT_BEGIN
1070
    46
1040
16.3636363636
1000
ACAD_MTEXT_DEFINED_HEIGHT_END
  0
MTEXT
  5
319
330
1F
100
AcDbEntity
  8
Default
100
AcDbMText
 10
5.9012241913
 20
41.4970052916
 30
0.0
 40
10.0
 41
109.9146987306
 71
     4
 72
     1
  1
{\fSolid Edge ISO|b0||i0||c0|p34;\C7;\H10.;\W1.;22507LN0}
 73
     1
 44
1.0
1001
ACAD
1000
ACAD_MTEXT_DEFINED_HEIGHT_BEGIN
1070
    46
1040
16.3636363636
1000
ACAD_MTEXT_DEFINED_HEIGHT_END
  0
ENDSEC
  0
SECTION
  2
OBJECTS
  0
DICTIONARY
  5
C
330
0
100
AcDbDictionary
281
     1
  3
ACAD_GROUP
350
D
  3
ACAD_LAYOUT
350
1A
  3
ACAD_MATERIAL
350
43
  3
ACAD_MLEADERSTYLE
350
31C
  3
ACAD_MLINESTYLE
350
17
  3
ACAD_PLOTSETTINGS
350
19
  3
ACAD_PLOTSTYLENAME
350
E
  3
ACAD_SCALELIST
350
47
  3
ACAD_VISUALSTYLE
350
2A
  3
AcDbVariableDictionary
350
31A
  0
DICTIONARY
  5
D
102
{ACAD_REACTORS
330
C
102
}
330
C
100
AcDbDictionary
281
     1
  0
DICTIONARY
  5
1A
102
{ACAD_REACTORS
330
C
102
}
330
C
100
AcDbDictionary
281
     1
  3
Layout1
350
1E
  3
Model
350
22
  0
DICTIONARY
  5
43
102
{ACAD_REACTORS
330
C
102
}
330
C
100
AcDbDictionary
281
     1
  3
ByBlock
350
45
  3
ByLayer
350
44
  3
Global
350
46
  0
DICTIONARY
  5
31C
102
{ACAD_REACTORS
330
C
102
}
330
C
100
AcDbDictionary
281
     1
  0
DICTIONARY
  5
17
102
{ACAD_REACTORS
330
C
102
}
330
C
100
AcDbDictionary
281
     1
  3
Standard
350
18
  0
DICTIONARY
  5
19
102
{ACAD_REACTORS
330
C
102
}
330
C
100
AcDbDictionary
281
     1
  0
ACDBDICTIONARYWDFLT
  5
E
102
{ACAD_REACTORS
330
C
102
}
330
C
100
AcDbDictionary
281
     1
  3
Normal
350
F
100
AcDbDictionaryWithDefault
340
F
  0
DICTIONARY
  5
47
102
{ACAD_REACTORS
330
C
102
}
330
C
100
AcDbDictionary
281
     1
  3
A0
350
48
  3
A1
350
49
  3
A2
350
4A
  3
A3
350
4B
  3
A4
350
4C
  3
A5
350
4D
  3
A6
350
4E
  3
A7
350
4F
  3
A8
350
50
  3
A9
350
51
  3
B0
350
52
  3
B1
350
53
  3
B2
350
54
  3
B3
350
55
  3
B4
350
56
  3
B5
350
57
  3
B6
350
58
  3
B7
350
59
  3
B8
350
5A
  3
B9
350
5B
  3
C0
350
5C
  3
C1
350
5D
  3
C2
350
5E
  3
C3
350
5F
  3
C4
350
60
  3
C5
350
61
  3
C6
350
62
  3
C7
350
63
  3
C8
350
64
  3
C9
350
65
  3
D0
350
66
  3
D1
350
67
  3
D2
350
68
  0
DICTIONARY
  5
2A
102
{ACAD_REACTORS
330
C
102
}
330
C
100
AcDbDictionary
281
     1
  3
2dWireframe
350
2F
  3
Basic
350
32
  3
Brighten
350
36
  3
ColorChange
350
3A
  3
Conceptual
350
34
  3
Dim
350
35
  3
EdgeColorOff
350
3D
  3
Facepattern
350
39
  3
Flat
350
2B
  3
FlatWithEdges
350
2C
  3
Gouraud
350
2D
  3
GouraudWithEdges
350
2E
  3
Hidden
350
31
  3
JitterOff
350
3B
  3
Linepattern
350
38
  3
OverhangOff
350
3C
  3
Realistic
350
33
  3
Shaded
350
42
  3
Shaded with edges
350
41
  3
Shades of Gray
350
3E
  3
Sketchy
350
3F
  3
Thicken
350
37
  3
Wireframe
350
30
  3
X-Ray
350
40
  0
DICTIONARY
  5
31A
102
{ACAD_REACTORS
330
C
102
}
330
C
100
AcDbDictionary
281
     1
  3
CANNOSCALE
350
323
  3
DIMASSOC
350
321
  3
HIDETEXT
350
322
  3
MSLTSCALE
350
324
  3
PSOLHEIGHT
350
31E
  3
PSOLWIDTH
350
31D
  0
LAYOUT
  5
1E
102
{ACAD_REACTORS
330
1A
102
}
330
1A
100
AcDbPlotSettings
  1

  2
none_device
  4

  6

 40
0.0
 41
0.0
 42
0.0
 43
0.0
 44
0.0
 45
0.0
 46
0.0
 47
0.0
 48
0.0
 49
0.0
140
0.0
141
0.0
142
1.0
143
1.0
 70
   688
 72
     1
 73
     0
 74
     5
  7

 75
    16
147
1.0
148
0.0
149
0.0
100
AcDbLayout
  1
Layout1
 70
     1
 71
     1
 10
0.0
 20
0.0
 11
3000.0
 21
4500.0
 12
0.0
 22
0.0
 32
0.0
 14
0.0
 24
0.0
 34
0.0
 15
3000.0
 25
4500.0
 35
0.0
146
0.0
 13
0.0
 23
0.0
 33
0.0
 16
1.0
 26
0.0
 36
0.0
 17
0.0
 27
1.0
 37
0.0
 76
     0
330
1B
  0
LAYOUT
  5
22
102
{ACAD_REACTORS
330
1A
102
}
330
1A
100
AcDbPlotSettings
  1

  2
none_device
  4
Letter_(8.50_x_11.00_Inches)
  6

 40
6.35
 41
6.35
 42
6.35000508
 43
6.35000508
 44
215.9
 45
279.4
 46
0.0
 47
0.0
 48
0.0
 49
0.0
140
0.0
141
0.0
142
1.0
143
1.0
 70
  1712
 72
     1
 73
     0
 74
     0
  7

 75
     0
147
1.0
148
0.0
149
0.0
100
AcDbLayout
  1
Model
 70
     1
 71
     0
 10
0.0
 20
0.0
 11
3000.0
 21
4500.0
 12
0.0
 22
0.0
 32
0.0
 14
0.0
 24
0.0
 34
0.0
 15
3000.0
 25
4500.0
 35
0.0
146
0.0
 13
0.0
 23
0.0
 33
0.0
 16
1.0
 26
0.0
 36
0.0
 17
0.0
 27
1.0
 37
0.0
 76
     0
330
1F
331
29
  0
MATERIAL
  5
45
102
{ACAD_REACTORS
330
43
102
}
102
{ACAD_XDICTIONARY
360
357
102
}
330
43
100
AcDbMaterial
  1
ByBlock
  0
MATERIAL
  5
44
102
{ACAD_REACTORS
330
43
102
}
102
{ACAD_XDICTIONARY
360
355
102
}
330
43
100
AcDbMaterial
  1
ByLayer
  0
MATERIAL
  5
46
102
{ACAD_REACTORS
330
43
102
}
102
{ACAD_XDICTIONARY
360
359
102
}
330
43
100
AcDbMaterial
  1
Global
  0
MLINESTYLE
  5
18
102
{ACAD_REACTORS
330
17
102
}
330
17
100
AcDbMlineStyle
  2
Standard
 70
     0
  3

 62
   256
 51
90.0
 52
90.0
 71
     2
 49
0.5
 62
   256
  6
BYLAYER
 49
-0.5
 62
   256
  6
BYLAYER
  0
ACDBPLACEHOLDER
  5
F
102
{ACAD_REACTORS
330
E
102
}
330
E
  0
SCALE
  5
48
102
{ACAD_REACTORS
330
47
102
}
330
47
100
AcDbScale
 70
     0
300
1:1
140
1.0
141
1.0
290
     1
  0
SCALE
  5
49
102
{ACAD_REACTORS
330
47
102
}
330
47
100
AcDbScale
 70
     0
300
1:2
140
1.0
141
2.0
290
     0
  0
SCALE
  5
4A
102
{ACAD_REACTORS
330
47
102
}
330
47
100
AcDbScale
 70
     0
300
1:4
140
1.0
141
4.0
290
     0
  0
SCALE
  5
4B
102
{ACAD_REACTORS
330
47
102
}
330
47
100
AcDbScale
 70
     0
300
1:5
140
1.0
141
5.0
290
     0
  0
SCALE
  5
4C
102
{ACAD_REACTORS
330
47
102
}
330
47
100
AcDbScale
 70
     0
300
1:8
140
1.0
141
8.0
290
     0
  0
SCALE
  5
4D
102
{ACAD_REACTORS
330
47
102
}
330
47
100
AcDbScale
 70
     0
300
1:10
140
1.0
141
10.0
290
     0
  0
SCALE
  5
4E
102
{ACAD_REACTORS
330
47
102
}
330
47
100
AcDbScale
 70
     0
300
1:16
140
1.0
141
16.0
290
     0
  0
SCALE
  5
4F
102
{ACAD_REACTORS
330
47
102
}
330
47
100
AcDbScale
 70
     0
300
1:20
140
1.0
141
20.0
290
     0
  0
SCALE
  5
50
102
{ACAD_REACTORS
330
47
102
}
330
47
100
AcDbScale
 70
     0
300
1:30
140
1.0
141
30.0
290
     0
  0
SCALE
  5
51
102
{ACAD_REACTORS
330
47
102
}
330
47
100
AcDbScale
 70
     0
300
1:40
140
1.0
141
40.0
290
     0
  0
SCALE
  5
52
102
{ACAD_REACTORS
330
47
102
}
330
47
100
AcDbScale
 70
     0
300
1:50
140
1.0
141
50.0
290
     0
  0
SCALE
  5
53
102
{ACAD_REACTORS
330
47
102
}
330
47
100
AcDbScale
 70
     0
300
1:100
140
1.0
141
100.0
290
     0
  0
SCALE
  5
54
102
{ACAD_REACTORS
330
47
102
}
330
47
100
AcDbScale
 70
     0
300
2:1
140
2.0
141
1.0
290
     0
  0
SCALE
  5
55
102
{ACAD_REACTORS
330
47
102
}
330
47
100
AcDbScale
 70
     0
300
4:1
140
4.0
141
1.0
290
     0
  0
SCALE
  5
56
102
{ACAD_REACTORS
330
47
102
}
330
47
100
AcDbScale
 70
     0
300
8:1
140
8.0
141
1.0
290
     0
  0
SCALE
  5
57
102
{ACAD_REACTORS
330
47
102
}
330
47
100
AcDbScale
 70
     0
300
10:1
140
10.0
141
1.0
290
     0
  0
SCALE
  5
58
102
{ACAD_REACTORS
330
47
102
}
330
47
100
AcDbScale
 70
     0
300
100:1
140
100.0
141
1.0
290
     0
  0
SCALE
  5
59
102
{ACAD_REACTORS
330
47
102
}
330
47
100
AcDbScale
 70
     0
300
1/128" = 1'-0"
140
0.0078125
141
12.0
290
     0
  0
SCALE
  5
5A
102
{ACAD_REACTORS
330
47
102
}
330
47
100
AcDbScale
 70
     0
300
1/64" = 1'-0"
140
0.015625
141
12.0
290
     0
  0
SCALE
  5
5B
102
{ACAD_REACTORS
330
47
102
}
330
47
100
AcDbScale
 70
     0
300
1/32" = 1'-0"
140
0.03125
141
12.0
290
     0
  0
SCALE
  5
5C
102
{ACAD_REACTORS
330
47
102
}
330
47
100
AcDbScale
 70
     0
300
1/16" = 1'-0"
140
0.0625
141
12.0
290
     0
  0
SCALE
  5
5D
102
{ACAD_REACTORS
330
47
102
}
330
47
100
AcDbScale
 70
     0
300
3/32" = 1'-0"
140
0.09375
141
12.0
290
     0
  0
SCALE
  5
5E
102
{ACAD_REACTORS
330
47
102
}
330
47
100
AcDbScale
 70
     0
300
1/8" = 1'-0"
140
0.125
141
12.0
290
     0
  0
SCALE
  5
5F
102
{ACAD_REACTORS
330
47
102
}
330
47
100
AcDbScale
 70
     0
300
3/16" = 1'-0"
140
0.1875
141
12.0
290
     0
  0
SCALE
  5
60
102
{ACAD_REACTORS
330
47
102
}
330
47
100
AcDbScale
 70
     0
300
1/4" = 1'-0"
140
0.25
141
12.0
290
     0
  0
SCALE
  5
61
102
{ACAD_REACTORS
330
47
102
}
330
47
100
AcDbScale
 70
     0
300
3/8" = 1'-0"
140
0.375
141
12.0
290
     0
  0
SCALE
  5
62
102
{ACAD_REACTORS
330
47
102
}
330
47
100
AcDbScale
 70
     0
300
1/2" = 1'-0"
140
0.5
141
12.0
290
     0
  0
SCALE
  5
63
102
{ACAD_REACTORS
330
47
102
}
330
47
100
AcDbScale
 70
     0
300
3/4" = 1'-0"
140
0.75
141
12.0
290
     0
  0
SCALE
  5
64
102
{ACAD_REACTORS
330
47
102
}
330
47
100
AcDbScale
 70
     0
300
1" = 1'-0"
140
1.0
141
12.0
290
     0
  0
SCALE
  5
65
102
{ACAD_REACTORS
330
47
102
}
330
47
100
AcDbScale
 70
     0
300
1-1/2" = 1'-0"
140
1.5
141
12.0
290
     0
  0
SCALE
  5
66
102
{ACAD_REACTORS
330
47
102
}
330
47
100
AcDbScale
 70
     0
300
3" = 1'-0"
140
3.0
141
12.0
290
     0
  0
SCALE
  5
67
102
{ACAD_REACTORS
330
47
102
}
330
47
100
AcDbScale
 70
     0
300
6" = 1'-0"
140
6.0
141
12.0
290
     0
  0
SCALE
  5
68
102
{ACAD_REACTORS
330
47
102
}
330
47
100
AcDbScale
 70
     0
300
1'-0" = 1'-0"
140
12.0
141
12.0
290
     0
  0
VISUALSTYLE
  5
2F
102
{ACAD_REACTORS
330
2A
102
}
102
{ACAD_XDICTIONARY
360
32D
102
}
330
2A
100
AcDbVisualStyle
  2
2dWireframe
 70
     4
 71
     0
 72
     2
 73
     0
 90
        0
 40
0.6
 41
30.0
 62
     5
 63
     7
 74
     1
 91
        4
 64
     7
 65
   257
 75
     1
175
     1
 42
1.0
 92
        0
 66
   257
 43
1.0
 76
     1
 77
     6
 78
     2
 67
     7
 79
     5
170
     0
171
     0
290
     0
174
     0
 93
        1
 44
0.0
173
     0
291
     0
 45
0.0
1001
ACAD
1000
AcDbSavedByObjectVersion
1070
     0
  0
VISUALSTYLE
  5
32
102
{ACAD_REACTORS
330
2A
102
}
102
{ACAD_XDICTIONARY
360
333
102
}
330
2A
100
AcDbVisualStyle
  2
Basic
 70
     7
 71
     1
 72
     0
 73
     1
 90
        0
 40
0.6
 41
30.0
 62
     5
 63
     7
 74
     0
 91
        4
 64
     7
 65
   257
 75
     1
175
     1
 42
1.0
 92
        8
 66
     7
 43
1.0
 76
     1
 77
     6
 78
     2
 67
     7
 79
     5
170
     0
171
     0
290
     0
174
     0
 93
        1
 44
0.0
173
     0
291
     1
 45
0.0
1001
ACAD
1000
AcDbSavedByObjectVersion
1070
     0
  0
VISUALSTYLE
  5
36
102
{ACAD_REACTORS
330
2A
102
}
102
{ACAD_XDICTIONARY
360
33B
102
}
330
2A
100
AcDbVisualStyle
  2
Brighten
 70
    12
 71
     2
 72
     2
 73
     0
 90
        0
 40
0.6
 41
30.0
 62
     5
 63
     7
 74
     1
 91
        4
 64
     7
 65
   257
 75
     1
175
     1
 42
1.0
 92
        8
 66
     7
 43
1.0
 76
     1
 77
     6
 78
     2
 67
     7
 79
     5
170
     0
171
     0
290
     0
174
     0
 93
        1
 44
50.0
173
     0
291
     1
 45
0.0
1001
ACAD
1000
AcDbSavedByObjectVersion
1070
     0
  0
VISUALSTYLE
  5
3A
102
{ACAD_REACTORS
330
2A
102
}
102
{ACAD_XDICTIONARY
360
343
102
}
330
2A
100
AcDbVisualStyle
  2
ColorChange
 70
    16
 71
     2
 72
     2
 73
     3
 90
        0
 40
0.6
 41
30.0
 62
     5
 63
     8
 74
     1
 91
        4
 64
     7
 65
   257
 75
     1
175
     1
 42
1.0
 92
        8
 66
     8
 43
1.0
 76
     1
 77
     6
 78
     2
 67
     7
 79
     5
170
     0
171
     0
290
     0
174
     0
 93
        1
 44
0.0
173
     0
291
     1
 45
0.0
1001
ACAD
1000
AcDbSavedByObjectVersion
1070
     0
  0
VISUALSTYLE
  5
34
102
{ACAD_REACTORS
330
2A
102
}
102
{ACAD_XDICTIONARY
360
337
102
}
330
2A
100
AcDbVisualStyle
  2
Conceptual
 70
     9
 71
     3
 72
     2
 73
     0
 90
        0
 40
0.6
 41
30.0
 62
     5
 63
     7
 74
     2
 91
        2
 64
     7
 65
   257
 75
     1
175
     1
 42
179.0
 92
        8
 66
     7
 43
1.0
 76
     1
 77
     6
 78
     2
 67
     7
 79
     3
170
     0
171
     0
290
     0
174
     0
 93
        1
 44
0.0
173
     0
291
     0
 45
0.0
1001
ACAD
1000
AcDbSavedByObjectVersion
1070
     0
  0
VISUALSTYLE
  5
35
102
{ACAD_REACTORS
330
2A
102
}
102
{ACAD_XDICTIONARY
360
339
102
}
330
2A
100
AcDbVisualStyle
  2
Dim
 70
    11
 71
     2
 72
     2
 73
     0
 90
        0
 40
0.6
 41
30.0
 62
     5
 63
     7
 74
     1
 91
        4
 64
     7
 65
   257
 75
     1
175
     1
 42
1.0
 92
        8
 66
     7
 43
1.0
 76
     1
 77
     6
 78
     2
 67
     7
 79
     5
170
     0
171
     0
290
     0
174
     0
 93
        1
 44
-50.0
173
     0
291
     1
 45
0.0
1001
ACAD
1000
AcDbSavedByObjectVersion
1070
     0
  0
VISUALSTYLE
  5
3D
102
{ACAD_REACTORS
330
2A
102
}
102
{ACAD_XDICTIONARY
360
349
102
}
330
2A
100
AcDbVisualStyle
  2
EdgeColorOff
 70
    22
 71
     2
 72
     2
 73
     0
 90
        0
 40
0.6
 41
30.0
 62
     5
 63
     7
 74
     1
 91
        4
 64
     7
 65
   257
 75
     1
175
     1
 42
1.0
 92
        8
 66
     7
 43
1.0
 76
     1
 77
     6
 78
     2
 67
     7
 79
     5
170
     0
171
     0
290
     0
174
     0
 93
        1
 44
0.0
173
     0
291
     1
 45
0.0
1001
ACAD
1000
AcDbSavedByObjectVersion
1070
     0
  0
VISUALSTYLE
  5
39
102
{ACAD_REACTORS
330
2A
102
}
102
{ACAD_XDICTIONARY
360
341
102
}
330
2A
100
AcDbVisualStyle
  2
Facepattern
 70
    15
 71
     2
 72
     2
 73
     0
 90
        0
 40
0.6
 41
30.0
 62
     5
 63
     7
 74
     1
 91
        4
 64
     7
 65
   257
 75
     1
175
     1
 42
1.0
 92
        8
 66
     7
 43
1.0
 76
     1
 77
     6
 78
     2
 67
     7
 79
     5
170
     0
171
     0
290
     0
174
     0
 93
        1
 44
0.0
173
     0
291
     1
 45
0.0
1001
ACAD
1000
AcDbSavedByObjectVersion
1070
     0
  0
VISUALSTYLE
  5
2B
102
{ACAD_REACTORS
330
2A
102
}
102
{ACAD_XDICTIONARY
360
325
102
}
330
2A
100
AcDbVisualStyle
  2
Flat
 70
     0
 71
     2
 72
     1
 73
     1
 90
        2
 40
0.6
 41
30.0
 62
     5
 63
     7
 74
     0
 91
        0
 64
     7
 65
   257
 75
     1
175
     1
 42
1.0
 92
        8
 66
     7
 43
1.0
 76
     1
 77
     6
 78
     2
 67
     7
 79
     5
170
     0
171
     0
290
     0
174
     0
 93
       13
 44
0.0
173
     0
291
     1
 45
0.0
1001
ACAD
1000
AcDbSavedByObjectVersion
1070
     0
  0
VISUALSTYLE
  5
2C
102
{ACAD_REACTORS
330
2A
102
}
102
{ACAD_XDICTIONARY
360
327
102
}
330
2A
100
AcDbVisualStyle
  2
FlatWithEdges
 70
     1
 71
     2
 72
     1
 73
     1
 90
        2
 40
0.6
 41
30.0
 62
     5
 63
     7
 74
     1
 91
        0
 64
     7
 65
   257
 75
     1
175
     1
 42
1.0
 92
        0
 66
   257
 43
1.0
 76
     1
 77
     6
 78
     2
 67
     7
 79
     5
170
     0
171
     0
290
     0
174
     0
 93
       13
 44
0.0
173
     0
291
     1
 45
0.0
1001
ACAD
1000
AcDbSavedByObjectVersion
1070
     0
  0
VISUALSTYLE
  5
2D
102
{ACAD_REACTORS
330
2A
102
}
102
{ACAD_XDICTIONARY
360
329
102
}
330
2A
100
AcDbVisualStyle
  2
Gouraud
 70
     2
 71
     2
 72
     2
 73
     1
 90
        2
 40
0.6
 41
30.0
 62
     5
 63
     7
 74
     0
 91
        0
 64
     7
 65
   257
 75
     1
175
     1
 42
1.0
 92
        0
 66
     7
 43
1.0
 76
     1
 77
     6
 78
     2
 67
     7
 79
     5
170
     0
171
     0
290
     0
174
     0
 93
       13
 44
0.0
173
     0
291
     1
 45
0.0
1001
ACAD
1000
AcDbSavedByObjectVersion
1070
     0
  0
VISUALSTYLE
  5
2E
102
{ACAD_REACTORS
330
2A
102
}
102
{ACAD_XDICTIONARY
360
32B
102
}
330
2A
100
AcDbVisualStyle
  2
GouraudWithEdges
 70
     3
 71
     2
 72
     2
 73
     1
 90
        2
 40
0.6
 41
30.0
 62
     5
 63
     7
 74
     1
 91
        0
 64
     7
 65
   257
 75
     1
175
     1
 42
1.0
 92
        0
 66
   257
 43
1.0
 76
     1
 77
     6
 78
     2
 67
     7
 79
     5
170
     0
171
     0
290
     0
174
     0
 93
       13
 44
0.0
173
     0
291
     1
 45
0.0
1001
ACAD
1000
AcDbSavedByObjectVersion
1070
     0
  0
VISUALSTYLE
  5
31
102
{ACAD_REACTORS
330
2A
102
}
102
{ACAD_XDICTIONARY
360
331
102
}
330
2A
100
AcDbVisualStyle
  2
Hidden
 70
     6
 71
     1
 72
     2
 73
     2
 90
        0
 40
0.6
 41
30.0
 62
     5
 63
     7
 74
     2
 91
        2
 64
     7
 65
   257
 75
     2
175
     1
 42
40.0
 92
        0
 66
   257
 43
1.0
 76
     1
 77
     6
 78
     2
 67
     7
 79
     3
170
     0
171
     0
290
     0
174
     0
 93
        1
 44
0.0
173
     0
291
     0
 45
0.0
1001
ACAD
1000
AcDbSavedByObjectVersion
1070
     0
  0
VISUALSTYLE
  5
3B
102
{ACAD_REACTORS
330
2A
102
}
102
{ACAD_XDICTIONARY
360
345
102
}
330
2A
100
AcDbVisualStyle
  2
JitterOff
 70
    20
 71
     2
 72
     2
 73
     0
 90
        0
 40
0.6
 41
30.0
 62
     5
 63
     7
 74
     1
 91
        4
 64
     7
 65
   257
 75
     1
175
     1
 42
1.0
 92
       10
 66
     7
 43
1.0
 76
     1
 77
     6
 78
     2
 67
     7
 79
     5
170
     0
171
     0
290
     0
174
     0
 93
        1
 44
0.0
173
     0
291
     1
 45
0.0
1001
ACAD
1000
AcDbSavedByObjectVersion
1070
     0
  0
VISUALSTYLE
  5
38
102
{ACAD_REACTORS
330
2A
102
}
102
{ACAD_XDICTIONARY
360
33F
102
}
330
2A
100
AcDbVisualStyle
  2
Linepattern
 70
    14
 71
     2
 72
     2
 73
     0
 90
        0
 40
0.6
 41
30.0
 62
     5
 63
     7
 74
     1
 91
        4
 64
     7
 65
   257
 75
     7
175
     7
 42
1.0
 92
        8
 66
     7
 43
1.0
 76
     1
 77
     6
 78
     2
 67
     7
 79
     5
170
     0
171
     0
290
     0
174
     0
 93
        1
 44
0.0
173
     0
291
     1
 45
0.0
1001
ACAD
1000
AcDbSavedByObjectVersion
1070
     0
  0
VISUALSTYLE
  5
3C
102
{ACAD_REACTORS
330
2A
102
}
102
{ACAD_XDICTIONARY
360
347
102
}
330
2A
100
AcDbVisualStyle
  2
OverhangOff
 70
    21
 71
     2
 72
     2
 73
     0
 90
        0
 40
0.6
 41
30.0
 62
     5
 63
     7
 74
     1
 91
        4
 64
     7
 65
   257
 75
     1
175
     1
 42
1.0
 92
        9
 66
     7
 43
1.0
 76
     1
 77
     6
 78
     2
 67
     7
 79
     5
170
     0
171
     0
290
     0
174
     0
 93
        1
 44
0.0
173
     0
291
     1
 45
0.0
1001
ACAD
1000
AcDbSavedByObjectVersion
1070
     0
  0
VISUALSTYLE
  5
33
102
{ACAD_REACTORS
330
2A
102
}
102
{ACAD_XDICTIONARY
360
335
102
}
330
2A
100
AcDbVisualStyle
  2
Realistic
 70
     8
 71
     2
 72
     3
 73
     0
 90
        2
 40
0.6
 41
30.0
 62
     5
 63
     7
 74
     0
 91
        0
 64
     7
 65
   257
 75
     1
175
     1
 42
1.0
 92
        8
 66
   257
 43
1.0
 76
     1
 77
     6
 78
     2
 67
     7
 79
     3
170
     0
171
     0
290
     0
174
     0
 93
       13
 44
0.0
173
     0
291
     0
 45
0.0
1001
ACAD
1000
AcDbSavedByObjectVersion
1070
     0
  0
VISUALSTYLE
  5
42
102
{ACAD_REACTORS
330
2A
102
}
102
{ACAD_XDICTIONARY
360
353
102
}
330
2A
100
AcDbVisualStyle
  2
Shaded
 70
    27
 71
     2
 72
     2
 73
     1
 90
        2
 40
0.6
 41
30.0
 62
     5
 63
     7
 74
     0
 91
        4
 64
     7
 65
   257
 75
     1
175
     1
 42
1.0
 92
        8
 66
   257
 43
1.0
 76
     1
 77
     6
 78
     2
 67
     8
 79
     3
170
     0
171
     0
290
     0
174
     0
 93
        5
 44
0.0
173
     0
291
     0
 45
0.0
1001
ACAD
1000
AcDbSavedByObjectVersion
1070
     0
  0
VISUALSTYLE
  5
41
102
{ACAD_REACTORS
330
2A
102
}
102
{ACAD_XDICTIONARY
360
351
102
}
330
2A
100
AcDbVisualStyle
  2
Shaded with edges
 70
    26
 71
     2
 72
     2
 73
     1
 90
        2
 40
0.6
 41
30.0
 62
     5
 63
     7
 74
     1
 91
       10
 64
     7
 65
   257
 75
     2
175
     1
 42
1.0
 92
        8
 66
   257
 43
1.0
 76
     1
 77
     6
 78
     2
 67
     7
 79
     3
170
     0
171
     0
290
     0
174
     0
 93
        5
 44
0.0
173
     0
291
     0
 45
0.0
1001
ACAD
1000
AcDbSavedByObjectVersion
1070
     0
  0
VISUALSTYLE
  5
3E
102
{ACAD_REACTORS
330
2A
102
}
102
{ACAD_XDICTIONARY
360
34B
102
}
330
2A
100
AcDbVisualStyle
  2
Shades of Gray
 70
    23
 71
     2
 72
     2
 73
     3
 90
        0
 40
0.6
 41
30.0
 62
     5
 63
     7
 74
     2
 91
        2
 64
     7
 65
     7
 75
     1
175
     1
 42
40.0
 92
        8
 66
     7
 43
1.0
 76
     1
 77
     6
 78
     2
 67
     7
 79
     3
170
     0
171
     0
290
     0
174
     0
 93
        1
 44
0.0
173
     0
291
     0
 45
0.0
1001
ACAD
1000
AcDbSavedByObjectVersion
1070
     0
  0
VISUALSTYLE
  5
3F
102
{ACAD_REACTORS
330
2A
102
}
102
{ACAD_XDICTIONARY
360
34D
102
}
330
2A
100
AcDbVisualStyle
  2
Sketchy
 70
    24
 71
     1
 72
     2
 73
     2
 90
        0
 40
0.6
 41
30.0
 62
     5
 63
     7
 74
     2
 91
        2
 64
     7
 65
     7
 75
     1
175
     1
 42
40.0
 92
       11
 66
     7
 43
1.0
 76
     1
 77
     6
 78
     2
 67
     7
 79
     6
170
     0
171
     0
290
     0
174
     0
 93
        1
 44
0.0
173
     0
291
     0
 45
0.0
1001
ACAD
1000
AcDbSavedByObjectVersion
1070
     0
  0
VISUALSTYLE
  5
37
102
{ACAD_REACTORS
330
2A
102
}
102
{ACAD_XDICTIONARY
360
33D
102
}
330
2A
100
AcDbVisualStyle
  2
Thicken
 70
    13
 71
     2
 72
     2
 73
     0
 90
        0
 40
0.6
 41
30.0
 62
     5
 63
     7
 74
     1
 91
        4
 64
     7
 65
   257
 75
     1
175
     1
 42
1.0
 92
       12
 66
     7
 43
1.0
 76
     1
 77
     6
 78
     2
 67
     7
 79
     5
170
     0
171
     0
290
     0
174
     0
 93
        1
 44
0.0
173
     0
291
     1
 45
0.0
1001
ACAD
1000
AcDbSavedByObjectVersion
1070
     0
  0
VISUALSTYLE
  5
30
102
{ACAD_REACTORS
330
2A
102
}
102
{ACAD_XDICTIONARY
360
32F
102
}
330
2A
100
AcDbVisualStyle
  2
Wireframe
 70
     5
 71
     0
 72
     2
 73
     0
 90
        0
 40
0.6
 41
30.0
 62
     5
 63
     7
 74
     1
 91
        4
 64
     7
 65
   257
 75
     1
175
     1
 42
1.0
 92
        0
 66
   257
 43
1.0
 76
     1
 77
     6
 78
     2
 67
     7
 79
     3
170
     0
171
     0
290
     0
174
     0
 93
        1
 44
0.0
173
     0
291
     0
 45
0.0
1001
ACAD
1000
AcDbSavedByObjectVersion
1070
     0
  0
VISUALSTYLE
  5
40
102
{ACAD_REACTORS
330
2A
102
}
102
{ACAD_XDICTIONARY
360
34F
102
}
330
2A
100
AcDbVisualStyle
  2
X-Ray
 70
    25
 71
     2
 72
     2
 73
     1
 90
        1
 40
0.5
 41
30.0
 62
     5
 63
     7
 74
     1
 91
        0
 64
     7
 65
   257
 75
     1
175
     1
 42
1.0
 92
        8
 66
     7
 43
1.0
 76
     1
 77
     6
 78
     2
 67
     7
 79
     3
170
     0
171
     0
290
     0
174
     0
 93
       13
 44
0.0
173
     0
291
     0
 45
0.0
1001
ACAD
1000
AcDbSavedByObjectVersion
1070
     0
  0
DICTIONARYVAR
  5
323
102
{ACAD_REACTORS
330
31A
102
}
330
31A
100
DictionaryVariables
280
     0
  1
1:1
  0
DICTIONARYVAR
  5
321
102
{ACAD_REACTORS
330
31A
102
}
330
31A
100
DictionaryVariables
280
     0
  1
2
  0
DICTIONARYVAR
  5
322
102
{ACAD_REACTORS
330
31A
102
}
330
31A
100
DictionaryVariables
280
     0
  1
1
  0
DICTIONARYVAR
  5
324
102
{ACAD_REACTORS
330
31A
102
}
330
31A
100
DictionaryVariables
280
     0
  1
1
  0
DICTIONARYVAR
  5
31E
102
{ACAD_REACTORS
330
31A
102
}
330
31A
100
DictionaryVariables
280
     0
  1
80.000000
  0
DICTIONARYVAR
  5
31D
102
{ACAD_REACTORS
330
31A
102
}
330
31A
100
DictionaryVariables
280
     0
  1
5.000000
  0
DICTIONARY
  5
357
330
45
100
AcDbDictionary
280
     1
281
     1
  3
ACAD_XREC_ROUNDTRIP
360
358
  0
DICTIONARY
  5
355
330
44
100
AcDbDictionary
280
     1
281
     1
  3
ACAD_XREC_ROUNDTRIP
360
356
  0
DICTIONARY
  5
359
330
46
100
AcDbDictionary
280
     1
281
     1
  3
ACAD_XREC_ROUNDTRIP
360
35A
  0
DICTIONARY
  5
32D
330
2F
100
AcDbDictionary
280
     1
281
     1
  3
ACAD_XREC_ROUNDTRIP
360
32E
  0
DICTIONARY
  5
333
330
32
100
AcDbDictionary
280
     1
281
     1
  3
ACAD_XREC_ROUNDTRIP
360
334
  0
DICTIONARY
  5
33B
330
36
100
AcDbDictionary
280
     1
281
     1
  3
ACAD_XREC_ROUNDTRIP
360
33C
  0
DICTIONARY
  5
343
330
3A
100
AcDbDictionary
280
     1
281
     1
  3
ACAD_XREC_ROUNDTRIP
360
344
  0
DICTIONARY
  5
337
330
34
100
AcDbDictionary
280
     1
281
     1
  3
ACAD_XREC_ROUNDTRIP
360
338
  0
DICTIONARY
  5
339
330
35
100
AcDbDictionary
280
     1
281
     1
  3
ACAD_XREC_ROUNDTRIP
360
33A
  0
DICTIONARY
  5
349
330
3D
100
AcDbDictionary
280
     1
281
     1
  3
ACAD_XREC_ROUNDTRIP
360
34A
  0
DICTIONARY
  5
341
330
39
100
AcDbDictionary
280
     1
281
     1
  3
ACAD_XREC_ROUNDTRIP
360
342
  0
DICTIONARY
  5
325
330
2B
100
AcDbDictionary
280
     1
281
     1
  3
ACAD_XREC_ROUNDTRIP
360
326
  0
DICTIONARY
  5
327
330
2C
100
AcDbDictionary
280
     1
281
     1
  3
ACAD_XREC_ROUNDTRIP
360
328
  0
DICTIONARY
  5
329
330
2D
100
AcDbDictionary
280
     1
281
     1
  3
ACAD_XREC_ROUNDTRIP
360
32A
  0
DICTIONARY
  5
32B
330
2E
100
AcDbDictionary
280
     1
281
     1
  3
ACAD_XREC_ROUNDTRIP
360
32C
  0
DICTIONARY
  5
331
330
31
100
AcDbDictionary
280
     1
281
     1
  3
ACAD_XREC_ROUNDTRIP
360
332
  0
DICTIONARY
  5
345
330
3B
100
AcDbDictionary
280
     1
281
     1
  3
ACAD_XREC_ROUNDTRIP
360
346
  0
DICTIONARY
  5
33F
330
38
100
AcDbDictionary
280
     1
281
     1
  3
ACAD_XREC_ROUNDTRIP
360
340
  0
DICTIONARY
  5
347
330
3C
100
AcDbDictionary
280
     1
281
     1
  3
ACAD_XREC_ROUNDTRIP
360
348
  0
DICTIONARY
  5
335
330
33
100
AcDbDictionary
280
     1
281
     1
  3
ACAD_XREC_ROUNDTRIP
360
336
  0
DICTIONARY
  5
353
330
42
100
AcDbDictionary
280
     1
281
     1
  3
ACAD_XREC_ROUNDTRIP
360
354
  0
DICTIONARY
  5
351
330
41
100
AcDbDictionary
280
     1
281
     1
  3
ACAD_XREC_ROUNDTRIP
360
352
  0
DICTIONARY
  5
34B
330
3E
100
AcDbDictionary
280
     1
281
     1
  3
ACAD_XREC_ROUNDTRIP
360
34C
  0
DICTIONARY
  5
34D
330
3F
100
AcDbDictionary
280
     1
281
     1
  3
ACAD_XREC_ROUNDTRIP
360
34E
  0
DICTIONARY
  5
33D
330
37
100
AcDbDictionary
280
     1
281
     1
  3
ACAD_XREC_ROUNDTRIP
360
33E
  0
DICTIONARY
  5
32F
330
30
100
AcDbDictionary
280
     1
281
     1
  3
ACAD_XREC_ROUNDTRIP
360
330
  0
DICTIONARY
  5
34F
330
40
100
AcDbDictionary
280
     1
281
     1
  3
ACAD_XREC_ROUNDTRIP
360
350
  0
XRECORD
  5
358
102
{ACAD_REACTORS
330
357
102
}
330
357
100
AcDbXrecord
280
     1
102
MATERIAL
148
0.0
149
0.0
149
0.0
 93
        0
 94
      127
282
     0
 72
     1
 77
     1
171
     1
175
     1
179
     1
273
     0
  0
XRECORD
  5
356
102
{ACAD_REACTORS
330
355
102
}
330
355
100
AcDbXrecord
280
     1
102
MATERIAL
148
0.0
149
0.0
149
0.0
 93
        0
 94
      127
282
     0
 72
     1
 77
     1
171
     1
175
     1
179
     1
273
     0
  0
XRECORD
  5
35A
102
{ACAD_REACTORS
330
359
102
}
330
359
100
AcDbXrecord
280
     1
102
MATERIAL
148
0.0
149
0.0
149
0.0
 93
        0
 94
      127
282
     0
 72
     1
 77
     1
171
     1
175
     1
179
     1
273
     0
  0
XRECORD
  5
32E
102
{ACAD_REACTORS
330
32D
102
}
330
32D
100
AcDbXrecord
280
     1
102
RTVSPropertyOp0
 70
     1
102
RTVSPropertyOp1
 70
     1
102
RTVSPropertyOp2
 70
     1
102
RTVSPropertyOp3
 70
     1
102
RTVSPropertyOp4
 70
     1
102
RTVSPropertyOp5
 70
     1
102
RTVSPropertyOp6
 70
     1
102
RTVSPropertyOp7
 70
     1
102
RTVSPropertyOp8
 70
     1
102
RTVSPropertyOp9
 70
     1
102
RTVSPropertyOp10
 70
     1
102
RTVSPropertyOp11
 70
     1
102
RTVSPropertyOp12
 70
     1
102
RTVSPropertyOp13
 70
     1
102
RTVSPropertyOp14
 70
     1
102
RTVSPropertyOp15
 70
     1
102
RTVSPropertyOp16
 70
     1
102
RTVSPropertyOp17
 70
     1
102
RTVSPropertyOp18
 70
     1
102
RTVSPropertyOp19
 70
     1
102
RTVSPropertyOp20
 70
     1
102
RTVSPropertyOp21
 70
     1
102
RTVSPropertyOp22
 70
     1
102
RTVSPropertyOp23
 70
     1
102
RTVSPropertyOp24
 70
     1
102
RTVSPropertyOp25
 70
     1
102
RTVSPropertyOp26
 70
     1
102
RTVSPropertyOp27
 70
     1
102
RTVSPropertyOp28
 70
     1
102
RTVSPropertyOp29
 70
     1
102
RTVSPropertyOp30
 70
     1
102
RTVSPropertyOp31
 70
     1
102
RTVSPropertyOp32
 70
     1
102
RTVSPropertyOp33
 70
     1
102
RTVSPropertyOp34
 70
     1
102
RTVSPropertyOp35
 70
     1
102
RTVSPropertyOp36
 70
     1
102
RTVSPropertyOp37
 70
     1
102
RTVSPropertyOp38
 70
     1
102
RTVSPropertyOp39
 70
     1
102
RTVSPropertyOp40
 70
     1
102
RTVSPropertyOp41
 70
     1
102
RTVSPropertyOp42
 70
     1
102
RTVSPropertyOp43
 70
     1
102
RTVSPropertyOp44
 70
     1
102
RTVSPropertyOp45
 70
     1
102
RTVSPropertyOp46
 70
     1
102
RTVSPropertyOp47
 70
     1
102
RTVSPropertyOp48
 70
     1
102
RTVSPropertyOp49
 70
     1
102
RTVSPropertyOp50
 70
     1
102
RTVSPropertyOp51
 70
     0
102
RTVSPropertyOp52
 70
     0
102
RTVSPropertyOp53
 70
     1
102
RTVSPropertyOp54
 70
     1
102
RTVSPropertyOp55
 70
     1
102
RTVSPropertyOp56
 70
     1
102
RTVSPropertyOp57
 70
     1
102
RTVSPost2010Prop28
280
     1
102
RTVSPost2010PropOp28
 70
     1
102
RTVSPost2010Prop29
280
     1
102
RTVSPost2010PropOp29
 70
     1
102
RTVSPost2010Prop30
280
     0
102
RTVSPost2010PropOp30
 70
     1
102
RTVSPost2010Prop31
280
     0
102
RTVSPost2010PropOp31
 70
     1
102
RTVSPost2010Prop32
280
     0
102
RTVSPost2010PropOp32
 70
     1
102
RTVSPost2010Prop33
280
     0
102
RTVSPost2010PropOp33
 70
     1
102
RTVSPost2010Prop34
280
     0
102
RTVSPost2010PropOp34
 70
     1
102
RTVSPost2010Prop35
280
     0
102
RTVSPost2010PropOp35
 70
     1
102
RTVSPost2010Prop36
280
     0
102
RTVSPost2010PropOp36
 70
     1
102
RTVSPost2010Prop37
 90
       50
102
RTVSPost2010PropOp37
 70
     1
102
RTVSPost2010Prop38
140
0.0
102
RTVSPost2010PropOp38
 70
     1
102
RTVSPost2010Prop39
140
1.0
102
RTVSPost2010PropOp39
 70
     1
102
RTVSPost2010Prop40
 90
        0
102
RTVSPost2010PropOp40
 70
     1
102
RTVSPost2010Prop41ColorIndex
 90
       18
102
RTVSPost2010Prop41ColorRGB
 90
        0
102
RTVSPost2010PropOp41
 70
     1
102
RTVSPost2010Prop42
 90
       50
102
RTVSPost2010PropOp42
 70
     1
102
RTVSPost2010Prop43
 90
        3
102
RTVSPost2010PropOp43
 70
     1
102
RTVSPost2010Prop44ColorIndex
 90
        5
102
RTVSPost2010Prop44ColorRGB
 90
      255
102
RTVSPost2010PropOp44
 70
     1
102
RTVSPost2010Prop45
280
     0
102
RTVSPost2010PropOp45
 70
     1
102
RTVSPost2010Prop46
 90
       50
102
RTVSPost2010PropOp46
 70
     1
102
RTVSPost2010Prop47
 90
       50
102
RTVSPost2010PropOp47
 70
     1
102
RTVSPost2010Prop48
 90
       50
102
RTVSPost2010PropOp48
 70
     1
102
RTVSPost2010Prop49
280
     0
102
RTVSPost2010PropOp49
 70
     1
102
RTVSPost2010Prop50
 90
       50
102
RTVSPost2010PropOp50
 70
     1
102
RTVSPost2010Prop51ColorIndex
 90
      256
102
RTVSPost2010Prop51ColorRGB
 90
-16777216
102
RTVSPost2010PropOp51
 70
     0
102
RTVSPost2010Prop52
140
1.0
102
RTVSPost2010PropOp52
 70
     0
102
RTVSPost2010Prop53
 90
        2
102
RTVSPost2010PropOp53
 70
     1
102
RTVSPost2010Prop54
  1
strokes_ogs.tif
102
RTVSPost2010PropOp54
 70
     1
102
RTVSPost2010Prop55
280
     0
102
RTVSPost2010PropOp55
 70
     1
102
RTVSPost2010Prop56
140
1.0
102
RTVSPost2010PropOp56
 70
     1
102
RTVSPost2010Prop57
140
1.0
102
RTVSPost2010PropOp57
 70
     1
  0
XRECORD
  5
334
102
{ACAD_REACTORS
330
333
102
}
330
333
100
AcDbXrecord
280
     1
102
RTVSPropertyOp0
 70
     1
102
RTVSPropertyOp1
 70
     1
102
RTVSPropertyOp2
 70
     1
102
RTVSPropertyOp3
 70
     1
102
RTVSPropertyOp4
 70
     1
102
RTVSPropertyOp5
 70
     1
102
RTVSPropertyOp6
 70
     1
102
RTVSPropertyOp7
 70
     1
102
RTVSPropertyOp8
 70
     1
102
RTVSPropertyOp9
 70
     1
102
RTVSPropertyOp10
 70
     1
102
RTVSPropertyOp11
 70
     1
102
RTVSPropertyOp12
 70
     1
102
RTVSPropertyOp13
 70
     1
102
RTVSPropertyOp14
 70
     1
102
RTVSPropertyOp15
 70
     1
102
RTVSPropertyOp16
 70
     1
102
RTVSPropertyOp17
 70
     1
102
RTVSPropertyOp18
 70
     1
102
RTVSPropertyOp19
 70
     1
102
RTVSPropertyOp20
 70
     1
102
RTVSPropertyOp21
 70
     1
102
RTVSPropertyOp22
 70
     1
102
RTVSPropertyOp23
 70
     1
102
RTVSPropertyOp24
 70
     1
102
RTVSPropertyOp25
 70
     1
102
RTVSPropertyOp26
 70
     1
102
RTVSPropertyOp27
 70
     1
102
RTVSPropertyOp28
 70
     1
102
RTVSPropertyOp29
 70
     1
102
RTVSPropertyOp30
 70
     1
102
RTVSPropertyOp31
 70
     1
102
RTVSPropertyOp32
 70
     1
102
RTVSPropertyOp33
 70
     1
102
RTVSPropertyOp34
 70
     1
102
RTVSPropertyOp35
 70
     1
102
RTVSPropertyOp36
 70
     1
102
RTVSPropertyOp37
 70
     1
102
RTVSPropertyOp38
 70
     1
102
RTVSPropertyOp39
 70
     1
102
RTVSPropertyOp40
 70
     1
102
RTVSPropertyOp41
 70
     1
102
RTVSPropertyOp42
 70
     1
102
RTVSPropertyOp43
 70
     1
102
RTVSPropertyOp44
 70
     1
102
RTVSPropertyOp45
 70
     1
102
RTVSPropertyOp46
 70
     1
102
RTVSPropertyOp47
 70
     1
102
RTVSPropertyOp48
 70
     1
102
RTVSPropertyOp49
 70
     1
102
RTVSPropertyOp50
 70
     1
102
RTVSPropertyOp51
 70
     0
102
RTVSPropertyOp52
 70
     0
102
RTVSPropertyOp53
 70
     1
102
RTVSPropertyOp54
 70
     1
102
RTVSPropertyOp55
 70
     1
102
RTVSPropertyOp56
 70
     1
102
RTVSPropertyOp57
 70
     1
102
RTVSPost2010Prop28
280
     0
102
RTVSPost2010PropOp28
 70
     1
102
RTVSPost2010Prop29
280
     1
102
RTVSPost2010PropOp29
 70
     1
102
RTVSPost2010Prop30
280
     1
102
RTVSPost2010PropOp30
 70
     1
102
RTVSPost2010Prop31
280
     0
102
RTVSPost2010PropOp31
 70
     1
102
RTVSPost2010Prop32
280
     0
102
RTVSPost2010PropOp32
 70
     1
102
RTVSPost2010Prop33
280
     0
102
RTVSPost2010PropOp33
 70
     1
102
RTVSPost2010Prop34
280
     0
102
RTVSPost2010PropOp34
 70
     1
102
RTVSPost2010Prop35
280
     0
102
RTVSPost2010PropOp35
 70
     1
102
RTVSPost2010Prop36
280
     0
102
RTVSPost2010PropOp36
 70
     1
102
RTVSPost2010Prop37
 90
       50
102
RTVSPost2010PropOp37
 70
     1
102
RTVSPost2010Prop38
140
0.0
102
RTVSPost2010PropOp38
 70
     1
102
RTVSPost2010Prop39
140
1.0
102
RTVSPost2010PropOp39
 70
     1
102
RTVSPost2010Prop40
 90
        0
102
RTVSPost2010PropOp40
 70
     1
102
RTVSPost2010Prop41ColorIndex
 90
       18
102
RTVSPost2010Prop41ColorRGB
 90
        0
102
RTVSPost2010PropOp41
 70
     1
102
RTVSPost2010Prop42
 90
       50
102
RTVSPost2010PropOp42
 70
     1
102
RTVSPost2010Prop43
 90
        3
102
RTVSPost2010PropOp43
 70
     1
102
RTVSPost2010Prop44ColorIndex
 90
        5
102
RTVSPost2010Prop44ColorRGB
 90
      255
102
RTVSPost2010PropOp44
 70
     1
102
RTVSPost2010Prop45
280
     0
102
RTVSPost2010PropOp45
 70
     1
102
RTVSPost2010Prop46
 90
       50
102
RTVSPost2010PropOp46
 70
     1
102
RTVSPost2010Prop47
 90
       50
102
RTVSPost2010PropOp47
 70
     1
102
RTVSPost2010Prop48
 90
       50
102
RTVSPost2010PropOp48
 70
     1
102
RTVSPost2010Prop49
280
     0
102
RTVSPost2010PropOp49
 70
     1
102
RTVSPost2010Prop50
 90
       50
102
RTVSPost2010PropOp50
 70
     1
102
RTVSPost2010Prop51ColorIndex
 90
      256
102
RTVSPost2010Prop51ColorRGB
 90
-16777216
102
RTVSPost2010PropOp51
 70
     0
102
RTVSPost2010Prop52
140
1.0
102
RTVSPost2010PropOp52
 70
     0
102
RTVSPost2010Prop53
 90
        2
102
RTVSPost2010PropOp53
 70
     1
102
RTVSPost2010Prop54
  1
strokes_ogs.tif
102
RTVSPost2010PropOp54
 70
     1
102
RTVSPost2010Prop55
280
     0
102
RTVSPost2010PropOp55
 70
     1
102
RTVSPost2010Prop56
140
1.0
102
RTVSPost2010PropOp56
 70
     1
102
RTVSPost2010Prop57
140
1.0
102
RTVSPost2010PropOp57
 70
     1
  0
XRECORD
  5
33C
102
{ACAD_REACTORS
330
33B
102
}
330
33B
100
AcDbXrecord
280
     1
102
RTVSPropertyOp0
 70
     1
102
RTVSPropertyOp1
 70
     1
102
RTVSPropertyOp2
 70
     1
102
RTVSPropertyOp3
 70
     1
102
RTVSPropertyOp4
 70
     1
102
RTVSPropertyOp5
 70
     1
102
RTVSPropertyOp6
 70
     1
102
RTVSPropertyOp7
 70
     1
102
RTVSPropertyOp8
 70
     1
102
RTVSPropertyOp9
 70
     1
102
RTVSPropertyOp10
 70
     1
102
RTVSPropertyOp11
 70
     1
102
RTVSPropertyOp12
 70
     1
102
RTVSPropertyOp13
 70
     1
102
RTVSPropertyOp14
 70
     1
102
RTVSPropertyOp15
 70
     1
102
RTVSPropertyOp16
 70
     1
102
RTVSPropertyOp17
 70
     1
102
RTVSPropertyOp18
 70
     1
102
RTVSPropertyOp19
 70
     1
102
RTVSPropertyOp20
 70
     1
102
RTVSPropertyOp21
 70
     1
102
RTVSPropertyOp22
 70
     1
102
RTVSPropertyOp23
 70
     1
102
RTVSPropertyOp24
 70
     1
102
RTVSPropertyOp25
 70
     1
102
RTVSPropertyOp26
 70
     1
102
RTVSPropertyOp27
 70
     1
102
RTVSPropertyOp28
 70
     1
102
RTVSPropertyOp29
 70
     1
102
RTVSPropertyOp30
 70
     1
102
RTVSPropertyOp31
 70
     1
102
RTVSPropertyOp32
 70
     1
102
RTVSPropertyOp33
 70
     1
102
RTVSPropertyOp34
 70
     1
102
RTVSPropertyOp35
 70
     1
102
RTVSPropertyOp36
 70
     1
102
RTVSPropertyOp37
 70
     1
102
RTVSPropertyOp38
 70
     1
102
RTVSPropertyOp39
 70
     1
102
RTVSPropertyOp40
 70
     1
102
RTVSPropertyOp41
 70
     1
102
RTVSPropertyOp42
 70
     1
102
RTVSPropertyOp43
 70
     1
102
RTVSPropertyOp44
 70
     1
102
RTVSPropertyOp45
 70
     1
102
RTVSPropertyOp46
 70
     1
102
RTVSPropertyOp47
 70
     1
102
RTVSPropertyOp48
 70
     1
102
RTVSPropertyOp49
 70
     1
102
RTVSPropertyOp50
 70
     1
102
RTVSPropertyOp51
 70
     0
102
RTVSPropertyOp52
 70
     0
102
RTVSPropertyOp53
 70
     1
102
RTVSPropertyOp54
 70
     1
102
RTVSPropertyOp55
 70
     1
102
RTVSPropertyOp56
 70
     1
102
RTVSPropertyOp57
 70
     1
102
RTVSPost2010Prop28
280
     0
102
RTVSPost2010PropOp28
 70
     1
102
RTVSPost2010Prop29
280
     1
102
RTVSPost2010PropOp29
 70
     1
102
RTVSPost2010Prop30
280
     1
102
RTVSPost2010PropOp30
 70
     1
102
RTVSPost2010Prop31
280
     0
102
RTVSPost2010PropOp31
 70
     1
102
RTVSPost2010Prop32
280
     0
102
RTVSPost2010PropOp32
 70
     1
102
RTVSPost2010Prop33
280
     0
102
RTVSPost2010PropOp33
 70
     1
102
RTVSPost2010Prop34
280
     0
102
RTVSPost2010PropOp34
 70
     1
102
RTVSPost2010Prop35
280
     0
102
RTVSPost2010PropOp35
 70
     1
102
RTVSPost2010Prop36
280
     0
102
RTVSPost2010PropOp36
 70
     1
102
RTVSPost2010Prop37
 90
       50
102
RTVSPost2010PropOp37
 70
     1
102
RTVSPost2010Prop38
140
0.0
102
RTVSPost2010PropOp38
 70
     1
102
RTVSPost2010Prop39
140
1.0
102
RTVSPost2010PropOp39
 70
     1
102
RTVSPost2010Prop40
 90
        0
102
RTVSPost2010PropOp40
 70
     1
102
RTVSPost2010Prop41ColorIndex
 90
       18
102
RTVSPost2010Prop41ColorRGB
 90
        0
102
RTVSPost2010PropOp41
 70
     1
102
RTVSPost2010Prop42
 90
       50
102
RTVSPost2010PropOp42
 70
     1
102
RTVSPost2010Prop43
 90
        3
102
RTVSPost2010PropOp43
 70
     1
102
RTVSPost2010Prop44ColorIndex
 90
        5
102
RTVSPost2010Prop44ColorRGB
 90
      255
102
RTVSPost2010PropOp44
 70
     1
102
RTVSPost2010Prop45
280
     0
102
RTVSPost2010PropOp45
 70
     1
102
RTVSPost2010Prop46
 90
       50
102
RTVSPost2010PropOp46
 70
     1
102
RTVSPost2010Prop47
 90
       50
102
RTVSPost2010PropOp47
 70
     1
102
RTVSPost2010Prop48
 90
       50
102
RTVSPost2010PropOp48
 70
     1
102
RTVSPost2010Prop49
280
     0
102
RTVSPost2010PropOp49
 70
     1
102
RTVSPost2010Prop50
 90
       50
102
RTVSPost2010PropOp50
 70
     1
102
RTVSPost2010Prop51ColorIndex
 90
      256
102
RTVSPost2010Prop51ColorRGB
 90
-16777216
102
RTVSPost2010PropOp51
 70
     0
102
RTVSPost2010Prop52
140
1.0
102
RTVSPost2010PropOp52
 70
     0
102
RTVSPost2010Prop53
 90
        2
102
RTVSPost2010PropOp53
 70
     1
102
RTVSPost2010Prop54
  1
strokes_ogs.tif
102
RTVSPost2010PropOp54
 70
     1
102
RTVSPost2010Prop55
280
     0
102
RTVSPost2010PropOp55
 70
     1
102
RTVSPost2010Prop56
140
1.0
102
RTVSPost2010PropOp56
 70
     1
102
RTVSPost2010Prop57
140
1.0
102
RTVSPost2010PropOp57
 70
     1
  0
XRECORD
  5
344
102
{ACAD_REACTORS
330
343
102
}
330
343
100
AcDbXrecord
280
     1
102
RTVSPropertyOp0
 70
     1
102
RTVSPropertyOp1
 70
     1
102
RTVSPropertyOp2
 70
     1
102
RTVSPropertyOp3
 70
     1
102
RTVSPropertyOp4
 70
     1
102
RTVSPropertyOp5
 70
     1
102
RTVSPropertyOp6
 70
     1
102
RTVSPropertyOp7
 70
     1
102
RTVSPropertyOp8
 70
     1
102
RTVSPropertyOp9
 70
     1
102
RTVSPropertyOp10
 70
     1
102
RTVSPropertyOp11
 70
     1
102
RTVSPropertyOp12
 70
     1
102
RTVSPropertyOp13
 70
     1
102
RTVSPropertyOp14
 70
     1
102
RTVSPropertyOp15
 70
     1
102
RTVSPropertyOp16
 70
     1
102
RTVSPropertyOp17
 70
     1
102
RTVSPropertyOp18
 70
     1
102
RTVSPropertyOp19
 70
     1
102
RTVSPropertyOp20
 70
     1
102
RTVSPropertyOp21
 70
     1
102
RTVSPropertyOp22
 70
     1
102
RTVSPropertyOp23
 70
     1
102
RTVSPropertyOp24
 70
     1
102
RTVSPropertyOp25
 70
     1
102
RTVSPropertyOp26
 70
     1
102
RTVSPropertyOp27
 70
     1
102
RTVSPropertyOp28
 70
     1
102
RTVSPropertyOp29
 70
     1
102
RTVSPropertyOp30
 70
     1
102
RTVSPropertyOp31
 70
     1
102
RTVSPropertyOp32
 70
     1
102
RTVSPropertyOp33
 70
     1
102
RTVSPropertyOp34
 70
     1
102
RTVSPropertyOp35
 70
     1
102
RTVSPropertyOp36
 70
     1
102
RTVSPropertyOp37
 70
     1
102
RTVSPropertyOp38
 70
     1
102
RTVSPropertyOp39
 70
     1
102
RTVSPropertyOp40
 70
     1
102
RTVSPropertyOp41
 70
     1
102
RTVSPropertyOp42
 70
     1
102
RTVSPropertyOp43
 70
     1
102
RTVSPropertyOp44
 70
     1
102
RTVSPropertyOp45
 70
     1
102
RTVSPropertyOp46
 70
     1
102
RTVSPropertyOp47
 70
     1
102
RTVSPropertyOp48
 70
     1
102
RTVSPropertyOp49
 70
     1
102
RTVSPropertyOp50
 70
     1
102
RTVSPropertyOp51
 70
     0
102
RTVSPropertyOp52
 70
     0
102
RTVSPropertyOp53
 70
     1
102
RTVSPropertyOp54
 70
     1
102
RTVSPropertyOp55
 70
     1
102
RTVSPropertyOp56
 70
     1
102
RTVSPropertyOp57
 70
     1
102
RTVSPost2010Prop28
280
     0
102
RTVSPost2010PropOp28
 70
     1
102
RTVSPost2010Prop29
280
     1
102
RTVSPost2010PropOp29
 70
     1
102
RTVSPost2010Prop30
280
     1
102
RTVSPost2010PropOp30
 70
     1
102
RTVSPost2010Prop31
280
     0
102
RTVSPost2010PropOp31
 70
     1
102
RTVSPost2010Prop32
280
     0
102
RTVSPost2010PropOp32
 70
     1
102
RTVSPost2010Prop33
280
     0
102
RTVSPost2010PropOp33
 70
     1
102
RTVSPost2010Prop34
280
     0
102
RTVSPost2010PropOp34
 70
     1
102
RTVSPost2010Prop35
280
     0
102
RTVSPost2010PropOp35
 70
     1
102
RTVSPost2010Prop36
280
     0
102
RTVSPost2010PropOp36
 70
     1
102
RTVSPost2010Prop37
 90
       50
102
RTVSPost2010PropOp37
 70
     1
102
RTVSPost2010Prop38
140
0.0
102
RTVSPost2010PropOp38
 70
     1
102
RTVSPost2010Prop39
140
1.0
102
RTVSPost2010PropOp39
 70
     1
102
RTVSPost2010Prop40
 90
        0
102
RTVSPost2010PropOp40
 70
     1
102
RTVSPost2010Prop41ColorIndex
 90
       18
102
RTVSPost2010Prop41ColorRGB
 90
        0
102
RTVSPost2010PropOp41
 70
     1
102
RTVSPost2010Prop42
 90
       50
102
RTVSPost2010PropOp42
 70
     1
102
RTVSPost2010Prop43
 90
        3
102
RTVSPost2010PropOp43
 70
     1
102
RTVSPost2010Prop44ColorIndex
 90
        5
102
RTVSPost2010Prop44ColorRGB
 90
      255
102
RTVSPost2010PropOp44
 70
     1
102
RTVSPost2010Prop45
280
     0
102
RTVSPost2010PropOp45
 70
     1
102
RTVSPost2010Prop46
 90
       50
102
RTVSPost2010PropOp46
 70
     1
102
RTVSPost2010Prop47
 90
       50
102
RTVSPost2010PropOp47
 70
     1
102
RTVSPost2010Prop48
 90
       50
102
RTVSPost2010PropOp48
 70
     1
102
RTVSPost2010Prop49
280
     0
102
RTVSPost2010PropOp49
 70
     1
102
RTVSPost2010Prop50
 90
       50
102
RTVSPost2010PropOp50
 70
     1
102
RTVSPost2010Prop51ColorIndex
 90
      256
102
RTVSPost2010Prop51ColorRGB
 90
-16777216
102
RTVSPost2010PropOp51
 70
     0
102
RTVSPost2010Prop52
140
1.0
102
RTVSPost2010PropOp52
 70
     0
102
RTVSPost2010Prop53
 90
        2
102
RTVSPost2010PropOp53
 70
     1
102
RTVSPost2010Prop54
  1
strokes_ogs.tif
102
RTVSPost2010PropOp54
 70
     1
102
RTVSPost2010Prop55
280
     0
102
RTVSPost2010PropOp55
 70
     1
102
RTVSPost2010Prop56
140
1.0
102
RTVSPost2010PropOp56
 70
     1
102
RTVSPost2010Prop57
140
1.0
102
RTVSPost2010PropOp57
 70
     1
  0
XRECORD
  5
338
102
{ACAD_REACTORS
330
337
102
}
330
337
100
AcDbXrecord
280
     1
102
RTVSPropertyOp0
 70
     1
102
RTVSPropertyOp1
 70
     1
102
RTVSPropertyOp2
 70
     1
102
RTVSPropertyOp3
 70
     1
102
RTVSPropertyOp4
 70
     1
102
RTVSPropertyOp5
 70
     1
102
RTVSPropertyOp6
 70
     1
102
RTVSPropertyOp7
 70
     1
102
RTVSPropertyOp8
 70
     1
102
RTVSPropertyOp9
 70
     1
102
RTVSPropertyOp10
 70
     1
102
RTVSPropertyOp11
 70
     1
102
RTVSPropertyOp12
 70
     1
102
RTVSPropertyOp13
 70
     1
102
RTVSPropertyOp14
 70
     1
102
RTVSPropertyOp15
 70
     1
102
RTVSPropertyOp16
 70
     1
102
RTVSPropertyOp17
 70
     1
102
RTVSPropertyOp18
 70
     1
102
RTVSPropertyOp19
 70
     1
102
RTVSPropertyOp20
 70
     1
102
RTVSPropertyOp21
 70
     1
102
RTVSPropertyOp22
 70
     1
102
RTVSPropertyOp23
 70
     1
102
RTVSPropertyOp24
 70
     1
102
RTVSPropertyOp25
 70
     1
102
RTVSPropertyOp26
 70
     1
102
RTVSPropertyOp27
 70
     1
102
RTVSPropertyOp28
 70
     1
102
RTVSPropertyOp29
 70
     1
102
RTVSPropertyOp30
 70
     1
102
RTVSPropertyOp31
 70
     1
102
RTVSPropertyOp32
 70
     1
102
RTVSPropertyOp33
 70
     1
102
RTVSPropertyOp34
 70
     1
102
RTVSPropertyOp35
 70
     1
102
RTVSPropertyOp36
 70
     1
102
RTVSPropertyOp37
 70
     1
102
RTVSPropertyOp38
 70
     1
102
RTVSPropertyOp39
 70
     1
102
RTVSPropertyOp40
 70
     1
102
RTVSPropertyOp41
 70
     1
102
RTVSPropertyOp42
 70
     1
102
RTVSPropertyOp43
 70
     1
102
RTVSPropertyOp44
 70
     1
102
RTVSPropertyOp45
 70
     1
102
RTVSPropertyOp46
 70
     1
102
RTVSPropertyOp47
 70
     1
102
RTVSPropertyOp48
 70
     1
102
RTVSPropertyOp49
 70
     1
102
RTVSPropertyOp50
 70
     1
102
RTVSPropertyOp51
 70
     0
102
RTVSPropertyOp52
 70
     0
102
RTVSPropertyOp53
 70
     1
102
RTVSPropertyOp54
 70
     1
102
RTVSPropertyOp55
 70
     1
102
RTVSPropertyOp56
 70
     1
102
RTVSPropertyOp57
 70
     1
102
RTVSPost2010Prop28
280
     0
102
RTVSPost2010PropOp28
 70
     1
102
RTVSPost2010Prop29
280
     1
102
RTVSPost2010PropOp29
 70
     1
102
RTVSPost2010Prop30
280
     1
102
RTVSPost2010PropOp30
 70
     1
102
RTVSPost2010Prop31
280
     0
102
RTVSPost2010PropOp31
 70
     1
102
RTVSPost2010Prop32
280
     0
102
RTVSPost2010PropOp32
 70
     1
102
RTVSPost2010Prop33
280
     0
102
RTVSPost2010PropOp33
 70
     1
102
RTVSPost2010Prop34
280
     0
102
RTVSPost2010PropOp34
 70
     1
102
RTVSPost2010Prop35
280
     0
102
RTVSPost2010PropOp35
 70
     1
102
RTVSPost2010Prop36
280
     0
102
RTVSPost2010PropOp36
 70
     1
102
RTVSPost2010Prop37
 90
       50
102
RTVSPost2010PropOp37
 70
     1
102
RTVSPost2010Prop38
140
0.0
102
RTVSPost2010PropOp38
 70
     1
102
RTVSPost2010Prop39
140
1.0
102
RTVSPost2010PropOp39
 70
     1
102
RTVSPost2010Prop40
 90
        0
102
RTVSPost2010PropOp40
 70
     1
102
RTVSPost2010Prop41ColorIndex
 90
       18
102
RTVSPost2010Prop41ColorRGB
 90
        0
102
RTVSPost2010PropOp41
 70
     1
102
RTVSPost2010Prop42
 90
       50
102
RTVSPost2010PropOp42
 70
     1
102
RTVSPost2010Prop43
 90
        3
102
RTVSPost2010PropOp43
 70
     1
102
RTVSPost2010Prop44ColorIndex
 90
        5
102
RTVSPost2010Prop44ColorRGB
 90
      255
102
RTVSPost2010PropOp44
 70
     1
102
RTVSPost2010Prop45
280
     0
102
RTVSPost2010PropOp45
 70
     1
102
RTVSPost2010Prop46
 90
       50
102
RTVSPost2010PropOp46
 70
     1
102
RTVSPost2010Prop47
 90
       50
102
RTVSPost2010PropOp47
 70
     1
102
RTVSPost2010Prop48
 90
       50
102
RTVSPost2010PropOp48
 70
     1
102
RTVSPost2010Prop49
280
     0
102
RTVSPost2010PropOp49
 70
     1
102
RTVSPost2010Prop50
 90
       50
102
RTVSPost2010PropOp50
 70
     1
102
RTVSPost2010Prop51ColorIndex
 90
      256
102
RTVSPost2010Prop51ColorRGB
 90
-16777216
102
RTVSPost2010PropOp51
 70
     0
102
RTVSPost2010Prop52
140
1.0
102
RTVSPost2010PropOp52
 70
     0
102
RTVSPost2010Prop53
 90
        2
102
RTVSPost2010PropOp53
 70
     1
102
RTVSPost2010Prop54
  1
strokes_ogs.tif
102
RTVSPost2010PropOp54
 70
     1
102
RTVSPost2010Prop55
280
     0
102
RTVSPost2010PropOp55
 70
     1
102
RTVSPost2010Prop56
140
1.0
102
RTVSPost2010PropOp56
 70
     1
102
RTVSPost2010Prop57
140
1.0
102
RTVSPost2010PropOp57
 70
     1
  0
XRECORD
  5
33A
102
{ACAD_REACTORS
330
339
102
}
330
339
100
AcDbXrecord
280
     1
102
RTVSPropertyOp0
 70
     1
102
RTVSPropertyOp1
 70
     1
102
RTVSPropertyOp2
 70
     1
102
RTVSPropertyOp3
 70
     1
102
RTVSPropertyOp4
 70
     1
102
RTVSPropertyOp5
 70
     1
102
RTVSPropertyOp6
 70
     1
102
RTVSPropertyOp7
 70
     1
102
RTVSPropertyOp8
 70
     1
102
RTVSPropertyOp9
 70
     1
102
RTVSPropertyOp10
 70
     1
102
RTVSPropertyOp11
 70
     1
102
RTVSPropertyOp12
 70
     1
102
RTVSPropertyOp13
 70
     1
102
RTVSPropertyOp14
 70
     1
102
RTVSPropertyOp15
 70
     1
102
RTVSPropertyOp16
 70
     1
102
RTVSPropertyOp17
 70
     1
102
RTVSPropertyOp18
 70
     1
102
RTVSPropertyOp19
 70
     1
102
RTVSPropertyOp20
 70
     1
102
RTVSPropertyOp21
 70
     1
102
RTVSPropertyOp22
 70
     1
102
RTVSPropertyOp23
 70
     1
102
RTVSPropertyOp24
 70
     1
102
RTVSPropertyOp25
 70
     1
102
RTVSPropertyOp26
 70
     1
102
RTVSPropertyOp27
 70
     1
102
RTVSPropertyOp28
 70
     1
102
RTVSPropertyOp29
 70
     1
102
RTVSPropertyOp30
 70
     1
102
RTVSPropertyOp31
 70
     1
102
RTVSPropertyOp32
 70
     1
102
RTVSPropertyOp33
 70
     1
102
RTVSPropertyOp34
 70
     1
102
RTVSPropertyOp35
 70
     1
102
RTVSPropertyOp36
 70
     1
102
RTVSPropertyOp37
 70
     1
102
RTVSPropertyOp38
 70
     1
102
RTVSPropertyOp39
 70
     1
102
RTVSPropertyOp40
 70
     1
102
RTVSPropertyOp41
 70
     1
102
RTVSPropertyOp42
 70
     1
102
RTVSPropertyOp43
 70
     1
102
RTVSPropertyOp44
 70
     1
102
RTVSPropertyOp45
 70
     1
102
RTVSPropertyOp46
 70
     1
102
RTVSPropertyOp47
 70
     1
102
RTVSPropertyOp48
 70
     1
102
RTVSPropertyOp49
 70
     1
102
RTVSPropertyOp50
 70
     1
102
RTVSPropertyOp51
 70
     0
102
RTVSPropertyOp52
 70
     0
102
RTVSPropertyOp53
 70
     1
102
RTVSPropertyOp54
 70
     1
102
RTVSPropertyOp55
 70
     1
102
RTVSPropertyOp56
 70
     1
102
RTVSPropertyOp57
 70
     1
102
RTVSPost2010Prop28
280
     0
102
RTVSPost2010PropOp28
 70
     1
102
RTVSPost2010Prop29
280
     1
102
RTVSPost2010PropOp29
 70
     1
102
RTVSPost2010Prop30
280
     1
102
RTVSPost2010PropOp30
 70
     1
102
RTVSPost2010Prop31
280
     0
102
RTVSPost2010PropOp31
 70
     1
102
RTVSPost2010Prop32
280
     0
102
RTVSPost2010PropOp32
 70
     1
102
RTVSPost2010Prop33
280
     0
102
RTVSPost2010PropOp33
 70
     1
102
RTVSPost2010Prop34
280
     0
102
RTVSPost2010PropOp34
 70
     1
102
RTVSPost2010Prop35
280
     0
102
RTVSPost2010PropOp35
 70
     1
102
RTVSPost2010Prop36
280
     0
102
RTVSPost2010PropOp36
 70
     1
102
RTVSPost2010Prop37
 90
       50
102
RTVSPost2010PropOp37
 70
     1
102
RTVSPost2010Prop38
140
0.0
102
RTVSPost2010PropOp38
 70
     1
102
RTVSPost2010Prop39
140
1.0
102
RTVSPost2010PropOp39
 70
     1
102
RTVSPost2010Prop40
 90
        0
102
RTVSPost2010PropOp40
 70
     1
102
RTVSPost2010Prop41ColorIndex
 90
       18
102
RTVSPost2010Prop41ColorRGB
 90
        0
102
RTVSPost2010PropOp41
 70
     1
102
RTVSPost2010Prop42
 90
       50
102
RTVSPost2010PropOp42
 70
     1
102
RTVSPost2010Prop43
 90
        3
102
RTVSPost2010PropOp43
 70
     1
102
RTVSPost2010Prop44ColorIndex
 90
        5
102
RTVSPost2010Prop44ColorRGB
 90
      255
102
RTVSPost2010PropOp44
 70
     1
102
RTVSPost2010Prop45
280
     0
102
RTVSPost2010PropOp45
 70
     1
102
RTVSPost2010Prop46
 90
       50
102
RTVSPost2010PropOp46
 70
     1
102
RTVSPost2010Prop47
 90
       50
102
RTVSPost2010PropOp47
 70
     1
102
RTVSPost2010Prop48
 90
       50
102
RTVSPost2010PropOp48
 70
     1
102
RTVSPost2010Prop49
280
     0
102
RTVSPost2010PropOp49
 70
     1
102
RTVSPost2010Prop50
 90
       50
102
RTVSPost2010PropOp50
 70
     1
102
RTVSPost2010Prop51ColorIndex
 90
      256
102
RTVSPost2010Prop51ColorRGB
 90
-16777216
102
RTVSPost2010PropOp51
 70
     0
102
RTVSPost2010Prop52
140
1.0
102
RTVSPost2010PropOp52
 70
     0
102
RTVSPost2010Prop53
 90
        2
102
RTVSPost2010PropOp53
 70
     1
102
RTVSPost2010Prop54
  1
strokes_ogs.tif
102
RTVSPost2010PropOp54
 70
     1
102
RTVSPost2010Prop55
280
     0
102
RTVSPost2010PropOp55
 70
     1
102
RTVSPost2010Prop56
140
1.0
102
RTVSPost2010PropOp56
 70
     1
102
RTVSPost2010Prop57
140
1.0
102
RTVSPost2010PropOp57
 70
     1
  0
XRECORD
  5
34A
102
{ACAD_REACTORS
330
349
102
}
330
349
100
AcDbXrecord
280
     1
102
RTVSPropertyOp0
 70
     0
102
RTVSPropertyOp1
 70
     0
102
RTVSPropertyOp2
 70
     0
102
RTVSPropertyOp3
 70
     0
102
RTVSPropertyOp4
 70
     0
102
RTVSPropertyOp5
 70
     0
102
RTVSPropertyOp6
 70
     0
102
RTVSPropertyOp7
 70
     0
102
RTVSPropertyOp8
 70
     0
102
RTVSPropertyOp9
 70
     0
102
RTVSPropertyOp10
 70
     0
102
RTVSPropertyOp11
 70
     0
102
RTVSPropertyOp12
 70
     0
102
RTVSPropertyOp13
 70
     0
102
RTVSPropertyOp14
 70
     2
102
RTVSPropertyOp15
 70
     0
102
RTVSPropertyOp16
 70
     0
102
RTVSPropertyOp17
 70
     0
102
RTVSPropertyOp18
 70
     0
102
RTVSPropertyOp19
 70
     0
102
RTVSPropertyOp20
 70
     0
102
RTVSPropertyOp21
 70
     0
102
RTVSPropertyOp22
 70
     0
102
RTVSPropertyOp23
 70
     0
102
RTVSPropertyOp24
 70
     0
102
RTVSPropertyOp25
 70
     0
102
RTVSPropertyOp26
 70
     0
102
RTVSPropertyOp27
 70
     0
102
RTVSPropertyOp28
 70
     0
102
RTVSPropertyOp29
 70
     0
102
RTVSPropertyOp30
 70
     0
102
RTVSPropertyOp31
 70
     0
102
RTVSPropertyOp32
 70
     0
102
RTVSPropertyOp33
 70
     0
102
RTVSPropertyOp34
 70
     0
102
RTVSPropertyOp35
 70
     0
102
RTVSPropertyOp36
 70
     0
102
RTVSPropertyOp37
 70
     0
102
RTVSPropertyOp38
 70
     0
102
RTVSPropertyOp39
 70
     0
102
RTVSPropertyOp40
 70
     0
102
RTVSPropertyOp41
 70
     0
102
RTVSPropertyOp42
 70
     0
102
RTVSPropertyOp43
 70
     0
102
RTVSPropertyOp44
 70
     0
102
RTVSPropertyOp45
 70
     0
102
RTVSPropertyOp46
 70
     0
102
RTVSPropertyOp47
 70
     0
102
RTVSPropertyOp48
 70
     0
102
RTVSPropertyOp49
 70
     0
102
RTVSPropertyOp50
 70
     0
102
RTVSPropertyOp51
 70
     0
102
RTVSPropertyOp52
 70
     0
102
RTVSPropertyOp53
 70
     0
102
RTVSPropertyOp54
 70
     0
102
RTVSPropertyOp55
 70
     0
102
RTVSPropertyOp56
 70
     0
102
RTVSPropertyOp57
 70
     0
102
RTVSPost2010Prop28
280
     0
102
RTVSPost2010PropOp28
 70
     0
102
RTVSPost2010Prop29
280
     1
102
RTVSPost2010PropOp29
 70
     0
102
RTVSPost2010Prop30
280
     1
102
RTVSPost2010PropOp30
 70
     0
102
RTVSPost2010Prop31
280
     0
102
RTVSPost2010PropOp31
 70
     0
102
RTVSPost2010Prop32
280
     0
102
RTVSPost2010PropOp32
 70
     0
102
RTVSPost2010Prop33
280
     0
102
RTVSPost2010PropOp33
 70
     0
102
RTVSPost2010Prop34
280
     0
102
RTVSPost2010PropOp34
 70
     0
102
RTVSPost2010Prop35
280
     0
102
RTVSPost2010PropOp35
 70
     0
102
RTVSPost2010Prop36
280
     0
102
RTVSPost2010PropOp36
 70
     0
102
RTVSPost2010Prop37
 90
       50
102
RTVSPost2010PropOp37
 70
     0
102
RTVSPost2010Prop38
140
0.0
102
RTVSPost2010PropOp38
 70
     0
102
RTVSPost2010Prop39
140
1.0
102
RTVSPost2010PropOp39
 70
     0
102
RTVSPost2010Prop40
 90
        0
102
RTVSPost2010PropOp40
 70
     0
102
RTVSPost2010Prop41ColorIndex
 90
       18
102
RTVSPost2010Prop41ColorRGB
 90
        0
102
RTVSPost2010PropOp41
 70
     0
102
RTVSPost2010Prop42
 90
       50
102
RTVSPost2010PropOp42
 70
     0
102
RTVSPost2010Prop43
 90
        3
102
RTVSPost2010PropOp43
 70
     0
102
RTVSPost2010Prop44ColorIndex
 90
        5
102
RTVSPost2010Prop44ColorRGB
 90
      255
102
RTVSPost2010PropOp44
 70
     0
102
RTVSPost2010Prop45
280
     0
102
RTVSPost2010PropOp45
 70
     0
102
RTVSPost2010Prop46
 90
       50
102
RTVSPost2010PropOp46
 70
     0
102
RTVSPost2010Prop47
 90
       50
102
RTVSPost2010PropOp47
 70
     0
102
RTVSPost2010Prop48
 90
       50
102
RTVSPost2010PropOp48
 70
     0
102
RTVSPost2010Prop49
280
     0
102
RTVSPost2010PropOp49
 70
     0
102
RTVSPost2010Prop50
 90
       50
102
RTVSPost2010PropOp50
 70
     0
102
RTVSPost2010Prop51ColorIndex
 90
      256
102
RTVSPost2010Prop51ColorRGB
 90
-16777216
102
RTVSPost2010PropOp51
 70
     0
102
RTVSPost2010Prop52
140
1.0
102
RTVSPost2010PropOp52
 70
     0
102
RTVSPost2010Prop53
 90
        2
102
RTVSPost2010PropOp53
 70
     0
102
RTVSPost2010Prop54
  1
strokes_ogs.tif
102
RTVSPost2010PropOp54
 70
     0
102
RTVSPost2010Prop55
280
     0
102
RTVSPost2010PropOp55
 70
     0
102
RTVSPost2010Prop56
140
1.0
102
RTVSPost2010PropOp56
 70
     0
102
RTVSPost2010Prop57
140
1.0
102
RTVSPost2010PropOp57
 70
     0
  0
XRECORD
  5
342
102
{ACAD_REACTORS
330
341
102
}
330
341
100
AcDbXrecord
280
     1
102
RTVSPropertyOp0
 70
     1
102
RTVSPropertyOp1
 70
     1
102
RTVSPropertyOp2
 70
     1
102
RTVSPropertyOp3
 70
     1
102
RTVSPropertyOp4
 70
     1
102
RTVSPropertyOp5
 70
     1
102
RTVSPropertyOp6
 70
     1
102
RTVSPropertyOp7
 70
     1
102
RTVSPropertyOp8
 70
     1
102
RTVSPropertyOp9
 70
     1
102
RTVSPropertyOp10
 70
     1
102
RTVSPropertyOp11
 70
     1
102
RTVSPropertyOp12
 70
     1
102
RTVSPropertyOp13
 70
     1
102
RTVSPropertyOp14
 70
     1
102
RTVSPropertyOp15
 70
     1
102
RTVSPropertyOp16
 70
     1
102
RTVSPropertyOp17
 70
     1
102
RTVSPropertyOp18
 70
     1
102
RTVSPropertyOp19
 70
     1
102
RTVSPropertyOp20
 70
     1
102
RTVSPropertyOp21
 70
     1
102
RTVSPropertyOp22
 70
     1
102
RTVSPropertyOp23
 70
     1
102
RTVSPropertyOp24
 70
     1
102
RTVSPropertyOp25
 70
     1
102
RTVSPropertyOp26
 70
     1
102
RTVSPropertyOp27
 70
     1
102
RTVSPropertyOp28
 70
     1
102
RTVSPropertyOp29
 70
     1
102
RTVSPropertyOp30
 70
     1
102
RTVSPropertyOp31
 70
     1
102
RTVSPropertyOp32
 70
     1
102
RTVSPropertyOp33
 70
     1
102
RTVSPropertyOp34
 70
     1
102
RTVSPropertyOp35
 70
     1
102
RTVSPropertyOp36
 70
     1
102
RTVSPropertyOp37
 70
     1
102
RTVSPropertyOp38
 70
     1
102
RTVSPropertyOp39
 70
     1
102
RTVSPropertyOp40
 70
     1
102
RTVSPropertyOp41
 70
     1
102
RTVSPropertyOp42
 70
     1
102
RTVSPropertyOp43
 70
     1
102
RTVSPropertyOp44
 70
     1
102
RTVSPropertyOp45
 70
     1
102
RTVSPropertyOp46
 70
     1
102
RTVSPropertyOp47
 70
     1
102
RTVSPropertyOp48
 70
     1
102
RTVSPropertyOp49
 70
     1
102
RTVSPropertyOp50
 70
     1
102
RTVSPropertyOp51
 70
     0
102
RTVSPropertyOp52
 70
     0
102
RTVSPropertyOp53
 70
     1
102
RTVSPropertyOp54
 70
     1
102
RTVSPropertyOp55
 70
     1
102
RTVSPropertyOp56
 70
     1
102
RTVSPropertyOp57
 70
     1
102
RTVSPost2010Prop28
280
     0
102
RTVSPost2010PropOp28
 70
     1
102
RTVSPost2010Prop29
280
     1
102
RTVSPost2010PropOp29
 70
     1
102
RTVSPost2010Prop30
280
     1
102
RTVSPost2010PropOp30
 70
     1
102
RTVSPost2010Prop31
280
     0
102
RTVSPost2010PropOp31
 70
     1
102
RTVSPost2010Prop32
280
     0
102
RTVSPost2010PropOp32
 70
     1
102
RTVSPost2010Prop33
280
     0
102
RTVSPost2010PropOp33
 70
     1
102
RTVSPost2010Prop34
280
     0
102
RTVSPost2010PropOp34
 70
     1
102
RTVSPost2010Prop35
280
     0
102
RTVSPost2010PropOp35
 70
     1
102
RTVSPost2010Prop36
280
     0
102
RTVSPost2010PropOp36
 70
     1
102
RTVSPost2010Prop37
 90
       50
102
RTVSPost2010PropOp37
 70
     1
102
RTVSPost2010Prop38
140
0.0
102
RTVSPost2010PropOp38
 70
     1
102
RTVSPost2010Prop39
140
1.0
102
RTVSPost2010PropOp39
 70
     1
102
RTVSPost2010Prop40
 90
        0
102
RTVSPost2010PropOp40
 70
     1
102
RTVSPost2010Prop41ColorIndex
 90
       18
102
RTVSPost2010Prop41ColorRGB
 90
        0
102
RTVSPost2010PropOp41
 70
     1
102
RTVSPost2010Prop42
 90
       50
102
RTVSPost2010PropOp42
 70
     1
102
RTVSPost2010Prop43
 90
        3
102
RTVSPost2010PropOp43
 70
     1
102
RTVSPost2010Prop44ColorIndex
 90
        5
102
RTVSPost2010Prop44ColorRGB
 90
      255
102
RTVSPost2010PropOp44
 70
     1
102
RTVSPost2010Prop45
280
     0
102
RTVSPost2010PropOp45
 70
     1
102
RTVSPost2010Prop46
 90
       50
102
RTVSPost2010PropOp46
 70
     1
102
RTVSPost2010Prop47
 90
       50
102
RTVSPost2010PropOp47
 70
     1
102
RTVSPost2010Prop48
 90
       50
102
RTVSPost2010PropOp48
 70
     1
102
RTVSPost2010Prop49
280
     0
102
RTVSPost2010PropOp49
 70
     1
102
RTVSPost2010Prop50
 90
       50
102
RTVSPost2010PropOp50
 70
     1
102
RTVSPost2010Prop51ColorIndex
 90
      256
102
RTVSPost2010Prop51ColorRGB
 90
-16777216
102
RTVSPost2010PropOp51
 70
     0
102
RTVSPost2010Prop52
140
1.0
102
RTVSPost2010PropOp52
 70
     0
102
RTVSPost2010Prop53
 90
        2
102
RTVSPost2010PropOp53
 70
     1
102
RTVSPost2010Prop54
  1
strokes_ogs.tif
102
RTVSPost2010PropOp54
 70
     1
102
RTVSPost2010Prop55
280
     0
102
RTVSPost2010PropOp55
 70
     1
102
RTVSPost2010Prop56
140
1.0
102
RTVSPost2010PropOp56
 70
     1
102
RTVSPost2010Prop57
140
1.0
102
RTVSPost2010PropOp57
 70
     1
  0
XRECORD
  5
326
102
{ACAD_REACTORS
330
325
102
}
330
325
100
AcDbXrecord
280
     1
102
RTVSPropertyOp0
 70
     1
102
RTVSPropertyOp1
 70
     1
102
RTVSPropertyOp2
 70
     1
102
RTVSPropertyOp3
 70
     1
102
RTVSPropertyOp4
 70
     1
102
RTVSPropertyOp5
 70
     1
102
RTVSPropertyOp6
 70
     1
102
RTVSPropertyOp7
 70
     1
102
RTVSPropertyOp8
 70
     1
102
RTVSPropertyOp9
 70
     1
102
RTVSPropertyOp10
 70
     1
102
RTVSPropertyOp11
 70
     1
102
RTVSPropertyOp12
 70
     1
102
RTVSPropertyOp13
 70
     1
102
RTVSPropertyOp14
 70
     1
102
RTVSPropertyOp15
 70
     1
102
RTVSPropertyOp16
 70
     1
102
RTVSPropertyOp17
 70
     1
102
RTVSPropertyOp18
 70
     1
102
RTVSPropertyOp19
 70
     1
102
RTVSPropertyOp20
 70
     1
102
RTVSPropertyOp21
 70
     1
102
RTVSPropertyOp22
 70
     1
102
RTVSPropertyOp23
 70
     1
102
RTVSPropertyOp24
 70
     1
102
RTVSPropertyOp25
 70
     1
102
RTVSPropertyOp26
 70
     1
102
RTVSPropertyOp27
 70
     1
102
RTVSPropertyOp28
 70
     1
102
RTVSPropertyOp29
 70
     1
102
RTVSPropertyOp30
 70
     1
102
RTVSPropertyOp31
 70
     1
102
RTVSPropertyOp32
 70
     1
102
RTVSPropertyOp33
 70
     1
102
RTVSPropertyOp34
 70
     1
102
RTVSPropertyOp35
 70
     1
102
RTVSPropertyOp36
 70
     1
102
RTVSPropertyOp37
 70
     1
102
RTVSPropertyOp38
 70
     1
102
RTVSPropertyOp39
 70
     1
102
RTVSPropertyOp40
 70
     1
102
RTVSPropertyOp41
 70
     1
102
RTVSPropertyOp42
 70
     1
102
RTVSPropertyOp43
 70
     1
102
RTVSPropertyOp44
 70
     1
102
RTVSPropertyOp45
 70
     1
102
RTVSPropertyOp46
 70
     1
102
RTVSPropertyOp47
 70
     1
102
RTVSPropertyOp48
 70
     1
102
RTVSPropertyOp49
 70
     1
102
RTVSPropertyOp50
 70
     1
102
RTVSPropertyOp51
 70
     0
102
RTVSPropertyOp52
 70
     0
102
RTVSPropertyOp53
 70
     1
102
RTVSPropertyOp54
 70
     1
102
RTVSPropertyOp55
 70
     1
102
RTVSPropertyOp56
 70
     1
102
RTVSPropertyOp57
 70
     1
102
RTVSPost2010Prop28
280
     0
102
RTVSPost2010PropOp28
 70
     1
102
RTVSPost2010Prop29
280
     1
102
RTVSPost2010PropOp29
 70
     1
102
RTVSPost2010Prop30
280
     1
102
RTVSPost2010PropOp30
 70
     1
102
RTVSPost2010Prop31
280
     0
102
RTVSPost2010PropOp31
 70
     1
102
RTVSPost2010Prop32
280
     0
102
RTVSPost2010PropOp32
 70
     1
102
RTVSPost2010Prop33
280
     0
102
RTVSPost2010PropOp33
 70
     1
102
RTVSPost2010Prop34
280
     0
102
RTVSPost2010PropOp34
 70
     1
102
RTVSPost2010Prop35
280
     0
102
RTVSPost2010PropOp35
 70
     1
102
RTVSPost2010Prop36
280
     0
102
RTVSPost2010PropOp36
 70
     1
102
RTVSPost2010Prop37
 90
       50
102
RTVSPost2010PropOp37
 70
     1
102
RTVSPost2010Prop38
140
0.0
102
RTVSPost2010PropOp38
 70
     1
102
RTVSPost2010Prop39
140
1.0
102
RTVSPost2010PropOp39
 70
     1
102
RTVSPost2010Prop40
 90
        0
102
RTVSPost2010PropOp40
 70
     1
102
RTVSPost2010Prop41ColorIndex
 90
       18
102
RTVSPost2010Prop41ColorRGB
 90
        0
102
RTVSPost2010PropOp41
 70
     1
102
RTVSPost2010Prop42
 90
       50
102
RTVSPost2010PropOp42
 70
     1
102
RTVSPost2010Prop43
 90
        3
102
RTVSPost2010PropOp43
 70
     1
102
RTVSPost2010Prop44ColorIndex
 90
        5
102
RTVSPost2010Prop44ColorRGB
 90
      255
102
RTVSPost2010PropOp44
 70
     1
102
RTVSPost2010Prop45
280
     0
102
RTVSPost2010PropOp45
 70
     1
102
RTVSPost2010Prop46
 90
       50
102
RTVSPost2010PropOp46
 70
     1
102
RTVSPost2010Prop47
 90
       50
102
RTVSPost2010PropOp47
 70
     1
102
RTVSPost2010Prop48
 90
       50
102
RTVSPost2010PropOp48
 70
     1
102
RTVSPost2010Prop49
280
     0
102
RTVSPost2010PropOp49
 70
     1
102
RTVSPost2010Prop50
 90
       50
102
RTVSPost2010PropOp50
 70
     1
102
RTVSPost2010Prop51ColorIndex
 90
      256
102
RTVSPost2010Prop51ColorRGB
 90
-16777216
102
RTVSPost2010PropOp51
 70
     0
102
RTVSPost2010Prop52
140
1.0
102
RTVSPost2010PropOp52
 70
     0
102
RTVSPost2010Prop53
 90
        2
102
RTVSPost2010PropOp53
 70
     1
102
RTVSPost2010Prop54
  1
strokes_ogs.tif
102
RTVSPost2010PropOp54
 70
     1
102
RTVSPost2010Prop55
280
     0
102
RTVSPost2010PropOp55
 70
     1
102
RTVSPost2010Prop56
140
1.0
102
RTVSPost2010PropOp56
 70
     1
102
RTVSPost2010Prop57
140
1.0
102
RTVSPost2010PropOp57
 70
     1
  0
XRECORD
  5
328
102
{ACAD_REACTORS
330
327
102
}
330
327
100
AcDbXrecord
280
     1
102
RTVSPropertyOp0
 70
     1
102
RTVSPropertyOp1
 70
     1
102
RTVSPropertyOp2
 70
     1
102
RTVSPropertyOp3
 70
     1
102
RTVSPropertyOp4
 70
     1
102
RTVSPropertyOp5
 70
     1
102
RTVSPropertyOp6
 70
     1
102
RTVSPropertyOp7
 70
     1
102
RTVSPropertyOp8
 70
     1
102
RTVSPropertyOp9
 70
     1
102
RTVSPropertyOp10
 70
     1
102
RTVSPropertyOp11
 70
     1
102
RTVSPropertyOp12
 70
     1
102
RTVSPropertyOp13
 70
     1
102
RTVSPropertyOp14
 70
     1
102
RTVSPropertyOp15
 70
     1
102
RTVSPropertyOp16
 70
     1
102
RTVSPropertyOp17
 70
     1
102
RTVSPropertyOp18
 70
     1
102
RTVSPropertyOp19
 70
     1
102
RTVSPropertyOp20
 70
     1
102
RTVSPropertyOp21
 70
     1
102
RTVSPropertyOp22
 70
     1
102
RTVSPropertyOp23
 70
     1
102
RTVSPropertyOp24
 70
     1
102
RTVSPropertyOp25
 70
     1
102
RTVSPropertyOp26
 70
     1
102
RTVSPropertyOp27
 70
     1
102
RTVSPropertyOp28
 70
     1
102
RTVSPropertyOp29
 70
     1
102
RTVSPropertyOp30
 70
     1
102
RTVSPropertyOp31
 70
     1
102
RTVSPropertyOp32
 70
     1
102
RTVSPropertyOp33
 70
     1
102
RTVSPropertyOp34
 70
     1
102
RTVSPropertyOp35
 70
     1
102
RTVSPropertyOp36
 70
     1
102
RTVSPropertyOp37
 70
     1
102
RTVSPropertyOp38
 70
     1
102
RTVSPropertyOp39
 70
     1
102
RTVSPropertyOp40
 70
     1
102
RTVSPropertyOp41
 70
     1
102
RTVSPropertyOp42
 70
     1
102
RTVSPropertyOp43
 70
     1
102
RTVSPropertyOp44
 70
     1
102
RTVSPropertyOp45
 70
     1
102
RTVSPropertyOp46
 70
     1
102
RTVSPropertyOp47
 70
     1
102
RTVSPropertyOp48
 70
     1
102
RTVSPropertyOp49
 70
     1
102
RTVSPropertyOp50
 70
     1
102
RTVSPropertyOp51
 70
     0
102
RTVSPropertyOp52
 70
     0
102
RTVSPropertyOp53
 70
     1
102
RTVSPropertyOp54
 70
     1
102
RTVSPropertyOp55
 70
     1
102
RTVSPropertyOp56
 70
     1
102
RTVSPropertyOp57
 70
     1
102
RTVSPost2010Prop28
280
     0
102
RTVSPost2010PropOp28
 70
     1
102
RTVSPost2010Prop29
280
     1
102
RTVSPost2010PropOp29
 70
     1
102
RTVSPost2010Prop30
280
     1
102
RTVSPost2010PropOp30
 70
     1
102
RTVSPost2010Prop31
280
     0
102
RTVSPost2010PropOp31
 70
     1
102
RTVSPost2010Prop32
280
     0
102
RTVSPost2010PropOp32
 70
     1
102
RTVSPost2010Prop33
280
     0
102
RTVSPost2010PropOp33
 70
     1
102
RTVSPost2010Prop34
280
     0
102
RTVSPost2010PropOp34
 70
     1
102
RTVSPost2010Prop35
280
     0
102
RTVSPost2010PropOp35
 70
     1
102
RTVSPost2010Prop36
280
     0
102
RTVSPost2010PropOp36
 70
     1
102
RTVSPost2010Prop37
 90
       50
102
RTVSPost2010PropOp37
 70
     1
102
RTVSPost2010Prop38
140
0.0
102
RTVSPost2010PropOp38
 70
     1
102
RTVSPost2010Prop39
140
1.0
102
RTVSPost2010PropOp39
 70
     1
102
RTVSPost2010Prop40
 90
        0
102
RTVSPost2010PropOp40
 70
     1
102
RTVSPost2010Prop41ColorIndex
 90
       18
102
RTVSPost2010Prop41ColorRGB
 90
        0
102
RTVSPost2010PropOp41
 70
     1
102
RTVSPost2010Prop42
 90
       50
102
RTVSPost2010PropOp42
 70
     1
102
RTVSPost2010Prop43
 90
        3
102
RTVSPost2010PropOp43
 70
     1
102
RTVSPost2010Prop44ColorIndex
 90
        5
102
RTVSPost2010Prop44ColorRGB
 90
      255
102
RTVSPost2010PropOp44
 70
     1
102
RTVSPost2010Prop45
280
     0
102
RTVSPost2010PropOp45
 70
     1
102
RTVSPost2010Prop46
 90
       50
102
RTVSPost2010PropOp46
 70
     1
102
RTVSPost2010Prop47
 90
       50
102
RTVSPost2010PropOp47
 70
     1
102
RTVSPost2010Prop48
 90
       50
102
RTVSPost2010PropOp48
 70
     1
102
RTVSPost2010Prop49
280
     0
102
RTVSPost2010PropOp49
 70
     1
102
RTVSPost2010Prop50
 90
       50
102
RTVSPost2010PropOp50
 70
     1
102
RTVSPost2010Prop51ColorIndex
 90
      256
102
RTVSPost2010Prop51ColorRGB
 90
-16777216
102
RTVSPost2010PropOp51
 70
     0
102
RTVSPost2010Prop52
140
1.0
102
RTVSPost2010PropOp52
 70
     0
102
RTVSPost2010Prop53
 90
        2
102
RTVSPost2010PropOp53
 70
     1
102
RTVSPost2010Prop54
  1
strokes_ogs.tif
102
RTVSPost2010PropOp54
 70
     1
102
RTVSPost2010Prop55
280
     0
102
RTVSPost2010PropOp55
 70
     1
102
RTVSPost2010Prop56
140
1.0
102
RTVSPost2010PropOp56
 70
     1
102
RTVSPost2010Prop57
140
1.0
102
RTVSPost2010PropOp57
 70
     1
  0
XRECORD
  5
32A
102
{ACAD_REACTORS
330
329
102
}
330
329
100
AcDbXrecord
280
     1
102
RTVSPropertyOp0
 70
     1
102
RTVSPropertyOp1
 70
     1
102
RTVSPropertyOp2
 70
     1
102
RTVSPropertyOp3
 70
     1
102
RTVSPropertyOp4
 70
     1
102
RTVSPropertyOp5
 70
     1
102
RTVSPropertyOp6
 70
     1
102
RTVSPropertyOp7
 70
     1
102
RTVSPropertyOp8
 70
     1
102
RTVSPropertyOp9
 70
     1
102
RTVSPropertyOp10
 70
     1
102
RTVSPropertyOp11
 70
     1
102
RTVSPropertyOp12
 70
     1
102
RTVSPropertyOp13
 70
     1
102
RTVSPropertyOp14
 70
     1
102
RTVSPropertyOp15
 70
     1
102
RTVSPropertyOp16
 70
     1
102
RTVSPropertyOp17
 70
     1
102
RTVSPropertyOp18
 70
     1
102
RTVSPropertyOp19
 70
     1
102
RTVSPropertyOp20
 70
     1
102
RTVSPropertyOp21
 70
     1
102
RTVSPropertyOp22
 70
     1
102
RTVSPropertyOp23
 70
     1
102
RTVSPropertyOp24
 70
     1
102
RTVSPropertyOp25
 70
     1
102
RTVSPropertyOp26
 70
     1
102
RTVSPropertyOp27
 70
     1
102
RTVSPropertyOp28
 70
     1
102
RTVSPropertyOp29
 70
     1
102
RTVSPropertyOp30
 70
     1
102
RTVSPropertyOp31
 70
     1
102
RTVSPropertyOp32
 70
     1
102
RTVSPropertyOp33
 70
     1
102
RTVSPropertyOp34
 70
     1
102
RTVSPropertyOp35
 70
     1
102
RTVSPropertyOp36
 70
     1
102
RTVSPropertyOp37
 70
     1
102
RTVSPropertyOp38
 70
     1
102
RTVSPropertyOp39
 70
     1
102
RTVSPropertyOp40
 70
     1
102
RTVSPropertyOp41
 70
     1
102
RTVSPropertyOp42
 70
     1
102
RTVSPropertyOp43
 70
     1
102
RTVSPropertyOp44
 70
     1
102
RTVSPropertyOp45
 70
     1
102
RTVSPropertyOp46
 70
     1
102
RTVSPropertyOp47
 70
     1
102
RTVSPropertyOp48
 70
     1
102
RTVSPropertyOp49
 70
     1
102
RTVSPropertyOp50
 70
     1
102
RTVSPropertyOp51
 70
     0
102
RTVSPropertyOp52
 70
     0
102
RTVSPropertyOp53
 70
     1
102
RTVSPropertyOp54
 70
     1
102
RTVSPropertyOp55
 70
     1
102
RTVSPropertyOp56
 70
     1
102
RTVSPropertyOp57
 70
     1
102
RTVSPost2010Prop28
280
     0
102
RTVSPost2010PropOp28
 70
     1
102
RTVSPost2010Prop29
280
     1
102
RTVSPost2010PropOp29
 70
     1
102
RTVSPost2010Prop30
280
     1
102
RTVSPost2010PropOp30
 70
     1
102
RTVSPost2010Prop31
280
     0
102
RTVSPost2010PropOp31
 70
     1
102
RTVSPost2010Prop32
280
     0
102
RTVSPost2010PropOp32
 70
     1
102
RTVSPost2010Prop33
280
     0
102
RTVSPost2010PropOp33
 70
     1
102
RTVSPost2010Prop34
280
     0
102
RTVSPost2010PropOp34
 70
     1
102
RTVSPost2010Prop35
280
     0
102
RTVSPost2010PropOp35
 70
     1
102
RTVSPost2010Prop36
280
     0
102
RTVSPost2010PropOp36
 70
     1
102
RTVSPost2010Prop37
 90
       50
102
RTVSPost2010PropOp37
 70
     1
102
RTVSPost2010Prop38
140
0.0
102
RTVSPost2010PropOp38
 70
     1
102
RTVSPost2010Prop39
140
1.0
102
RTVSPost2010PropOp39
 70
     1
102
RTVSPost2010Prop40
 90
        0
102
RTVSPost2010PropOp40
 70
     1
102
RTVSPost2010Prop41ColorIndex
 90
       18
102
RTVSPost2010Prop41ColorRGB
 90
        0
102
RTVSPost2010PropOp41
 70
     1
102
RTVSPost2010Prop42
 90
       50
102
RTVSPost2010PropOp42
 70
     1
102
RTVSPost2010Prop43
 90
        3
102
RTVSPost2010PropOp43
 70
     1
102
RTVSPost2010Prop44ColorIndex
 90
        5
102
RTVSPost2010Prop44ColorRGB
 90
      255
102
RTVSPost2010PropOp44
 70
     1
102
RTVSPost2010Prop45
280
     0
102
RTVSPost2010PropOp45
 70
     1
102
RTVSPost2010Prop46
 90
       50
102
RTVSPost2010PropOp46
 70
     1
102
RTVSPost2010Prop47
 90
       50
102
RTVSPost2010PropOp47
 70
     1
102
RTVSPost2010Prop48
 90
       50
102
RTVSPost2010PropOp48
 70
     1
102
RTVSPost2010Prop49
280
     0
102
RTVSPost2010PropOp49
 70
     1
102
RTVSPost2010Prop50
 90
       50
102
RTVSPost2010PropOp50
 70
     1
102
RTVSPost2010Prop51ColorIndex
 90
      256
102
RTVSPost2010Prop51ColorRGB
 90
-16777216
102
RTVSPost2010PropOp51
 70
     0
102
RTVSPost2010Prop52
140
1.0
102
RTVSPost2010PropOp52
 70
     0
102
RTVSPost2010Prop53
 90
        2
102
RTVSPost2010PropOp53
 70
     1
102
RTVSPost2010Prop54
  1
strokes_ogs.tif
102
RTVSPost2010PropOp54
 70
     1
102
RTVSPost2010Prop55
280
     0
102
RTVSPost2010PropOp55
 70
     1
102
RTVSPost2010Prop56
140
1.0
102
RTVSPost2010PropOp56
 70
     1
102
RTVSPost2010Prop57
140
1.0
102
RTVSPost2010PropOp57
 70
     1
  0
XRECORD
  5
32C
102
{ACAD_REACTORS
330
32B
102
}
330
32B
100
AcDbXrecord
280
     1
102
RTVSPropertyOp0
 70
     1
102
RTVSPropertyOp1
 70
     1
102
RTVSPropertyOp2
 70
     1
102
RTVSPropertyOp3
 70
     1
102
RTVSPropertyOp4
 70
     1
102
RTVSPropertyOp5
 70
     1
102
RTVSPropertyOp6
 70
     1
102
RTVSPropertyOp7
 70
     1
102
RTVSPropertyOp8
 70
     1
102
RTVSPropertyOp9
 70
     1
102
RTVSPropertyOp10
 70
     1
102
RTVSPropertyOp11
 70
     1
102
RTVSPropertyOp12
 70
     1
102
RTVSPropertyOp13
 70
     1
102
RTVSPropertyOp14
 70
     1
102
RTVSPropertyOp15
 70
     1
102
RTVSPropertyOp16
 70
     1
102
RTVSPropertyOp17
 70
     1
102
RTVSPropertyOp18
 70
     1
102
RTVSPropertyOp19
 70
     1
102
RTVSPropertyOp20
 70
     1
102
RTVSPropertyOp21
 70
     1
102
RTVSPropertyOp22
 70
     1
102
RTVSPropertyOp23
 70
     1
102
RTVSPropertyOp24
 70
     1
102
RTVSPropertyOp25
 70
     1
102
RTVSPropertyOp26
 70
     1
102
RTVSPropertyOp27
 70
     1
102
RTVSPropertyOp28
 70
     1
102
RTVSPropertyOp29
 70
     1
102
RTVSPropertyOp30
 70
     1
102
RTVSPropertyOp31
 70
     1
102
RTVSPropertyOp32
 70
     1
102
RTVSPropertyOp33
 70
     1
102
RTVSPropertyOp34
 70
     1
102
RTVSPropertyOp35
 70
     1
102
RTVSPropertyOp36
 70
     1
102
RTVSPropertyOp37
 70
     1
102
RTVSPropertyOp38
 70
     1
102
RTVSPropertyOp39
 70
     1
102
RTVSPropertyOp40
 70
     1
102
RTVSPropertyOp41
 70
     1
102
RTVSPropertyOp42
 70
     1
102
RTVSPropertyOp43
 70
     1
102
RTVSPropertyOp44
 70
     1
102
RTVSPropertyOp45
 70
     1
102
RTVSPropertyOp46
 70
     1
102
RTVSPropertyOp47
 70
     1
102
RTVSPropertyOp48
 70
     1
102
RTVSPropertyOp49
 70
     1
102
RTVSPropertyOp50
 70
     1
102
RTVSPropertyOp51
 70
     0
102
RTVSPropertyOp52
 70
     0
102
RTVSPropertyOp53
 70
     1
102
RTVSPropertyOp54
 70
     1
102
RTVSPropertyOp55
 70
     1
102
RTVSPropertyOp56
 70
     1
102
RTVSPropertyOp57
 70
     1
102
RTVSPost2010Prop28
280
     0
102
RTVSPost2010PropOp28
 70
     1
102
RTVSPost2010Prop29
280
     1
102
RTVSPost2010PropOp29
 70
     1
102
RTVSPost2010Prop30
280
     1
102
RTVSPost2010PropOp30
 70
     1
102
RTVSPost2010Prop31
280
     0
102
RTVSPost2010PropOp31
 70
     1
102
RTVSPost2010Prop32
280
     0
102
RTVSPost2010PropOp32
 70
     1
102
RTVSPost2010Prop33
280
     0
102
RTVSPost2010PropOp33
 70
     1
102
RTVSPost2010Prop34
280
     0
102
RTVSPost2010PropOp34
 70
     1
102
RTVSPost2010Prop35
280
     0
102
RTVSPost2010PropOp35
 70
     1
102
RTVSPost2010Prop36
280
     0
102
RTVSPost2010PropOp36
 70
     1
102
RTVSPost2010Prop37
 90
       50
102
RTVSPost2010PropOp37
 70
     1
102
RTVSPost2010Prop38
140
0.0
102
RTVSPost2010PropOp38
 70
     1
102
RTVSPost2010Prop39
140
1.0
102
RTVSPost2010PropOp39
 70
     1
102
RTVSPost2010Prop40
 90
        0
102
RTVSPost2010PropOp40
 70
     1
102
RTVSPost2010Prop41ColorIndex
 90
       18
102
RTVSPost2010Prop41ColorRGB
 90
        0
102
RTVSPost2010PropOp41
 70
     1
102
RTVSPost2010Prop42
 90
       50
102
RTVSPost2010PropOp42
 70
     1
102
RTVSPost2010Prop43
 90
        3
102
RTVSPost2010PropOp43
 70
     1
102
RTVSPost2010Prop44ColorIndex
 90
        5
102
RTVSPost2010Prop44ColorRGB
 90
      255
102
RTVSPost2010PropOp44
 70
     1
102
RTVSPost2010Prop45
280
     0
102
RTVSPost2010PropOp45
 70
     1
102
RTVSPost2010Prop46
 90
       50
102
RTVSPost2010PropOp46
 70
     1
102
RTVSPost2010Prop47
 90
       50
102
RTVSPost2010PropOp47
 70
     1
102
RTVSPost2010Prop48
 90
       50
102
RTVSPost2010PropOp48
 70
     1
102
RTVSPost2010Prop49
280
     0
102
RTVSPost2010PropOp49
 70
     1
102
RTVSPost2010Prop50
 90
       50
102
RTVSPost2010PropOp50
 70
     1
102
RTVSPost2010Prop51ColorIndex
 90
      256
102
RTVSPost2010Prop51ColorRGB
 90
-16777216
102
RTVSPost2010PropOp51
 70
     0
102
RTVSPost2010Prop52
140
1.0
102
RTVSPost2010PropOp52
 70
     0
102
RTVSPost2010Prop53
 90
        2
102
RTVSPost2010PropOp53
 70
     1
102
RTVSPost2010Prop54
  1
strokes_ogs.tif
102
RTVSPost2010PropOp54
 70
     1
102
RTVSPost2010Prop55
280
     0
102
RTVSPost2010PropOp55
 70
     1
102
RTVSPost2010Prop56
140
1.0
102
RTVSPost2010PropOp56
 70
     1
102
RTVSPost2010Prop57
140
1.0
102
RTVSPost2010PropOp57
 70
     1
  0
XRECORD
  5
332
102
{ACAD_REACTORS
330
331
102
}
330
331
100
AcDbXrecord
280
     1
102
RTVSPropertyOp0
 70
     1
102
RTVSPropertyOp1
 70
     1
102
RTVSPropertyOp2
 70
     1
102
RTVSPropertyOp3
 70
     1
102
RTVSPropertyOp4
 70
     1
102
RTVSPropertyOp5
 70
     1
102
RTVSPropertyOp6
 70
     1
102
RTVSPropertyOp7
 70
     1
102
RTVSPropertyOp8
 70
     1
102
RTVSPropertyOp9
 70
     1
102
RTVSPropertyOp10
 70
     1
102
RTVSPropertyOp11
 70
     1
102
RTVSPropertyOp12
 70
     1
102
RTVSPropertyOp13
 70
     1
102
RTVSPropertyOp14
 70
     1
102
RTVSPropertyOp15
 70
     1
102
RTVSPropertyOp16
 70
     1
102
RTVSPropertyOp17
 70
     1
102
RTVSPropertyOp18
 70
     1
102
RTVSPropertyOp19
 70
     1
102
RTVSPropertyOp20
 70
     1
102
RTVSPropertyOp21
 70
     1
102
RTVSPropertyOp22
 70
     1
102
RTVSPropertyOp23
 70
     1
102
RTVSPropertyOp24
 70
     1
102
RTVSPropertyOp25
 70
     1
102
RTVSPropertyOp26
 70
     1
102
RTVSPropertyOp27
 70
     1
102
RTVSPropertyOp28
 70
     1
102
RTVSPropertyOp29
 70
     1
102
RTVSPropertyOp30
 70
     1
102
RTVSPropertyOp31
 70
     1
102
RTVSPropertyOp32
 70
     1
102
RTVSPropertyOp33
 70
     1
102
RTVSPropertyOp34
 70
     1
102
RTVSPropertyOp35
 70
     1
102
RTVSPropertyOp36
 70
     1
102
RTVSPropertyOp37
 70
     1
102
RTVSPropertyOp38
 70
     1
102
RTVSPropertyOp39
 70
     1
102
RTVSPropertyOp40
 70
     1
102
RTVSPropertyOp41
 70
     1
102
RTVSPropertyOp42
 70
     1
102
RTVSPropertyOp43
 70
     1
102
RTVSPropertyOp44
 70
     1
102
RTVSPropertyOp45
 70
     1
102
RTVSPropertyOp46
 70
     1
102
RTVSPropertyOp47
 70
     1
102
RTVSPropertyOp48
 70
     1
102
RTVSPropertyOp49
 70
     1
102
RTVSPropertyOp50
 70
     1
102
RTVSPropertyOp51
 70
     0
102
RTVSPropertyOp52
 70
     0
102
RTVSPropertyOp53
 70
     1
102
RTVSPropertyOp54
 70
     1
102
RTVSPropertyOp55
 70
     1
102
RTVSPropertyOp56
 70
     1
102
RTVSPropertyOp57
 70
     1
102
RTVSPost2010Prop28
280
     0
102
RTVSPost2010PropOp28
 70
     1
102
RTVSPost2010Prop29
280
     1
102
RTVSPost2010PropOp29
 70
     1
102
RTVSPost2010Prop30
280
     1
102
RTVSPost2010PropOp30
 70
     1
102
RTVSPost2010Prop31
280
     0
102
RTVSPost2010PropOp31
 70
     1
102
RTVSPost2010Prop32
280
     0
102
RTVSPost2010PropOp32
 70
     1
102
RTVSPost2010Prop33
280
     0
102
RTVSPost2010PropOp33
 70
     1
102
RTVSPost2010Prop34
280
     0
102
RTVSPost2010PropOp34
 70
     1
102
RTVSPost2010Prop35
280
     0
102
RTVSPost2010PropOp35
 70
     1
102
RTVSPost2010Prop36
280
     0
102
RTVSPost2010PropOp36
 70
     1
102
RTVSPost2010Prop37
 90
       50
102
RTVSPost2010PropOp37
 70
     1
102
RTVSPost2010Prop38
140
0.0
102
RTVSPost2010PropOp38
 70
     1
102
RTVSPost2010Prop39
140
1.0
102
RTVSPost2010PropOp39
 70
     1
102
RTVSPost2010Prop40
 90
        0
102
RTVSPost2010PropOp40
 70
     1
102
RTVSPost2010Prop41ColorIndex
 90
       18
102
RTVSPost2010Prop41ColorRGB
 90
        0
102
RTVSPost2010PropOp41
 70
     1
102
RTVSPost2010Prop42
 90
       50
102
RTVSPost2010PropOp42
 70
     1
102
RTVSPost2010Prop43
 90
        3
102
RTVSPost2010PropOp43
 70
     1
102
RTVSPost2010Prop44ColorIndex
 90
        5
102
RTVSPost2010Prop44ColorRGB
 90
      255
102
RTVSPost2010PropOp44
 70
     1
102
RTVSPost2010Prop45
280
     0
102
RTVSPost2010PropOp45
 70
     1
102
RTVSPost2010Prop46
 90
       50
102
RTVSPost2010PropOp46
 70
     1
102
RTVSPost2010Prop47
 90
       50
102
RTVSPost2010PropOp47
 70
     1
102
RTVSPost2010Prop48
 90
       50
102
RTVSPost2010PropOp48
 70
     1
102
RTVSPost2010Prop49
280
     0
102
RTVSPost2010PropOp49
 70
     1
102
RTVSPost2010Prop50
 90
       50
102
RTVSPost2010PropOp50
 70
     1
102
RTVSPost2010Prop51ColorIndex
 90
      256
102
RTVSPost2010Prop51ColorRGB
 90
-16777216
102
RTVSPost2010PropOp51
 70
     0
102
RTVSPost2010Prop52
140
1.0
102
RTVSPost2010PropOp52
 70
     0
102
RTVSPost2010Prop53
 90
        2
102
RTVSPost2010PropOp53
 70
     1
102
RTVSPost2010Prop54
  1
strokes_ogs.tif
102
RTVSPost2010PropOp54
 70
     1
102
RTVSPost2010Prop55
280
     0
102
RTVSPost2010PropOp55
 70
     1
102
RTVSPost2010Prop56
140
1.0
102
RTVSPost2010PropOp56
 70
     1
102
RTVSPost2010Prop57
140
1.0
102
RTVSPost2010PropOp57
 70
     1
  0
XRECORD
  5
346
102
{ACAD_REACTORS
330
345
102
}
330
345
100
AcDbXrecord
280
     1
102
RTVSPropertyOp0
 70
     0
102
RTVSPropertyOp1
 70
     0
102
RTVSPropertyOp2
 70
     0
102
RTVSPropertyOp3
 70
     0
102
RTVSPropertyOp4
 70
     0
102
RTVSPropertyOp5
 70
     0
102
RTVSPropertyOp6
 70
     0
102
RTVSPropertyOp7
 70
     0
102
RTVSPropertyOp8
 70
     0
102
RTVSPropertyOp9
 70
     0
102
RTVSPropertyOp10
 70
     0
102
RTVSPropertyOp11
 70
     0
102
RTVSPropertyOp12
 70
     0
102
RTVSPropertyOp13
 70
     0
102
RTVSPropertyOp14
 70
     2
102
RTVSPropertyOp15
 70
     0
102
RTVSPropertyOp16
 70
     0
102
RTVSPropertyOp17
 70
     0
102
RTVSPropertyOp18
 70
     0
102
RTVSPropertyOp19
 70
     0
102
RTVSPropertyOp20
 70
     0
102
RTVSPropertyOp21
 70
     0
102
RTVSPropertyOp22
 70
     0
102
RTVSPropertyOp23
 70
     0
102
RTVSPropertyOp24
 70
     0
102
RTVSPropertyOp25
 70
     0
102
RTVSPropertyOp26
 70
     0
102
RTVSPropertyOp27
 70
     0
102
RTVSPropertyOp28
 70
     0
102
RTVSPropertyOp29
 70
     0
102
RTVSPropertyOp30
 70
     0
102
RTVSPropertyOp31
 70
     0
102
RTVSPropertyOp32
 70
     0
102
RTVSPropertyOp33
 70
     0
102
RTVSPropertyOp34
 70
     0
102
RTVSPropertyOp35
 70
     0
102
RTVSPropertyOp36
 70
     0
102
RTVSPropertyOp37
 70
     0
102
RTVSPropertyOp38
 70
     0
102
RTVSPropertyOp39
 70
     0
102
RTVSPropertyOp40
 70
     0
102
RTVSPropertyOp41
 70
     0
102
RTVSPropertyOp42
 70
     0
102
RTVSPropertyOp43
 70
     0
102
RTVSPropertyOp44
 70
     0
102
RTVSPropertyOp45
 70
     0
102
RTVSPropertyOp46
 70
     0
102
RTVSPropertyOp47
 70
     0
102
RTVSPropertyOp48
 70
     0
102
RTVSPropertyOp49
 70
     0
102
RTVSPropertyOp50
 70
     0
102
RTVSPropertyOp51
 70
     0
102
RTVSPropertyOp52
 70
     0
102
RTVSPropertyOp53
 70
     0
102
RTVSPropertyOp54
 70
     0
102
RTVSPropertyOp55
 70
     0
102
RTVSPropertyOp56
 70
     0
102
RTVSPropertyOp57
 70
     0
102
RTVSPost2010Prop28
280
     0
102
RTVSPost2010PropOp28
 70
     0
102
RTVSPost2010Prop29
280
     1
102
RTVSPost2010PropOp29
 70
     0
102
RTVSPost2010Prop30
280
     1
102
RTVSPost2010PropOp30
 70
     0
102
RTVSPost2010Prop31
280
     0
102
RTVSPost2010PropOp31
 70
     0
102
RTVSPost2010Prop32
280
     0
102
RTVSPost2010PropOp32
 70
     0
102
RTVSPost2010Prop33
280
     0
102
RTVSPost2010PropOp33
 70
     0
102
RTVSPost2010Prop34
280
     0
102
RTVSPost2010PropOp34
 70
     0
102
RTVSPost2010Prop35
280
     0
102
RTVSPost2010PropOp35
 70
     0
102
RTVSPost2010Prop36
280
     0
102
RTVSPost2010PropOp36
 70
     0
102
RTVSPost2010Prop37
 90
       50
102
RTVSPost2010PropOp37
 70
     0
102
RTVSPost2010Prop38
140
0.0
102
RTVSPost2010PropOp38
 70
     0
102
RTVSPost2010Prop39
140
1.0
102
RTVSPost2010PropOp39
 70
     0
102
RTVSPost2010Prop40
 90
        0
102
RTVSPost2010PropOp40
 70
     0
102
RTVSPost2010Prop41ColorIndex
 90
       18
102
RTVSPost2010Prop41ColorRGB
 90
        0
102
RTVSPost2010PropOp41
 70
     0
102
RTVSPost2010Prop42
 90
       50
102
RTVSPost2010PropOp42
 70
     0
102
RTVSPost2010Prop43
 90
        3
102
RTVSPost2010PropOp43
 70
     0
102
RTVSPost2010Prop44ColorIndex
 90
        5
102
RTVSPost2010Prop44ColorRGB
 90
      255
102
RTVSPost2010PropOp44
 70
     0
102
RTVSPost2010Prop45
280
     0
102
RTVSPost2010PropOp45
 70
     0
102
RTVSPost2010Prop46
 90
       50
102
RTVSPost2010PropOp46
 70
     0
102
RTVSPost2010Prop47
 90
       50
102
RTVSPost2010PropOp47
 70
     0
102
RTVSPost2010Prop48
 90
       50
102
RTVSPost2010PropOp48
 70
     0
102
RTVSPost2010Prop49
280
     0
102
RTVSPost2010PropOp49
 70
     0
102
RTVSPost2010Prop50
 90
       50
102
RTVSPost2010PropOp50
 70
     0
102
RTVSPost2010Prop51ColorIndex
 90
      256
102
RTVSPost2010Prop51ColorRGB
 90
-16777216
102
RTVSPost2010PropOp51
 70
     0
102
RTVSPost2010Prop52
140
1.0
102
RTVSPost2010PropOp52
 70
     0
102
RTVSPost2010Prop53
 90
        2
102
RTVSPost2010PropOp53
 70
     0
102
RTVSPost2010Prop54
  1
strokes_ogs.tif
102
RTVSPost2010PropOp54
 70
     0
102
RTVSPost2010Prop55
280
     0
102
RTVSPost2010PropOp55
 70
     0
102
RTVSPost2010Prop56
140
1.0
102
RTVSPost2010PropOp56
 70
     0
102
RTVSPost2010Prop57
140
1.0
102
RTVSPost2010PropOp57
 70
     0
  0
XRECORD
  5
340
102
{ACAD_REACTORS
330
33F
102
}
330
33F
100
AcDbXrecord
280
     1
102
RTVSPropertyOp0
 70
     1
102
RTVSPropertyOp1
 70
     1
102
RTVSPropertyOp2
 70
     1
102
RTVSPropertyOp3
 70
     1
102
RTVSPropertyOp4
 70
     1
102
RTVSPropertyOp5
 70
     1
102
RTVSPropertyOp6
 70
     1
102
RTVSPropertyOp7
 70
     1
102
RTVSPropertyOp8
 70
     1
102
RTVSPropertyOp9
 70
     1
102
RTVSPropertyOp10
 70
     1
102
RTVSPropertyOp11
 70
     1
102
RTVSPropertyOp12
 70
     1
102
RTVSPropertyOp13
 70
     1
102
RTVSPropertyOp14
 70
     1
102
RTVSPropertyOp15
 70
     1
102
RTVSPropertyOp16
 70
     1
102
RTVSPropertyOp17
 70
     1
102
RTVSPropertyOp18
 70
     1
102
RTVSPropertyOp19
 70
     1
102
RTVSPropertyOp20
 70
     1
102
RTVSPropertyOp21
 70
     1
102
RTVSPropertyOp22
 70
     1
102
RTVSPropertyOp23
 70
     1
102
RTVSPropertyOp24
 70
     1
102
RTVSPropertyOp25
 70
     1
102
RTVSPropertyOp26
 70
     1
102
RTVSPropertyOp27
 70
     1
102
RTVSPropertyOp28
 70
     1
102
RTVSPropertyOp29
 70
     1
102
RTVSPropertyOp30
 70
     1
102
RTVSPropertyOp31
 70
     1
102
RTVSPropertyOp32
 70
     1
102
RTVSPropertyOp33
 70
     1
102
RTVSPropertyOp34
 70
     1
102
RTVSPropertyOp35
 70
     1
102
RTVSPropertyOp36
 70
     1
102
RTVSPropertyOp37
 70
     1
102
RTVSPropertyOp38
 70
     1
102
RTVSPropertyOp39
 70
     1
102
RTVSPropertyOp40
 70
     1
102
RTVSPropertyOp41
 70
     1
102
RTVSPropertyOp42
 70
     1
102
RTVSPropertyOp43
 70
     1
102
RTVSPropertyOp44
 70
     1
102
RTVSPropertyOp45
 70
     1
102
RTVSPropertyOp46
 70
     1
102
RTVSPropertyOp47
 70
     1
102
RTVSPropertyOp48
 70
     1
102
RTVSPropertyOp49
 70
     1
102
RTVSPropertyOp50
 70
     1
102
RTVSPropertyOp51
 70
     0
102
RTVSPropertyOp52
 70
     0
102
RTVSPropertyOp53
 70
     1
102
RTVSPropertyOp54
 70
     1
102
RTVSPropertyOp55
 70
     1
102
RTVSPropertyOp56
 70
     1
102
RTVSPropertyOp57
 70
     1
102
RTVSPost2010Prop28
280
     0
102
RTVSPost2010PropOp28
 70
     1
102
RTVSPost2010Prop29
280
     1
102
RTVSPost2010PropOp29
 70
     1
102
RTVSPost2010Prop30
280
     1
102
RTVSPost2010PropOp30
 70
     1
102
RTVSPost2010Prop31
280
     0
102
RTVSPost2010PropOp31
 70
     1
102
RTVSPost2010Prop32
280
     0
102
RTVSPost2010PropOp32
 70
     1
102
RTVSPost2010Prop33
280
     0
102
RTVSPost2010PropOp33
 70
     1
102
RTVSPost2010Prop34
280
     0
102
RTVSPost2010PropOp34
 70
     1
102
RTVSPost2010Prop35
280
     0
102
RTVSPost2010PropOp35
 70
     1
102
RTVSPost2010Prop36
280
     0
102
RTVSPost2010PropOp36
 70
     1
102
RTVSPost2010Prop37
 90
       50
102
RTVSPost2010PropOp37
 70
     1
102
RTVSPost2010Prop38
140
0.0
102
RTVSPost2010PropOp38
 70
     1
102
RTVSPost2010Prop39
140
1.0
102
RTVSPost2010PropOp39
 70
     1
102
RTVSPost2010Prop40
 90
        0
102
RTVSPost2010PropOp40
 70
     1
102
RTVSPost2010Prop41ColorIndex
 90
       18
102
RTVSPost2010Prop41ColorRGB
 90
        0
102
RTVSPost2010PropOp41
 70
     1
102
RTVSPost2010Prop42
 90
       50
102
RTVSPost2010PropOp42
 70
     1
102
RTVSPost2010Prop43
 90
        3
102
RTVSPost2010PropOp43
 70
     1
102
RTVSPost2010Prop44ColorIndex
 90
        5
102
RTVSPost2010Prop44ColorRGB
 90
      255
102
RTVSPost2010PropOp44
 70
     1
102
RTVSPost2010Prop45
280
     0
102
RTVSPost2010PropOp45
 70
     1
102
RTVSPost2010Prop46
 90
       50
102
RTVSPost2010PropOp46
 70
     1
102
RTVSPost2010Prop47
 90
       50
102
RTVSPost2010PropOp47
 70
     1
102
RTVSPost2010Prop48
 90
       50
102
RTVSPost2010PropOp48
 70
     1
102
RTVSPost2010Prop49
280
     0
102
RTVSPost2010PropOp49
 70
     1
102
RTVSPost2010Prop50
 90
       50
102
RTVSPost2010PropOp50
 70
     1
102
RTVSPost2010Prop51ColorIndex
 90
      256
102
RTVSPost2010Prop51ColorRGB
 90
-16777216
102
RTVSPost2010PropOp51
 70
     0
102
RTVSPost2010Prop52
140
1.0
102
RTVSPost2010PropOp52
 70
     0
102
RTVSPost2010Prop53
 90
        2
102
RTVSPost2010PropOp53
 70
     1
102
RTVSPost2010Prop54
  1
strokes_ogs.tif
102
RTVSPost2010PropOp54
 70
     1
102
RTVSPost2010Prop55
280
     0
102
RTVSPost2010PropOp55
 70
     1
102
RTVSPost2010Prop56
140
1.0
102
RTVSPost2010PropOp56
 70
     1
102
RTVSPost2010Prop57
140
1.0
102
RTVSPost2010PropOp57
 70
     1
  0
XRECORD
  5
348
102
{ACAD_REACTORS
330
347
102
}
330
347
100
AcDbXrecord
280
     1
102
RTVSPropertyOp0
 70
     0
102
RTVSPropertyOp1
 70
     0
102
RTVSPropertyOp2
 70
     0
102
RTVSPropertyOp3
 70
     0
102
RTVSPropertyOp4
 70
     0
102
RTVSPropertyOp5
 70
     0
102
RTVSPropertyOp6
 70
     0
102
RTVSPropertyOp7
 70
     0
102
RTVSPropertyOp8
 70
     0
102
RTVSPropertyOp9
 70
     0
102
RTVSPropertyOp10
 70
     0
102
RTVSPropertyOp11
 70
     0
102
RTVSPropertyOp12
 70
     0
102
RTVSPropertyOp13
 70
     0
102
RTVSPropertyOp14
 70
     2
102
RTVSPropertyOp15
 70
     0
102
RTVSPropertyOp16
 70
     0
102
RTVSPropertyOp17
 70
     0
102
RTVSPropertyOp18
 70
     0
102
RTVSPropertyOp19
 70
     0
102
RTVSPropertyOp20
 70
     0
102
RTVSPropertyOp21
 70
     0
102
RTVSPropertyOp22
 70
     0
102
RTVSPropertyOp23
 70
     0
102
RTVSPropertyOp24
 70
     0
102
RTVSPropertyOp25
 70
     0
102
RTVSPropertyOp26
 70
     0
102
RTVSPropertyOp27
 70
     0
102
RTVSPropertyOp28
 70
     0
102
RTVSPropertyOp29
 70
     0
102
RTVSPropertyOp30
 70
     0
102
RTVSPropertyOp31
 70
     0
102
RTVSPropertyOp32
 70
     0
102
RTVSPropertyOp33
 70
     0
102
RTVSPropertyOp34
 70
     0
102
RTVSPropertyOp35
 70
     0
102
RTVSPropertyOp36
 70
     0
102
RTVSPropertyOp37
 70
     0
102
RTVSPropertyOp38
 70
     0
102
RTVSPropertyOp39
 70
     0
102
RTVSPropertyOp40
 70
     0
102
RTVSPropertyOp41
 70
     0
102
RTVSPropertyOp42
 70
     0
102
RTVSPropertyOp43
 70
     0
102
RTVSPropertyOp44
 70
     0
102
RTVSPropertyOp45
 70
     0
102
RTVSPropertyOp46
 70
     0
102
RTVSPropertyOp47
 70
     0
102
RTVSPropertyOp48
 70
     0
102
RTVSPropertyOp49
 70
     0
102
RTVSPropertyOp50
 70
     0
102
RTVSPropertyOp51
 70
     0
102
RTVSPropertyOp52
 70
     0
102
RTVSPropertyOp53
 70
     0
102
RTVSPropertyOp54
 70
     0
102
RTVSPropertyOp55
 70
     0
102
RTVSPropertyOp56
 70
     0
102
RTVSPropertyOp57
 70
     0
102
RTVSPost2010Prop28
280
     0
102
RTVSPost2010PropOp28
 70
     0
102
RTVSPost2010Prop29
280
     1
102
RTVSPost2010PropOp29
 70
     0
102
RTVSPost2010Prop30
280
     1
102
RTVSPost2010PropOp30
 70
     0
102
RTVSPost2010Prop31
280
     0
102
RTVSPost2010PropOp31
 70
     0
102
RTVSPost2010Prop32
280
     0
102
RTVSPost2010PropOp32
 70
     0
102
RTVSPost2010Prop33
280
     0
102
RTVSPost2010PropOp33
 70
     0
102
RTVSPost2010Prop34
280
     0
102
RTVSPost2010PropOp34
 70
     0
102
RTVSPost2010Prop35
280
     0
102
RTVSPost2010PropOp35
 70
     0
102
RTVSPost2010Prop36
280
     0
102
RTVSPost2010PropOp36
 70
     0
102
RTVSPost2010Prop37
 90
       50
102
RTVSPost2010PropOp37
 70
     0
102
RTVSPost2010Prop38
140
0.0
102
RTVSPost2010PropOp38
 70
     0
102
RTVSPost2010Prop39
140
1.0
102
RTVSPost2010PropOp39
 70
     0
102
RTVSPost2010Prop40
 90
        0
102
RTVSPost2010PropOp40
 70
     0
102
RTVSPost2010Prop41ColorIndex
 90
       18
102
RTVSPost2010Prop41ColorRGB
 90
        0
102
RTVSPost2010PropOp41
 70
     0
102
RTVSPost2010Prop42
 90
       50
102
RTVSPost2010PropOp42
 70
     0
102
RTVSPost2010Prop43
 90
        3
102
RTVSPost2010PropOp43
 70
     0
102
RTVSPost2010Prop44ColorIndex
 90
        5
102
RTVSPost2010Prop44ColorRGB
 90
      255
102
RTVSPost2010PropOp44
 70
     0
102
RTVSPost2010Prop45
280
     0
102
RTVSPost2010PropOp45
 70
     0
102
RTVSPost2010Prop46
 90
       50
102
RTVSPost2010PropOp46
 70
     0
102
RTVSPost2010Prop47
 90
       50
102
RTVSPost2010PropOp47
 70
     0
102
RTVSPost2010Prop48
 90
       50
102
RTVSPost2010PropOp48
 70
     0
102
RTVSPost2010Prop49
280
     0
102
RTVSPost2010PropOp49
 70
     0
102
RTVSPost2010Prop50
 90
       50
102
RTVSPost2010PropOp50
 70
     0
102
RTVSPost2010Prop51ColorIndex
 90
      256
102
RTVSPost2010Prop51ColorRGB
 90
-16777216
102
RTVSPost2010PropOp51
 70
     0
102
RTVSPost2010Prop52
140
1.0
102
RTVSPost2010PropOp52
 70
     0
102
RTVSPost2010Prop53
 90
        2
102
RTVSPost2010PropOp53
 70
     0
102
RTVSPost2010Prop54
  1
strokes_ogs.tif
102
RTVSPost2010PropOp54
 70
     0
102
RTVSPost2010Prop55
280
     0
102
RTVSPost2010PropOp55
 70
     0
102
RTVSPost2010Prop56
140
1.0
102
RTVSPost2010PropOp56
 70
     0
102
RTVSPost2010Prop57
140
1.0
102
RTVSPost2010PropOp57
 70
     0
  0
XRECORD
  5
336
102
{ACAD_REACTORS
330
335
102
}
330
335
100
AcDbXrecord
280
     1
102
RTVSPropertyOp0
 70
     1
102
RTVSPropertyOp1
 70
     1
102
RTVSPropertyOp2
 70
     1
102
RTVSPropertyOp3
 70
     1
102
RTVSPropertyOp4
 70
     1
102
RTVSPropertyOp5
 70
     1
102
RTVSPropertyOp6
 70
     1
102
RTVSPropertyOp7
 70
     1
102
RTVSPropertyOp8
 70
     1
102
RTVSPropertyOp9
 70
     1
102
RTVSPropertyOp10
 70
     1
102
RTVSPropertyOp11
 70
     1
102
RTVSPropertyOp12
 70
     1
102
RTVSPropertyOp13
 70
     1
102
RTVSPropertyOp14
 70
     1
102
RTVSPropertyOp15
 70
     1
102
RTVSPropertyOp16
 70
     1
102
RTVSPropertyOp17
 70
     1
102
RTVSPropertyOp18
 70
     1
102
RTVSPropertyOp19
 70
     1
102
RTVSPropertyOp20
 70
     1
102
RTVSPropertyOp21
 70
     1
102
RTVSPropertyOp22
 70
     1
102
RTVSPropertyOp23
 70
     1
102
RTVSPropertyOp24
 70
     1
102
RTVSPropertyOp25
 70
     1
102
RTVSPropertyOp26
 70
     1
102
RTVSPropertyOp27
 70
     1
102
RTVSPropertyOp28
 70
     1
102
RTVSPropertyOp29
 70
     1
102
RTVSPropertyOp30
 70
     1
102
RTVSPropertyOp31
 70
     1
102
RTVSPropertyOp32
 70
     1
102
RTVSPropertyOp33
 70
     1
102
RTVSPropertyOp34
 70
     1
102
RTVSPropertyOp35
 70
     1
102
RTVSPropertyOp36
 70
     1
102
RTVSPropertyOp37
 70
     1
102
RTVSPropertyOp38
 70
     1
102
RTVSPropertyOp39
 70
     1
102
RTVSPropertyOp40
 70
     1
102
RTVSPropertyOp41
 70
     1
102
RTVSPropertyOp42
 70
     1
102
RTVSPropertyOp43
 70
     1
102
RTVSPropertyOp44
 70
     1
102
RTVSPropertyOp45
 70
     1
102
RTVSPropertyOp46
 70
     1
102
RTVSPropertyOp47
 70
     1
102
RTVSPropertyOp48
 70
     1
102
RTVSPropertyOp49
 70
     1
102
RTVSPropertyOp50
 70
     1
102
RTVSPropertyOp51
 70
     0
102
RTVSPropertyOp52
 70
     0
102
RTVSPropertyOp53
 70
     1
102
RTVSPropertyOp54
 70
     1
102
RTVSPropertyOp55
 70
     1
102
RTVSPropertyOp56
 70
     1
102
RTVSPropertyOp57
 70
     1
102
RTVSPost2010Prop28
280
     0
102
RTVSPost2010PropOp28
 70
     1
102
RTVSPost2010Prop29
280
     1
102
RTVSPost2010PropOp29
 70
     1
102
RTVSPost2010Prop30
280
     1
102
RTVSPost2010PropOp30
 70
     1
102
RTVSPost2010Prop31
280
     0
102
RTVSPost2010PropOp31
 70
     1
102
RTVSPost2010Prop32
280
     0
102
RTVSPost2010PropOp32
 70
     1
102
RTVSPost2010Prop33
280
     0
102
RTVSPost2010PropOp33
 70
     1
102
RTVSPost2010Prop34
280
     0
102
RTVSPost2010PropOp34
 70
     1
102
RTVSPost2010Prop35
280
     0
102
RTVSPost2010PropOp35
 70
     1
102
RTVSPost2010Prop36
280
     0
102
RTVSPost2010PropOp36
 70
     1
102
RTVSPost2010Prop37
 90
       50
102
RTVSPost2010PropOp37
 70
     1
102
RTVSPost2010Prop38
140
0.0
102
RTVSPost2010PropOp38
 70
     1
102
RTVSPost2010Prop39
140
1.0
102
RTVSPost2010PropOp39
 70
     1
102
RTVSPost2010Prop40
 90
        0
102
RTVSPost2010PropOp40
 70
     1
102
RTVSPost2010Prop41ColorIndex
 90
       18
102
RTVSPost2010Prop41ColorRGB
 90
        0
102
RTVSPost2010PropOp41
 70
     1
102
RTVSPost2010Prop42
 90
       50
102
RTVSPost2010PropOp42
 70
     1
102
RTVSPost2010Prop43
 90
        3
102
RTVSPost2010PropOp43
 70
     1
102
RTVSPost2010Prop44ColorIndex
 90
        5
102
RTVSPost2010Prop44ColorRGB
 90
      255
102
RTVSPost2010PropOp44
 70
     1
102
RTVSPost2010Prop45
280
     0
102
RTVSPost2010PropOp45
 70
     1
102
RTVSPost2010Prop46
 90
       50
102
RTVSPost2010PropOp46
 70
     1
102
RTVSPost2010Prop47
 90
       50
102
RTVSPost2010PropOp47
 70
     1
102
RTVSPost2010Prop48
 90
       50
102
RTVSPost2010PropOp48
 70
     1
102
RTVSPost2010Prop49
280
     0
102
RTVSPost2010PropOp49
 70
     1
102
RTVSPost2010Prop50
 90
       50
102
RTVSPost2010PropOp50
 70
     1
102
RTVSPost2010Prop51ColorIndex
 90
      256
102
RTVSPost2010Prop51ColorRGB
 90
-16777216
102
RTVSPost2010PropOp51
 70
     0
102
RTVSPost2010Prop52
140
1.0
102
RTVSPost2010PropOp52
 70
     0
102
RTVSPost2010Prop53
 90
        2
102
RTVSPost2010PropOp53
 70
     1
102
RTVSPost2010Prop54
  1
strokes_ogs.tif
102
RTVSPost2010PropOp54
 70
     1
102
RTVSPost2010Prop55
280
     0
102
RTVSPost2010PropOp55
 70
     1
102
RTVSPost2010Prop56
140
1.0
102
RTVSPost2010PropOp56
 70
     1
102
RTVSPost2010Prop57
140
1.0
102
RTVSPost2010PropOp57
 70
     1
  0
XRECORD
  5
354
102
{ACAD_REACTORS
330
353
102
}
330
353
100
AcDbXrecord
280
     1
102
RTVSPropertyOp0
 70
     1
102
RTVSPropertyOp1
 70
     1
102
RTVSPropertyOp2
 70
     1
102
RTVSPropertyOp3
 70
     1
102
RTVSPropertyOp4
 70
     1
102
RTVSPropertyOp5
 70
     1
102
RTVSPropertyOp6
 70
     1
102
RTVSPropertyOp7
 70
     1
102
RTVSPropertyOp8
 70
     1
102
RTVSPropertyOp9
 70
     1
102
RTVSPropertyOp10
 70
     1
102
RTVSPropertyOp11
 70
     1
102
RTVSPropertyOp12
 70
     1
102
RTVSPropertyOp13
 70
     1
102
RTVSPropertyOp14
 70
     1
102
RTVSPropertyOp15
 70
     1
102
RTVSPropertyOp16
 70
     1
102
RTVSPropertyOp17
 70
     1
102
RTVSPropertyOp18
 70
     1
102
RTVSPropertyOp19
 70
     1
102
RTVSPropertyOp20
 70
     1
102
RTVSPropertyOp21
 70
     1
102
RTVSPropertyOp22
 70
     1
102
RTVSPropertyOp23
 70
     1
102
RTVSPropertyOp24
 70
     1
102
RTVSPropertyOp25
 70
     1
102
RTVSPropertyOp26
 70
     1
102
RTVSPropertyOp27
 70
     1
102
RTVSPropertyOp28
 70
     1
102
RTVSPropertyOp29
 70
     1
102
RTVSPropertyOp30
 70
     1
102
RTVSPropertyOp31
 70
     1
102
RTVSPropertyOp32
 70
     1
102
RTVSPropertyOp33
 70
     1
102
RTVSPropertyOp34
 70
     1
102
RTVSPropertyOp35
 70
     1
102
RTVSPropertyOp36
 70
     1
102
RTVSPropertyOp37
 70
     1
102
RTVSPropertyOp38
 70
     1
102
RTVSPropertyOp39
 70
     1
102
RTVSPropertyOp40
 70
     1
102
RTVSPropertyOp41
 70
     1
102
RTVSPropertyOp42
 70
     1
102
RTVSPropertyOp43
 70
     1
102
RTVSPropertyOp44
 70
     1
102
RTVSPropertyOp45
 70
     1
102
RTVSPropertyOp46
 70
     1
102
RTVSPropertyOp47
 70
     1
102
RTVSPropertyOp48
 70
     1
102
RTVSPropertyOp49
 70
     1
102
RTVSPropertyOp50
 70
     1
102
RTVSPropertyOp51
 70
     0
102
RTVSPropertyOp52
 70
     0
102
RTVSPropertyOp53
 70
     1
102
RTVSPropertyOp54
 70
     1
102
RTVSPropertyOp55
 70
     1
102
RTVSPropertyOp56
 70
     1
102
RTVSPropertyOp57
 70
     1
102
RTVSPost2010Prop28
280
     0
102
RTVSPost2010PropOp28
 70
     1
102
RTVSPost2010Prop29
280
     1
102
RTVSPost2010PropOp29
 70
     1
102
RTVSPost2010Prop30
280
     1
102
RTVSPost2010PropOp30
 70
     1
102
RTVSPost2010Prop31
280
     0
102
RTVSPost2010PropOp31
 70
     1
102
RTVSPost2010Prop32
280
     0
102
RTVSPost2010PropOp32
 70
     1
102
RTVSPost2010Prop33
280
     0
102
RTVSPost2010PropOp33
 70
     1
102
RTVSPost2010Prop34
280
     0
102
RTVSPost2010PropOp34
 70
     1
102
RTVSPost2010Prop35
280
     0
102
RTVSPost2010PropOp35
 70
     1
102
RTVSPost2010Prop36
280
     0
102
RTVSPost2010PropOp36
 70
     1
102
RTVSPost2010Prop37
 90
       50
102
RTVSPost2010PropOp37
 70
     1
102
RTVSPost2010Prop38
140
0.0
102
RTVSPost2010PropOp38
 70
     1
102
RTVSPost2010Prop39
140
1.0
102
RTVSPost2010PropOp39
 70
     1
102
RTVSPost2010Prop40
 90
        0
102
RTVSPost2010PropOp40
 70
     1
102
RTVSPost2010Prop41ColorIndex
 90
       18
102
RTVSPost2010Prop41ColorRGB
 90
        0
102
RTVSPost2010PropOp41
 70
     1
102
RTVSPost2010Prop42
 90
       50
102
RTVSPost2010PropOp42
 70
     1
102
RTVSPost2010Prop43
 90
        3
102
RTVSPost2010PropOp43
 70
     1
102
RTVSPost2010Prop44ColorIndex
 90
        5
102
RTVSPost2010Prop44ColorRGB
 90
      255
102
RTVSPost2010PropOp44
 70
     1
102
RTVSPost2010Prop45
280
     0
102
RTVSPost2010PropOp45
 70
     1
102
RTVSPost2010Prop46
 90
       50
102
RTVSPost2010PropOp46
 70
     1
102
RTVSPost2010Prop47
 90
       50
102
RTVSPost2010PropOp47
 70
     1
102
RTVSPost2010Prop48
 90
       50
102
RTVSPost2010PropOp48
 70
     1
102
RTVSPost2010Prop49
280
     0
102
RTVSPost2010PropOp49
 70
     1
102
RTVSPost2010Prop50
 90
       50
102
RTVSPost2010PropOp50
 70
     1
102
RTVSPost2010Prop51ColorIndex
 90
      256
102
RTVSPost2010Prop51ColorRGB
 90
-16777216
102
RTVSPost2010PropOp51
 70
     0
102
RTVSPost2010Prop52
140
1.0
102
RTVSPost2010PropOp52
 70
     0
102
RTVSPost2010Prop53
 90
        2
102
RTVSPost2010PropOp53
 70
     1
102
RTVSPost2010Prop54
  1
strokes_ogs.tif
102
RTVSPost2010PropOp54
 70
     1
102
RTVSPost2010Prop55
280
     0
102
RTVSPost2010PropOp55
 70
     1
102
RTVSPost2010Prop56
140
1.0
102
RTVSPost2010PropOp56
 70
     1
102
RTVSPost2010Prop57
140
1.0
102
RTVSPost2010PropOp57
 70
     1
  0
XRECORD
  5
352
102
{ACAD_REACTORS
330
351
102
}
330
351
100
AcDbXrecord
280
     1
102
RTVSPropertyOp0
 70
     1
102
RTVSPropertyOp1
 70
     1
102
RTVSPropertyOp2
 70
     1
102
RTVSPropertyOp3
 70
     1
102
RTVSPropertyOp4
 70
     1
102
RTVSPropertyOp5
 70
     1
102
RTVSPropertyOp6
 70
     1
102
RTVSPropertyOp7
 70
     1
102
RTVSPropertyOp8
 70
     1
102
RTVSPropertyOp9
 70
     1
102
RTVSPropertyOp10
 70
     1
102
RTVSPropertyOp11
 70
     1
102
RTVSPropertyOp12
 70
     1
102
RTVSPropertyOp13
 70
     1
102
RTVSPropertyOp14
 70
     1
102
RTVSPropertyOp15
 70
     1
102
RTVSPropertyOp16
 70
     1
102
RTVSPropertyOp17
 70
     1
102
RTVSPropertyOp18
 70
     1
102
RTVSPropertyOp19
 70
     1
102
RTVSPropertyOp20
 70
     1
102
RTVSPropertyOp21
 70
     1
102
RTVSPropertyOp22
 70
     1
102
RTVSPropertyOp23
 70
     1
102
RTVSPropertyOp24
 70
     1
102
RTVSPropertyOp25
 70
     1
102
RTVSPropertyOp26
 70
     1
102
RTVSPropertyOp27
 70
     1
102
RTVSPropertyOp28
 70
     1
102
RTVSPropertyOp29
 70
     1
102
RTVSPropertyOp30
 70
     1
102
RTVSPropertyOp31
 70
     1
102
RTVSPropertyOp32
 70
     1
102
RTVSPropertyOp33
 70
     1
102
RTVSPropertyOp34
 70
     1
102
RTVSPropertyOp35
 70
     1
102
RTVSPropertyOp36
 70
     1
102
RTVSPropertyOp37
 70
     1
102
RTVSPropertyOp38
 70
     1
102
RTVSPropertyOp39
 70
     1
102
RTVSPropertyOp40
 70
     1
102
RTVSPropertyOp41
 70
     1
102
RTVSPropertyOp42
 70
     1
102
RTVSPropertyOp43
 70
     1
102
RTVSPropertyOp44
 70
     1
102
RTVSPropertyOp45
 70
     1
102
RTVSPropertyOp46
 70
     1
102
RTVSPropertyOp47
 70
     1
102
RTVSPropertyOp48
 70
     1
102
RTVSPropertyOp49
 70
     1
102
RTVSPropertyOp50
 70
     1
102
RTVSPropertyOp51
 70
     0
102
RTVSPropertyOp52
 70
     0
102
RTVSPropertyOp53
 70
     1
102
RTVSPropertyOp54
 70
     1
102
RTVSPropertyOp55
 70
     1
102
RTVSPropertyOp56
 70
     1
102
RTVSPropertyOp57
 70
     1
102
RTVSPost2010Prop28
280
     0
102
RTVSPost2010PropOp28
 70
     1
102
RTVSPost2010Prop29
280
     1
102
RTVSPost2010PropOp29
 70
     1
102
RTVSPost2010Prop30
280
     1
102
RTVSPost2010PropOp30
 70
     1
102
RTVSPost2010Prop31
280
     0
102
RTVSPost2010PropOp31
 70
     1
102
RTVSPost2010Prop32
280
     0
102
RTVSPost2010PropOp32
 70
     1
102
RTVSPost2010Prop33
280
     0
102
RTVSPost2010PropOp33
 70
     1
102
RTVSPost2010Prop34
280
     0
102
RTVSPost2010PropOp34
 70
     1
102
RTVSPost2010Prop35
280
     0
102
RTVSPost2010PropOp35
 70
     1
102
RTVSPost2010Prop36
280
     0
102
RTVSPost2010PropOp36
 70
     1
102
RTVSPost2010Prop37
 90
       50
102
RTVSPost2010PropOp37
 70
     1
102
RTVSPost2010Prop38
140
0.0
102
RTVSPost2010PropOp38
 70
     1
102
RTVSPost2010Prop39
140
1.0
102
RTVSPost2010PropOp39
 70
     1
102
RTVSPost2010Prop40
 90
        0
102
RTVSPost2010PropOp40
 70
     1
102
RTVSPost2010Prop41ColorIndex
 90
       18
102
RTVSPost2010Prop41ColorRGB
 90
        0
102
RTVSPost2010PropOp41
 70
     1
102
RTVSPost2010Prop42
 90
       50
102
RTVSPost2010PropOp42
 70
     1
102
RTVSPost2010Prop43
 90
        3
102
RTVSPost2010PropOp43
 70
     1
102
RTVSPost2010Prop44ColorIndex
 90
        5
102
RTVSPost2010Prop44ColorRGB
 90
      255
102
RTVSPost2010PropOp44
 70
     1
102
RTVSPost2010Prop45
280
     0
102
RTVSPost2010PropOp45
 70
     1
102
RTVSPost2010Prop46
 90
       50
102
RTVSPost2010PropOp46
 70
     1
102
RTVSPost2010Prop47
 90
       50
102
RTVSPost2010PropOp47
 70
     1
102
RTVSPost2010Prop48
 90
       50
102
RTVSPost2010PropOp48
 70
     1
102
RTVSPost2010Prop49
280
     0
102
RTVSPost2010PropOp49
 70
     1
102
RTVSPost2010Prop50
 90
       50
102
RTVSPost2010PropOp50
 70
     1
102
RTVSPost2010Prop51ColorIndex
 90
      256
102
RTVSPost2010Prop51ColorRGB
 90
-16777216
102
RTVSPost2010PropOp51
 70
     0
102
RTVSPost2010Prop52
140
1.0
102
RTVSPost2010PropOp52
 70
     0
102
RTVSPost2010Prop53
 90
        2
102
RTVSPost2010PropOp53
 70
     1
102
RTVSPost2010Prop54
  1
strokes_ogs.tif
102
RTVSPost2010PropOp54
 70
     1
102
RTVSPost2010Prop55
280
     0
102
RTVSPost2010PropOp55
 70
     1
102
RTVSPost2010Prop56
140
1.0
102
RTVSPost2010PropOp56
 70
     1
102
RTVSPost2010Prop57
140
1.0
102
RTVSPost2010PropOp57
 70
     1
  0
XRECORD
  5
34C
102
{ACAD_REACTORS
330
34B
102
}
330
34B
100
AcDbXrecord
280
     1
102
RTVSPropertyOp0
 70
     1
102
RTVSPropertyOp1
 70
     1
102
RTVSPropertyOp2
 70
     1
102
RTVSPropertyOp3
 70
     1
102
RTVSPropertyOp4
 70
     1
102
RTVSPropertyOp5
 70
     1
102
RTVSPropertyOp6
 70
     1
102
RTVSPropertyOp7
 70
     1
102
RTVSPropertyOp8
 70
     1
102
RTVSPropertyOp9
 70
     1
102
RTVSPropertyOp10
 70
     1
102
RTVSPropertyOp11
 70
     1
102
RTVSPropertyOp12
 70
     1
102
RTVSPropertyOp13
 70
     1
102
RTVSPropertyOp14
 70
     1
102
RTVSPropertyOp15
 70
     1
102
RTVSPropertyOp16
 70
     1
102
RTVSPropertyOp17
 70
     1
102
RTVSPropertyOp18
 70
     1
102
RTVSPropertyOp19
 70
     1
102
RTVSPropertyOp20
 70
     1
102
RTVSPropertyOp21
 70
     1
102
RTVSPropertyOp22
 70
     1
102
RTVSPropertyOp23
 70
     1
102
RTVSPropertyOp24
 70
     1
102
RTVSPropertyOp25
 70
     1
102
RTVSPropertyOp26
 70
     1
102
RTVSPropertyOp27
 70
     1
102
RTVSPropertyOp28
 70
     1
102
RTVSPropertyOp29
 70
     1
102
RTVSPropertyOp30
 70
     1
102
RTVSPropertyOp31
 70
     1
102
RTVSPropertyOp32
 70
     1
102
RTVSPropertyOp33
 70
     1
102
RTVSPropertyOp34
 70
     1
102
RTVSPropertyOp35
 70
     1
102
RTVSPropertyOp36
 70
     1
102
RTVSPropertyOp37
 70
     1
102
RTVSPropertyOp38
 70
     1
102
RTVSPropertyOp39
 70
     1
102
RTVSPropertyOp40
 70
     1
102
RTVSPropertyOp41
 70
     1
102
RTVSPropertyOp42
 70
     1
102
RTVSPropertyOp43
 70
     1
102
RTVSPropertyOp44
 70
     1
102
RTVSPropertyOp45
 70
     1
102
RTVSPropertyOp46
 70
     1
102
RTVSPropertyOp47
 70
     1
102
RTVSPropertyOp48
 70
     1
102
RTVSPropertyOp49
 70
     1
102
RTVSPropertyOp50
 70
     1
102
RTVSPropertyOp51
 70
     0
102
RTVSPropertyOp52
 70
     0
102
RTVSPropertyOp53
 70
     1
102
RTVSPropertyOp54
 70
     1
102
RTVSPropertyOp55
 70
     1
102
RTVSPropertyOp56
 70
     1
102
RTVSPropertyOp57
 70
     1
102
RTVSPost2010Prop28
280
     0
102
RTVSPost2010PropOp28
 70
     1
102
RTVSPost2010Prop29
280
     1
102
RTVSPost2010PropOp29
 70
     1
102
RTVSPost2010Prop30
280
     1
102
RTVSPost2010PropOp30
 70
     1
102
RTVSPost2010Prop31
280
     0
102
RTVSPost2010PropOp31
 70
     1
102
RTVSPost2010Prop32
280
     0
102
RTVSPost2010PropOp32
 70
     1
102
RTVSPost2010Prop33
280
     0
102
RTVSPost2010PropOp33
 70
     1
102
RTVSPost2010Prop34
280
     0
102
RTVSPost2010PropOp34
 70
     1
102
RTVSPost2010Prop35
280
     0
102
RTVSPost2010PropOp35
 70
     1
102
RTVSPost2010Prop36
280
     0
102
RTVSPost2010PropOp36
 70
     1
102
RTVSPost2010Prop37
 90
       50
102
RTVSPost2010PropOp37
 70
     1
102
RTVSPost2010Prop38
140
0.0
102
RTVSPost2010PropOp38
 70
     1
102
RTVSPost2010Prop39
140
1.0
102
RTVSPost2010PropOp39
 70
     1
102
RTVSPost2010Prop40
 90
        0
102
RTVSPost2010PropOp40
 70
     1
102
RTVSPost2010Prop41ColorIndex
 90
       18
102
RTVSPost2010Prop41ColorRGB
 90
        0
102
RTVSPost2010PropOp41
 70
     1
102
RTVSPost2010Prop42
 90
       50
102
RTVSPost2010PropOp42
 70
     1
102
RTVSPost2010Prop43
 90
        3
102
RTVSPost2010PropOp43
 70
     1
102
RTVSPost2010Prop44ColorIndex
 90
        5
102
RTVSPost2010Prop44ColorRGB
 90
      255
102
RTVSPost2010PropOp44
 70
     1
102
RTVSPost2010Prop45
280
     0
102
RTVSPost2010PropOp45
 70
     1
102
RTVSPost2010Prop46
 90
       50
102
RTVSPost2010PropOp46
 70
     1
102
RTVSPost2010Prop47
 90
       50
102
RTVSPost2010PropOp47
 70
     1
102
RTVSPost2010Prop48
 90
       50
102
RTVSPost2010PropOp48
 70
     1
102
RTVSPost2010Prop49
280
     0
102
RTVSPost2010PropOp49
 70
     1
102
RTVSPost2010Prop50
 90
       50
102
RTVSPost2010PropOp50
 70
     1
102
RTVSPost2010Prop51ColorIndex
 90
      256
102
RTVSPost2010Prop51ColorRGB
 90
-16777216
102
RTVSPost2010PropOp51
 70
     0
102
RTVSPost2010Prop52
140
1.0
102
RTVSPost2010PropOp52
 70
     0
102
RTVSPost2010Prop53
 90
        2
102
RTVSPost2010PropOp53
 70
     1
102
RTVSPost2010Prop54
  1
strokes_ogs.tif
102
RTVSPost2010PropOp54
 70
     1
102
RTVSPost2010Prop55
280
     0
102
RTVSPost2010PropOp55
 70
     1
102
RTVSPost2010Prop56
140
1.0
102
RTVSPost2010PropOp56
 70
     1
102
RTVSPost2010Prop57
140
1.0
102
RTVSPost2010PropOp57
 70
     1
  0
XRECORD
  5
34E
102
{ACAD_REACTORS
330
34D
102
}
330
34D
100
AcDbXrecord
280
     1
102
RTVSPropertyOp0
 70
     1
102
RTVSPropertyOp1
 70
     1
102
RTVSPropertyOp2
 70
     1
102
RTVSPropertyOp3
 70
     1
102
RTVSPropertyOp4
 70
     1
102
RTVSPropertyOp5
 70
     1
102
RTVSPropertyOp6
 70
     1
102
RTVSPropertyOp7
 70
     1
102
RTVSPropertyOp8
 70
     1
102
RTVSPropertyOp9
 70
     1
102
RTVSPropertyOp10
 70
     1
102
RTVSPropertyOp11
 70
     1
102
RTVSPropertyOp12
 70
     1
102
RTVSPropertyOp13
 70
     1
102
RTVSPropertyOp14
 70
     1
102
RTVSPropertyOp15
 70
     1
102
RTVSPropertyOp16
 70
     1
102
RTVSPropertyOp17
 70
     1
102
RTVSPropertyOp18
 70
     1
102
RTVSPropertyOp19
 70
     1
102
RTVSPropertyOp20
 70
     1
102
RTVSPropertyOp21
 70
     1
102
RTVSPropertyOp22
 70
     1
102
RTVSPropertyOp23
 70
     1
102
RTVSPropertyOp24
 70
     1
102
RTVSPropertyOp25
 70
     1
102
RTVSPropertyOp26
 70
     1
102
RTVSPropertyOp27
 70
     1
102
RTVSPropertyOp28
 70
     1
102
RTVSPropertyOp29
 70
     1
102
RTVSPropertyOp30
 70
     1
102
RTVSPropertyOp31
 70
     1
102
RTVSPropertyOp32
 70
     1
102
RTVSPropertyOp33
 70
     1
102
RTVSPropertyOp34
 70
     1
102
RTVSPropertyOp35
 70
     1
102
RTVSPropertyOp36
 70
     1
102
RTVSPropertyOp37
 70
     1
102
RTVSPropertyOp38
 70
     1
102
RTVSPropertyOp39
 70
     1
102
RTVSPropertyOp40
 70
     1
102
RTVSPropertyOp41
 70
     1
102
RTVSPropertyOp42
 70
     1
102
RTVSPropertyOp43
 70
     1
102
RTVSPropertyOp44
 70
     1
102
RTVSPropertyOp45
 70
     1
102
RTVSPropertyOp46
 70
     1
102
RTVSPropertyOp47
 70
     1
102
RTVSPropertyOp48
 70
     1
102
RTVSPropertyOp49
 70
     1
102
RTVSPropertyOp50
 70
     1
102
RTVSPropertyOp51
 70
     0
102
RTVSPropertyOp52
 70
     0
102
RTVSPropertyOp53
 70
     1
102
RTVSPropertyOp54
 70
     1
102
RTVSPropertyOp55
 70
     1
102
RTVSPropertyOp56
 70
     1
102
RTVSPropertyOp57
 70
     1
102
RTVSPost2010Prop28
280
     0
102
RTVSPost2010PropOp28
 70
     1
102
RTVSPost2010Prop29
280
     1
102
RTVSPost2010PropOp29
 70
     1
102
RTVSPost2010Prop30
280
     1
102
RTVSPost2010PropOp30
 70
     1
102
RTVSPost2010Prop31
280
     0
102
RTVSPost2010PropOp31
 70
     1
102
RTVSPost2010Prop32
280
     0
102
RTVSPost2010PropOp32
 70
     1
102
RTVSPost2010Prop33
280
     0
102
RTVSPost2010PropOp33
 70
     1
102
RTVSPost2010Prop34
280
     0
102
RTVSPost2010PropOp34
 70
     1
102
RTVSPost2010Prop35
280
     0
102
RTVSPost2010PropOp35
 70
     1
102
RTVSPost2010Prop36
280
     0
102
RTVSPost2010PropOp36
 70
     1
102
RTVSPost2010Prop37
 90
       50
102
RTVSPost2010PropOp37
 70
     1
102
RTVSPost2010Prop38
140
0.0
102
RTVSPost2010PropOp38
 70
     1
102
RTVSPost2010Prop39
140
1.0
102
RTVSPost2010PropOp39
 70
     1
102
RTVSPost2010Prop40
 90
        0
102
RTVSPost2010PropOp40
 70
     1
102
RTVSPost2010Prop41ColorIndex
 90
       18
102
RTVSPost2010Prop41ColorRGB
 90
        0
102
RTVSPost2010PropOp41
 70
     1
102
RTVSPost2010Prop42
 90
       50
102
RTVSPost2010PropOp42
 70
     1
102
RTVSPost2010Prop43
 90
        3
102
RTVSPost2010PropOp43
 70
     1
102
RTVSPost2010Prop44ColorIndex
 90
        5
102
RTVSPost2010Prop44ColorRGB
 90
      255
102
RTVSPost2010PropOp44
 70
     1
102
RTVSPost2010Prop45
280
     0
102
RTVSPost2010PropOp45
 70
     1
102
RTVSPost2010Prop46
 90
       50
102
RTVSPost2010PropOp46
 70
     1
102
RTVSPost2010Prop47
 90
       50
102
RTVSPost2010PropOp47
 70
     1
102
RTVSPost2010Prop48
 90
       50
102
RTVSPost2010PropOp48
 70
     1
102
RTVSPost2010Prop49
280
     0
102
RTVSPost2010PropOp49
 70
     1
102
RTVSPost2010Prop50
 90
       50
102
RTVSPost2010PropOp50
 70
     1
102
RTVSPost2010Prop51ColorIndex
 90
      256
102
RTVSPost2010Prop51ColorRGB
 90
-16777216
102
RTVSPost2010PropOp51
 70
     0
102
RTVSPost2010Prop52
140
1.0
102
RTVSPost2010PropOp52
 70
     0
102
RTVSPost2010Prop53
 90
        2
102
RTVSPost2010PropOp53
 70
     1
102
RTVSPost2010Prop54
  1
strokes_ogs.tif
102
RTVSPost2010PropOp54
 70
     1
102
RTVSPost2010Prop55
280
     0
102
RTVSPost2010PropOp55
 70
     1
102
RTVSPost2010Prop56
140
1.0
102
RTVSPost2010PropOp56
 70
     1
102
RTVSPost2010Prop57
140
1.0
102
RTVSPost2010PropOp57
 70
     1
  0
XRECORD
  5
33E
102
{ACAD_REACTORS
330
33D
102
}
330
33D
100
AcDbXrecord
280
     1
102
RTVSPropertyOp0
 70
     1
102
RTVSPropertyOp1
 70
     1
102
RTVSPropertyOp2
 70
     1
102
RTVSPropertyOp3
 70
     1
102
RTVSPropertyOp4
 70
     1
102
RTVSPropertyOp5
 70
     1
102
RTVSPropertyOp6
 70
     1
102
RTVSPropertyOp7
 70
     1
102
RTVSPropertyOp8
 70
     1
102
RTVSPropertyOp9
 70
     1
102
RTVSPropertyOp10
 70
     1
102
RTVSPropertyOp11
 70
     1
102
RTVSPropertyOp12
 70
     1
102
RTVSPropertyOp13
 70
     1
102
RTVSPropertyOp14
 70
     1
102
RTVSPropertyOp15
 70
     1
102
RTVSPropertyOp16
 70
     1
102
RTVSPropertyOp17
 70
     1
102
RTVSPropertyOp18
 70
     1
102
RTVSPropertyOp19
 70
     1
102
RTVSPropertyOp20
 70
     1
102
RTVSPropertyOp21
 70
     1
102
RTVSPropertyOp22
 70
     1
102
RTVSPropertyOp23
 70
     1
102
RTVSPropertyOp24
 70
     1
102
RTVSPropertyOp25
 70
     1
102
RTVSPropertyOp26
 70
     1
102
RTVSPropertyOp27
 70
     1
102
RTVSPropertyOp28
 70
     1
102
RTVSPropertyOp29
 70
     1
102
RTVSPropertyOp30
 70
     1
102
RTVSPropertyOp31
 70
     1
102
RTVSPropertyOp32
 70
     1
102
RTVSPropertyOp33
 70
     1
102
RTVSPropertyOp34
 70
     1
102
RTVSPropertyOp35
 70
     1
102
RTVSPropertyOp36
 70
     1
102
RTVSPropertyOp37
 70
     1
102
RTVSPropertyOp38
 70
     1
102
RTVSPropertyOp39
 70
     1
102
RTVSPropertyOp40
 70
     1
102
RTVSPropertyOp41
 70
     1
102
RTVSPropertyOp42
 70
     1
102
RTVSPropertyOp43
 70
     1
102
RTVSPropertyOp44
 70
     1
102
RTVSPropertyOp45
 70
     1
102
RTVSPropertyOp46
 70
     1
102
RTVSPropertyOp47
 70
     1
102
RTVSPropertyOp48
 70
     1
102
RTVSPropertyOp49
 70
     1
102
RTVSPropertyOp50
 70
     1
102
RTVSPropertyOp51
 70
     0
102
RTVSPropertyOp52
 70
     0
102
RTVSPropertyOp53
 70
     1
102
RTVSPropertyOp54
 70
     1
102
RTVSPropertyOp55
 70
     1
102
RTVSPropertyOp56
 70
     1
102
RTVSPropertyOp57
 70
     1
102
RTVSPost2010Prop28
280
     0
102
RTVSPost2010PropOp28
 70
     1
102
RTVSPost2010Prop29
280
     1
102
RTVSPost2010PropOp29
 70
     1
102
RTVSPost2010Prop30
280
     1
102
RTVSPost2010PropOp30
 70
     1
102
RTVSPost2010Prop31
280
     0
102
RTVSPost2010PropOp31
 70
     1
102
RTVSPost2010Prop32
280
     0
102
RTVSPost2010PropOp32
 70
     1
102
RTVSPost2010Prop33
280
     0
102
RTVSPost2010PropOp33
 70
     1
102
RTVSPost2010Prop34
280
     0
102
RTVSPost2010PropOp34
 70
     1
102
RTVSPost2010Prop35
280
     0
102
RTVSPost2010PropOp35
 70
     1
102
RTVSPost2010Prop36
280
     0
102
RTVSPost2010PropOp36
 70
     1
102
RTVSPost2010Prop37
 90
       50
102
RTVSPost2010PropOp37
 70
     1
102
RTVSPost2010Prop38
140
0.0
102
RTVSPost2010PropOp38
 70
     1
102
RTVSPost2010Prop39
140
1.0
102
RTVSPost2010PropOp39
 70
     1
102
RTVSPost2010Prop40
 90
        0
102
RTVSPost2010PropOp40
 70
     1
102
RTVSPost2010Prop41ColorIndex
 90
       18
102
RTVSPost2010Prop41ColorRGB
 90
        0
102
RTVSPost2010PropOp41
 70
     1
102
RTVSPost2010Prop42
 90
       50
102
RTVSPost2010PropOp42
 70
     1
102
RTVSPost2010Prop43
 90
        3
102
RTVSPost2010PropOp43
 70
     1
102
RTVSPost2010Prop44ColorIndex
 90
        5
102
RTVSPost2010Prop44ColorRGB
 90
      255
102
RTVSPost2010PropOp44
 70
     1
102
RTVSPost2010Prop45
280
     0
102
RTVSPost2010PropOp45
 70
     1
102
RTVSPost2010Prop46
 90
       50
102
RTVSPost2010PropOp46
 70
     1
102
RTVSPost2010Prop47
 90
       50
102
RTVSPost2010PropOp47
 70
     1
102
RTVSPost2010Prop48
 90
       50
102
RTVSPost2010PropOp48
 70
     1
102
RTVSPost2010Prop49
280
     0
102
RTVSPost2010PropOp49
 70
     1
102
RTVSPost2010Prop50
 90
       50
102
RTVSPost2010PropOp50
 70
     1
102
RTVSPost2010Prop51ColorIndex
 90
      256
102
RTVSPost2010Prop51ColorRGB
 90
-16777216
102
RTVSPost2010PropOp51
 70
     0
102
RTVSPost2010Prop52
140
1.0
102
RTVSPost2010PropOp52
 70
     0
102
RTVSPost2010Prop53
 90
        2
102
RTVSPost2010PropOp53
 70
     1
102
RTVSPost2010Prop54
  1
strokes_ogs.tif
102
RTVSPost2010PropOp54
 70
     1
102
RTVSPost2010Prop55
280
     0
102
RTVSPost2010PropOp55
 70
     1
102
RTVSPost2010Prop56
140
1.0
102
RTVSPost2010PropOp56
 70
     1
102
RTVSPost2010Prop57
140
1.0
102
RTVSPost2010PropOp57
 70
     1
  0
XRECORD
  5
330
102
{ACAD_REACTORS
330
32F
102
}
330
32F
100
AcDbXrecord
280
     1
102
RTVSPropertyOp0
 70
     1
102
RTVSPropertyOp1
 70
     1
102
RTVSPropertyOp2
 70
     1
102
RTVSPropertyOp3
 70
     1
102
RTVSPropertyOp4
 70
     1
102
RTVSPropertyOp5
 70
     1
102
RTVSPropertyOp6
 70
     1
102
RTVSPropertyOp7
 70
     1
102
RTVSPropertyOp8
 70
     1
102
RTVSPropertyOp9
 70
     1
102
RTVSPropertyOp10
 70
     1
102
RTVSPropertyOp11
 70
     1
102
RTVSPropertyOp12
 70
     1
102
RTVSPropertyOp13
 70
     1
102
RTVSPropertyOp14
 70
     1
102
RTVSPropertyOp15
 70
     1
102
RTVSPropertyOp16
 70
     1
102
RTVSPropertyOp17
 70
     1
102
RTVSPropertyOp18
 70
     1
102
RTVSPropertyOp19
 70
     1
102
RTVSPropertyOp20
 70
     1
102
RTVSPropertyOp21
 70
     1
102
RTVSPropertyOp22
 70
     1
102
RTVSPropertyOp23
 70
     1
102
RTVSPropertyOp24
 70
     1
102
RTVSPropertyOp25
 70
     1
102
RTVSPropertyOp26
 70
     1
102
RTVSPropertyOp27
 70
     1
102
RTVSPropertyOp28
 70
     1
102
RTVSPropertyOp29
 70
     1
102
RTVSPropertyOp30
 70
     1
102
RTVSPropertyOp31
 70
     1
102
RTVSPropertyOp32
 70
     1
102
RTVSPropertyOp33
 70
     1
102
RTVSPropertyOp34
 70
     1
102
RTVSPropertyOp35
 70
     1
102
RTVSPropertyOp36
 70
     1
102
RTVSPropertyOp37
 70
     1
102
RTVSPropertyOp38
 70
     1
102
RTVSPropertyOp39
 70
     1
102
RTVSPropertyOp40
 70
     1
102
RTVSPropertyOp41
 70
     1
102
RTVSPropertyOp42
 70
     1
102
RTVSPropertyOp43
 70
     1
102
RTVSPropertyOp44
 70
     1
102
RTVSPropertyOp45
 70
     1
102
RTVSPropertyOp46
 70
     1
102
RTVSPropertyOp47
 70
     1
102
RTVSPropertyOp48
 70
     1
102
RTVSPropertyOp49
 70
     1
102
RTVSPropertyOp50
 70
     1
102
RTVSPropertyOp51
 70
     0
102
RTVSPropertyOp52
 70
     0
102
RTVSPropertyOp53
 70
     1
102
RTVSPropertyOp54
 70
     1
102
RTVSPropertyOp55
 70
     1
102
RTVSPropertyOp56
 70
     1
102
RTVSPropertyOp57
 70
     1
102
RTVSPost2010Prop28
280
     0
102
RTVSPost2010PropOp28
 70
     1
102
RTVSPost2010Prop29
280
     1
102
RTVSPost2010PropOp29
 70
     1
102
RTVSPost2010Prop30
280
     1
102
RTVSPost2010PropOp30
 70
     1
102
RTVSPost2010Prop31
280
     0
102
RTVSPost2010PropOp31
 70
     1
102
RTVSPost2010Prop32
280
     0
102
RTVSPost2010PropOp32
 70
     1
102
RTVSPost2010Prop33
280
     0
102
RTVSPost2010PropOp33
 70
     1
102
RTVSPost2010Prop34
280
     0
102
RTVSPost2010PropOp34
 70
     1
102
RTVSPost2010Prop35
280
     0
102
RTVSPost2010PropOp35
 70
     1
102
RTVSPost2010Prop36
280
     0
102
RTVSPost2010PropOp36
 70
     1
102
RTVSPost2010Prop37
 90
       50
102
RTVSPost2010PropOp37
 70
     1
102
RTVSPost2010Prop38
140
0.0
102
RTVSPost2010PropOp38
 70
     1
102
RTVSPost2010Prop39
140
1.0
102
RTVSPost2010PropOp39
 70
     1
102
RTVSPost2010Prop40
 90
        0
102
RTVSPost2010PropOp40
 70
     1
102
RTVSPost2010Prop41ColorIndex
 90
       18
102
RTVSPost2010Prop41ColorRGB
 90
        0
102
RTVSPost2010PropOp41
 70
     1
102
RTVSPost2010Prop42
 90
       50
102
RTVSPost2010PropOp42
 70
     1
102
RTVSPost2010Prop43
 90
        3
102
RTVSPost2010PropOp43
 70
     1
102
RTVSPost2010Prop44ColorIndex
 90
        5
102
RTVSPost2010Prop44ColorRGB
 90
      255
102
RTVSPost2010PropOp44
 70
     1
102
RTVSPost2010Prop45
280
     0
102
RTVSPost2010PropOp45
 70
     1
102
RTVSPost2010Prop46
 90
       50
102
RTVSPost2010PropOp46
 70
     1
102
RTVSPost2010Prop47
 90
       50
102
RTVSPost2010PropOp47
 70
     1
102
RTVSPost2010Prop48
 90
       50
102
RTVSPost2010PropOp48
 70
     1
102
RTVSPost2010Prop49
280
     0
102
RTVSPost2010PropOp49
 70
     1
102
RTVSPost2010Prop50
 90
       50
102
RTVSPost2010PropOp50
 70
     1
102
RTVSPost2010Prop51ColorIndex
 90
      256
102
RTVSPost2010Prop51ColorRGB
 90
-16777216
102
RTVSPost2010PropOp51
 70
     0
102
RTVSPost2010Prop52
140
1.0
102
RTVSPost2010PropOp52
 70
     0
102
RTVSPost2010Prop53
 90
        2
102
RTVSPost2010PropOp53
 70
     1
102
RTVSPost2010Prop54
  1
strokes_ogs.tif
102
RTVSPost2010PropOp54
 70
     1
102
RTVSPost2010Prop55
280
     0
102
RTVSPost2010PropOp55
 70
     1
102
RTVSPost2010Prop56
140
1.0
102
RTVSPost2010PropOp56
 70
     1
102
RTVSPost2010Prop57
140
1.0
102
RTVSPost2010PropOp57
 70
     1
  0
XRECORD
  5
350
102
{ACAD_REACTORS
330
34F
102
}
330
34F
100
AcDbXrecord
280
     1
102
RTVSPropertyOp0
 70
     1
102
RTVSPropertyOp1
 70
     1
102
RTVSPropertyOp2
 70
     1
102
RTVSPropertyOp3
 70
     1
102
RTVSPropertyOp4
 70
     1
102
RTVSPropertyOp5
 70
     1
102
RTVSPropertyOp6
 70
     1
102
RTVSPropertyOp7
 70
     1
102
RTVSPropertyOp8
 70
     1
102
RTVSPropertyOp9
 70
     1
102
RTVSPropertyOp10
 70
     1
102
RTVSPropertyOp11
 70
     1
102
RTVSPropertyOp12
 70
     1
102
RTVSPropertyOp13
 70
     1
102
RTVSPropertyOp14
 70
     1
102
RTVSPropertyOp15
 70
     1
102
RTVSPropertyOp16
 70
     1
102
RTVSPropertyOp17
 70
     1
102
RTVSPropertyOp18
 70
     1
102
RTVSPropertyOp19
 70
     1
102
RTVSPropertyOp20
 70
     1
102
RTVSPropertyOp21
 70
     1
102
RTVSPropertyOp22
 70
     1
102
RTVSPropertyOp23
 70
     1
102
RTVSPropertyOp24
 70
     1
102
RTVSPropertyOp25
 70
     1
102
RTVSPropertyOp26
 70
     1
102
RTVSPropertyOp27
 70
     1
102
RTVSPropertyOp28
 70
     1
102
RTVSPropertyOp29
 70
     1
102
RTVSPropertyOp30
 70
     1
102
RTVSPropertyOp31
 70
     1
102
RTVSPropertyOp32
 70
     1
102
RTVSPropertyOp33
 70
     1
102
RTVSPropertyOp34
 70
     1
102
RTVSPropertyOp35
 70
     1
102
RTVSPropertyOp36
 70
     1
102
RTVSPropertyOp37
 70
     1
102
RTVSPropertyOp38
 70
     1
102
RTVSPropertyOp39
 70
     1
102
RTVSPropertyOp40
 70
     1
102
RTVSPropertyOp41
 70
     1
102
RTVSPropertyOp42
 70
     1
102
RTVSPropertyOp43
 70
     1
102
RTVSPropertyOp44
 70
     1
102
RTVSPropertyOp45
 70
     1
102
RTVSPropertyOp46
 70
     1
102
RTVSPropertyOp47
 70
     1
102
RTVSPropertyOp48
 70
     1
102
RTVSPropertyOp49
 70
     1
102
RTVSPropertyOp50
 70
     1
102
RTVSPropertyOp51
 70
     0
102
RTVSPropertyOp52
 70
     0
102
RTVSPropertyOp53
 70
     1
102
RTVSPropertyOp54
 70
     1
102
RTVSPropertyOp55
 70
     1
102
RTVSPropertyOp56
 70
     1
102
RTVSPropertyOp57
 70
     1
102
RTVSPost2010Prop28
280
     0
102
RTVSPost2010PropOp28
 70
     1
102
RTVSPost2010Prop29
280
     1
102
RTVSPost2010PropOp29
 70
     1
102
RTVSPost2010Prop30
280
     1
102
RTVSPost2010PropOp30
 70
     1
102
RTVSPost2010Prop31
280
     0
102
RTVSPost2010PropOp31
 70
     1
102
RTVSPost2010Prop32
280
     0
102
RTVSPost2010PropOp32
 70
     1
102
RTVSPost2010Prop33
280
     0
102
RTVSPost2010PropOp33
 70
     1
102
RTVSPost2010Prop34
280
     0
102
RTVSPost2010PropOp34
 70
     1
102
RTVSPost2010Prop35
280
     0
102
RTVSPost2010PropOp35
 70
     1
102
RTVSPost2010Prop36
280
     0
102
RTVSPost2010PropOp36
 70
     1
102
RTVSPost2010Prop37
 90
       50
102
RTVSPost2010PropOp37
 70
     1
102
RTVSPost2010Prop38
140
0.0
102
RTVSPost2010PropOp38
 70
     1
102
RTVSPost2010Prop39
140
1.0
102
RTVSPost2010PropOp39
 70
     1
102
RTVSPost2010Prop40
 90
        0
102
RTVSPost2010PropOp40
 70
     1
102
RTVSPost2010Prop41ColorIndex
 90
       18
102
RTVSPost2010Prop41ColorRGB
 90
        0
102
RTVSPost2010PropOp41
 70
     1
102
RTVSPost2010Prop42
 90
       50
102
RTVSPost2010PropOp42
 70
     1
102
RTVSPost2010Prop43
 90
        3
102
RTVSPost2010PropOp43
 70
     1
102
RTVSPost2010Prop44ColorIndex
 90
        5
102
RTVSPost2010Prop44ColorRGB
 90
      255
102
RTVSPost2010PropOp44
 70
     1
102
RTVSPost2010Prop45
280
     0
102
RTVSPost2010PropOp45
 70
     1
102
RTVSPost2010Prop46
 90
       50
102
RTVSPost2010PropOp46
 70
     1
102
RTVSPost2010Prop47
 90
       50
102
RTVSPost2010PropOp47
 70
     1
102
RTVSPost2010Prop48
 90
       50
102
RTVSPost2010PropOp48
 70
     1
102
RTVSPost2010Prop49
280
     0
102
RTVSPost2010PropOp49
 70
     1
102
RTVSPost2010Prop50
 90
       50
102
RTVSPost2010PropOp50
 70
     1
102
RTVSPost2010Prop51ColorIndex
 90
      256
102
RTVSPost2010Prop51ColorRGB
 90
-16777216
102
RTVSPost2010PropOp51
 70
     0
102
RTVSPost2010Prop52
140
1.0
102
RTVSPost2010PropOp52
 70
     0
102
RTVSPost2010Prop53
 90
        2
102
RTVSPost2010PropOp53
 70
     1
102
RTVSPost2010Prop54
  1
strokes_ogs.tif
102
RTVSPost2010PropOp54
 70
     1
102
RTVSPost2010Prop55
280
     0
102
RTVSPost2010PropOp55
 70
     1
102
RTVSPost2010Prop56
140
1.0
102
RTVSPost2010PropOp56
 70
     1
102
RTVSPost2010Prop57
140
1.0
102
RTVSPost2010PropOp57
 70
     1
  0
ENDSEC
  0
EOF
