  0
SECTION
  2
HEADER
  9
$ACADVER
  1
AC1015
  9
$ACADMAINTVER
 70
    20
  9
$DWGCODEPAGE
  3
ANSI_1252
  9
$INSBASE
 10
0.0
 20
0.0
 30
0.0
  9
$EXTMIN
 10
3991.957137155696
 20
1733.405412737516
 30
0.0
  9
$EXTMAX
 10
3992.27318046805
 20
1733.547450274092
 30
0.0000000000000002
  9
$LIMMIN
 10
0.0
 20
0.0
  9
$LIMMAX
 10
420.0
 20
297.0
  9
$ORTHOMODE
 70
     0
  9
$REGENMODE
 70
     1
  9
$FILLMODE
 70
     1
  9
$QTEXTMODE
 70
     0
  9
$MIRRTEXT
 70
     1
  9
$LTSCALE
 40
1.0
  9
$ATTMODE
 70
     1
  9
$TEXTSIZE
 40
2.5
  9
$TRACEWID
 40
1.0
  9
$TEXTSTYLE
  7
SANINDUSA
  9
$CLAYER
  8
cotas
  9
$CELTYPE
  6
ByLayer
  9
$CECOLOR
 62
   256
  9
$CELTSCALE
 40
1.0
  9
$DISPSILH
 70
     0
  9
$DIMSCALE
 40
1.0
  9
$DIMASZ
 40
2.0
  9
$DIMEXO
 40
1.0
  9
$DIMDLI
 40
1.0
  9
$DIMRND
 40
0.0
  9
$DIMDLE
 40
0.0
  9
$DIMEXE
 40
1.0
  9
$DIMTP
 40
0.0
  9
$DIMTM
 40
0.0
  9
$DIMTXT
 40
2.0
  9
$DIMCEN
 40
0.0
  9
$DIMTSZ
 40
0.0
  9
$DIMTOL
 70
     0
  9
$DIMLIM
 70
     0
  9
$DIMTIH
 70
     0
  9
$DIMTOH
 70
     0
  9
$DIMSE1
 70
     0
  9
$DIMSE2
 70
     0
  9
$DIMTAD
 70
     1
  9
$DIMZIN
 70
     8
  9
$DIMBLK
  1

  9
$DIMASO
 70
     1
  9
$DIMSHO
 70
     1
  9
$DIMPOST
  1

  9
$DIMAPOST
  1

  9
$DIMALT
 70
     0
  9
$DIMALTD
 70
     3
  9
$DIMALTF
 40
0.03937007874016
  9
$DIMLFAC
 40
1.0
  9
$DIMTOFL
 70
     1
  9
$DIMTVP
 40
0.0
  9
$DIMTIX
 70
     0
  9
$DIMSOXD
 70
     0
  9
$DIMSAH
 70
     0
  9
$DIMBLK1
  1

  9
$DIMBLK2
  1

  9
$DIMSTYLE
  2
SANINDUSA
  9
$DIMCLRD
 70
   256
  9
$DIMCLRE
 70
   256
  9
$DIMCLRT
 70
   256
  9
$DIMTFAC
 40
1.0
  9
$DIMGAP
 40
1.0
  9
$DIMJUST
 70
     0
  9
$DIMSD1
 70
     0
  9
$DIMSD2
 70
     0
  9
$DIMTOLJ
 70
     0
  9
$DIMTZIN
 70
     8
  9
$DIMALTZ
 70
     0
  9
$DIMALTTZ
 70
     0
  9
$DIMUPT
 70
     0
  9
$DIMDEC
 70
     1
  9
$DIMTDEC
 70
     1
  9
$DIMALTU
 70
     2
  9
$DIMALTTD
 70
     3
  9
$DIMTXSTY
  7
SANINDUSA
  9
$DIMAUNIT
 70
     0
  9
$DIMADEC
 70
     1
  9
$DIMALTRND
 40
0.0
  9
$DIMAZIN
 70
     0
  9
$DIMDSEP
 70
    44
  9
$DIMATFIT
 70
     3
  9
$DIMFRAC
 70
     0
  9
$DIMLDRBLK
  1

  9
$DIMLUNIT
 70
     2
  9
$DIMLWD
 70
    -1
  9
$DIMLWE
 70
    -1
  9
$DIMTMOVE
 70
     0
  9
$LUNITS
 70
     2
  9
$LUPREC
 70
     4
  9
$SKETCHINC
 40
1.0
  9
$FILLETRAD
 40
0.0
  9
$AUNITS
 70
     0
  9
$AUPREC
 70
     0
  9
$MENU
  1
.
  9
$ELEVATION
 40
0.0
  9
$PELEVATION
 40
0.0
  9
$THICKNESS
 40
0.0
  9
$LIMCHECK
 70
     0
  9
$CHAMFERA
 40
10.0
  9
$CHAMFERB
 40
10.0
  9
$CHAMFERC
 40
20.0
  9
$CHAMFERD
 40
0.0
  9
$SKPOLY
 70
     0
  9
$TDCREATE
 40
2454783.654097940
  9
$TDUCREATE
 40
2454783.612431274
  9
$TDUPDATE
 40
2454925.734737049
  9
$TDUUPDATE
 40
2454925.693070382
  9
$TDINDWG
 40
0.0030156481
  9
$TDUSRTIMER
 40
0.0030156481
  9
$USRTIMER
 70
     1
  9
$ANGBASE
 50
0.0
  9
$ANGDIR
 70
     0
  9
$PDMODE
 70
     0
  9
$PDSIZE
 40
0.0
  9
$PLINEWID
 40
0.0
  9
$SPLFRAME
 70
     0
  9
$SPLINETYPE
 70
     6
  9
$SPLINESEGS
 70
     8
  9
$HANDSEED
  5
1B66
  9
$SURFTAB1
 70
     6
  9
$SURFTAB2
 70
     6
  9
$SURFTYPE
 70
     6
  9
$SURFU
 70
     6
  9
$SURFV
 70
     6
  9
$UCSBASE
  2

  9
$UCSNAME
  2

  9
$UCSORG
 10
0.0
 20
0.0
 30
0.0
  9
$UCSXDIR
 10
1.0
 20
0.0
 30
0.0
  9
$UCSYDIR
 10
0.0
 20
1.0
 30
0.0
  9
$UCSORTHOREF
  2

  9
$UCSORTHOVIEW
 70
     0
  9
$UCSORGTOP
 10
0.0
 20
0.0
 30
0.0
  9
$UCSORGBOTTOM
 10
0.0
 20
0.0
 30
0.0
  9
$UCSORGLEFT
 10
0.0
 20
0.0
 30
0.0
  9
$UCSORGRIGHT
 10
0.0
 20
0.0
 30
0.0
  9
$UCSORGFRONT
 10
0.0
 20
0.0
 30
0.0
  9
$UCSORGBACK
 10
0.0
 20
0.0
 30
0.0
  9
$PUCSBASE
  2

  9
$PUCSNAME
  2

  9
$PUCSORG
 10
0.0
 20
0.0
 30
0.0
  9
$PUCSXDIR
 10
1.0
 20
0.0
 30
0.0
  9
$PUCSYDIR
 10
0.0
 20
1.0
 30
0.0
  9
$PUCSORTHOREF
  2

  9
$PUCSORTHOVIEW
 70
     0
  9
$PUCSORGTOP
 10
0.0
 20
0.0
 30
0.0
  9
$PUCSORGBOTTOM
 10
0.0
 20
0.0
 30
0.0
  9
$PUCSORGLEFT
 10
0.0
 20
0.0
 30
0.0
  9
$PUCSORGRIGHT
 10
0.0
 20
0.0
 30
0.0
  9
$PUCSORGFRONT
 10
0.0
 20
0.0
 30
0.0
  9
$PUCSORGBACK
 10
0.0
 20
0.0
 30
0.0
  9
$USERI1
 70
     0
  9
$USERI2
 70
     0
  9
$USERI3
 70
     0
  9
$USERI4
 70
     0
  9
$USERI5
 70
     0
  9
$USERR1
 40
0.0
  9
$USERR2
 40
0.0
  9
$USERR3
 40
0.0
  9
$USERR4
 40
0.0
  9
$USERR5
 40
0.0
  9
$WORLDVIEW
 70
     1
  9
$SHADEDGE
 70
     3
  9
$SHADEDIF
 70
    70
  9
$TILEMODE
 70
     1
  9
$MAXACTVP
 70
    64
  9
$PINSBASE
 10
0.0
 20
0.0
 30
0.0
  9
$PLIMCHECK
 70
     0
  9
$PEXTMIN
 10
1.000000000000000E+20
 20
1.000000000000000E+20
 30
1.000000000000000E+20
  9
$PEXTMAX
 10
-1.000000000000000E+20
 20
-1.000000000000000E+20
 30
-1.000000000000000E+20
  9
$PLIMMIN
 10
0.0
 20
0.0
  9
$PLIMMAX
 10
420.0
 20
297.0
  9
$UNITMODE
 70
     0
  9
$VISRETAIN
 70
     1
  9
$PLINEGEN
 70
     0
  9
$PSLTSCALE
 70
     1
  9
$TREEDEPTH
 70
  3020
  9
$CMLSTYLE
  2
Standard
  9
$CMLJUST
 70
     0
  9
$CMLSCALE
 40
20.0
  9
$PROXYGRAPHICS
 70
     1
  9
$MEASUREMENT
 70
     1
  9
$CELWEIGHT
370
    -1
  9
$ENDCAPS
280
     0
  9
$JOINSTYLE
280
     0
  9
$LWDISPLAY
290
     0
  9
$INSUNITS
 70
     4
  9
$HYPERLINKBASE
  1

  9
$STYLESHEET
  1
sanindusa.ctb
  9
$XEDIT
290
     1
  9
$CEPSNTYPE
380
     0
  9
$PSTYLEMODE
290
     1
  9
$FINGERPRINTGUID
  2
{9231A3CB-FF9C-4E17-AA25-EEBBB319363F}
  9
$VERSIONGUID
  2
{56911161-B68D-46FF-AA44-4BCEE9F11C96}
  9
$EXTNAMES
290
     1
  9
$PSVPSCALE
 40
0.0
  9
$OLESTARTUP
290
     0
  0
ENDSEC
  0
SECTION
  2
CLASSES
  0
CLASS
  1
ACDBDICTIONARYWDFLT
  2
AcDbDictionaryWithDefault
  3
ObjectDBX Classes
 90
        0
280
     0
281
     0
  0
CLASS
  1
ACDBPLACEHOLDER
  2
AcDbPlaceHolder
  3
ObjectDBX Classes
 90
        0
280
     0
281
     0
  0
CLASS
  1
LAYOUT
  2
AcDbLayout
  3
ObjectDBX Classes
 90
        0
280
     0
281
     0
  0
CLASS
  1
DICTIONARYVAR
  2
AcDbDictionaryVar
  3
ObjectDBX Classes
 90
        0
280
     0
281
     0
  0
CLASS
  1
DIMASSOC
  2
AcDbDimAssoc
  3
"AcDbDimAssoc|Product Desc:     AcDim ARX App For Dimension|Company:          Autodesk, Inc.|WEB Address:      www.autodesk.com"
 90
    32768
280
     0
281
     0
  0
CLASS
  1
TABLESTYLE
  2
AcDbTableStyle
  3
ObjectDBX Classes
 90
     2047
280
     0
281
     0
  0
CLASS
  1
MATERIAL
  2
AcDbMaterial
  3
ObjectDBX Classes
 90
        0
280
     0
281
     0
  0
CLASS
  1
VISUALSTYLE
  2
AcDbVisualStyle
  3
ObjectDBX Classes
 90
     4095
280
     0
281
     0
  0
CLASS
  1
SCALE
  2
AcDbScale
  3
ObjectDBX Classes
 90
     1153
280
     0
281
     0
  0
CLASS
  1
MLEADERSTYLE
  2
AcDbMLeaderStyle
  3
ACDB_MLEADERSTYLE_CLASS
 90
     4095
280
     0
281
     0
  0
CLASS
  1
BREAKDATA
  2
AcDbBreakData
  3
ObjectDBX Classes
 90
    33792
280
     0
281
     0
  0
CLASS
  1
AEC_REFEDIT_STATUS_TRACKER
  2
AecDbRefEditStatusTracker
  3
AecArchBase50|Product Desc: Autodesk Architectural Desktop 2007 |Company: Autodesk,Inc. |WEB Address: www.autodesk.com
 90
    32897
280
     0
281
     0
  0
CLASS
  1
NPOCOLLECTION
  2
AcDbImpNonPersistentObjectsCollection
  3
ObjectDBX Classes
 90
    33921
280
     0
281
     0
  0
CLASS
  1
CELLSTYLEMAP
  2
AcDbCellStyleMap
  3
ObjectDBX Classes
 90
     1152
280
     0
281
     0
  0
CLASS
  1
SORTENTSTABLE
  2
AcDbSortentsTable
  3
ObjectDBX Classes
 90
        0
280
     0
281
     0
  0
ENDSEC
  0
SECTION
  2
TABLES
  0
TABLE
  2
VPORT
  5
8
102
{ACAD_XDICTIONARY
360
1B42
102
}
330
0
100
AcDbSymbolTable
 70
     6
  0
VPORT
  5
1B5D
330
8
100
AcDbSymbolTableRecord
100
AcDbViewportTableRecord
  2
*Active
 70
     0
 10
0.0
 20
0.0
 11
1.0
 21
1.0
 12
3992.115158811873
 22
1733.476431505804
 13
0.0
 23
0.0
 14
10.0
 24
10.0
 15
10.0
 25
10.0
 16
0.0
 26
0.0
 36
1.0
 17
0.0
 27
0.0
 37
0.0
 40
0.1980260598966575
 41
1.602030456852791
 42
50.0
 43
0.0
 44
0.0
 50
0.0
 51
0.0
 71
     0
 72
   100
 73
     1
 74
     2
 75
     0
 76
     0
 77
     0
 78
     0
281
     0
 65
     1
110
0.0
120
0.0
130
0.0
111
1.0
121
0.0
131
0.0
112
0.0
122
1.0
132
0.0
 79
     0
146
0.0
  0
ENDTAB
  0
TABLE
  2
LTYPE
  5
5
330
0
100
AcDbSymbolTable
 70
     5
  0
LTYPE
  5
14
330
5
100
AcDbSymbolTableRecord
100
AcDbLinetypeTableRecord
  2
ByBlock
 70
     0
  3

 72
    65
 73
     0
 40
0.0
  0
LTYPE
  5
15
330
5
100
AcDbSymbolTableRecord
100
AcDbLinetypeTableRecord
  2
ByLayer
 70
     0
  3

 72
    65
 73
     0
 40
0.0
  0
LTYPE
  5
16
330
5
100
AcDbSymbolTableRecord
100
AcDbLinetypeTableRecord
  2
Continuous
 70
     0
  3
Solid line
 72
    65
 73
     0
 40
0.0
  0
LTYPE
  5
2D
330
5
100
AcDbSymbolTableRecord
100
AcDbLinetypeTableRecord
  2
DASHDOT
 70
     0
  3
Dash dot __ . __ . __ . __ . __ . __ . __ . __
 72
    65
 73
     4
 40
25.4
 49
12.7
 74
     0
 49
-6.349999999999999
 74
     0
 49
0.0
 74
     0
 49
-6.349999999999999
 74
     0
  0
LTYPE
  5
2E
330
5
100
AcDbSymbolTableRecord
100
AcDbLinetypeTableRecord
  2
HIDDEN
 70
     0
  3
Hidden __ __ __ __ __ __ __ __ __ __ __ __ __ _
 72
    65
 73
     2
 40
9.524999999999998
 49
6.349999999999999
 74
     0
 49
-3.174999999999999
 74
     0
  0
LTYPE
  5
C75
330
5
100
AcDbSymbolTableRecord
100
AcDbLinetypeTableRecord
  2
AM_ISO02W050
 70
     0
  3
__ __ __ __ __ __ __ __ __ __ __ __ __ __ __
 72
    65
 73
     2
 40
7.5
 49
6.0
 74
     0
 49
-1.5
 74
     0
  0
LTYPE
  5
C76
330
5
100
AcDbSymbolTableRecord
100
AcDbLinetypeTableRecord
  2
AM_ISO08W050
 70
     0
  3
____ . ____ . ____ . ____ . ____ . ____ . ____
 72
    65
 73
     4
 40
18.0
 49
12.0
 74
     0
 49
-1.5
 74
     0
 49
3.0
 74
     0
 49
-1.5
 74
     0
  0
ENDTAB
  0
TABLE
  2
LAYER
  5
2
102
{ACAD_XDICTIONARY
360
1051
102
}
330
0
100
AcDbSymbolTable
 70
    17
  0
LAYER
  5
10
102
{ACAD_XDICTIONARY
360
1AFC
102
}
330
2
100
AcDbSymbolTableRecord
100
AcDbLayerTableRecord
  2
0
 70
     0
 62
     7
  6
Continuous
370
    -3
390
F
  0
LAYER
  5
2F
102
{ACAD_XDICTIONARY
360
1AFE
102
}
330
2
100
AcDbSymbolTableRecord
100
AcDbLayerTableRecord
  2
1
 70
     0
 62
     1
  6
Continuous
370
    -3
390
F
  0
LAYER
  5
30
102
{ACAD_XDICTIONARY
360
1B00
102
}
330
2
100
AcDbSymbolTableRecord
100
AcDbLayerTableRecord
  2
2
 70
     0
 62
     2
  6
Continuous
370
    -3
390
F
  0
LAYER
  5
31
102
{ACAD_XDICTIONARY
360
1B02
102
}
330
2
100
AcDbSymbolTableRecord
100
AcDbLayerTableRecord
  2
3
 70
     0
 62
     3
  6
Continuous
370
    -3
390
F
  0
LAYER
  5
32
102
{ACAD_XDICTIONARY
360
1B04
102
}
330
2
100
AcDbSymbolTableRecord
100
AcDbLayerTableRecord
  2
4
 70
     0
 62
     4
  6
Continuous
370
    -3
390
F
  0
LAYER
  5
33
102
{ACAD_XDICTIONARY
360
1B06
102
}
330
2
100
AcDbSymbolTableRecord
100
AcDbLayerTableRecord
  2
5
 70
     0
 62
     5
  6
Continuous
370
    -3
390
F
  0
LAYER
  5
34
102
{ACAD_XDICTIONARY
360
1B08
102
}
330
2
100
AcDbSymbolTableRecord
100
AcDbLayerTableRecord
  2
6
 70
     0
 62
     6
  6
Continuous
370
    -3
390
F
  0
LAYER
  5
35
102
{ACAD_XDICTIONARY
360
1B0A
102
}
330
2
100
AcDbSymbolTableRecord
100
AcDbLayerTableRecord
  2
7
 70
     0
 62
     7
  6
Continuous
370
    -3
390
F
  0
LAYER
  5
36
102
{ACAD_XDICTIONARY
360
1B0C
102
}
330
2
100
AcDbSymbolTableRecord
100
AcDbLayerTableRecord
  2
cen
 70
     0
 62
     7
  6
DASHDOT
370
    -3
390
F
  0
LAYER
  5
37
102
{ACAD_XDICTIONARY
360
1B0E
102
}
330
2
100
AcDbSymbolTableRecord
100
AcDbLayerTableRecord
  2
hid
 70
     0
 62
     7
  6
HIDDEN
370
    -3
390
F
  0
LAYER
  5
5D6
102
{ACAD_XDICTIONARY
360
1B10
102
}
330
2
100
AcDbSymbolTableRecord
100
AcDbLayerTableRecord
  2
hatch
 70
     0
 62
     9
  6
Continuous
370
    -3
390
F
  0
LAYER
  5
8AF
102
{ACAD_XDICTIONARY
360
1B12
102
}
330
2
100
AcDbSymbolTableRecord
100
AcDbLayerTableRecord
  2
9
 70
     0
 62
     9
  6
Continuous
370
    -3
390
F
  0
LAYER
  5
8F8
102
{ACAD_XDICTIONARY
360
1B14
102
}
330
2
100
AcDbSymbolTableRecord
100
AcDbLayerTableRecord
  2
leg fin
 70
     0
 62
     9
  6
Continuous
370
    -3
390
F
  0
LAYER
  5
91D
102
{ACAD_XDICTIONARY
360
1B16
102
}
330
2
100
AcDbSymbolTableRecord
100
AcDbLayerTableRecord
  2
cotas
 70
     0
 62
     1
  6
Continuous
370
    -3
390
F
  0
LAYER
  5
92F
330
2
100
AcDbSymbolTableRecord
100
AcDbLayerTableRecord
  2
Defpoints
 70
     0
 62
     7
  6
Continuous
290
     0
370
    -3
390
F
  0
LAYER
  5
C7B
102
{ACAD_XDICTIONARY
360
1B18
102
}
330
2
100
AcDbSymbolTableRecord
100
AcDbLayerTableRecord
  2
SANINDUSA
 70
     0
 62
     3
  6
Continuous
370
    -3
390
F
  0
LAYER
  5
1060
102
{ACAD_XDICTIONARY
360
1B1A
102
}
330
2
100
AcDbSymbolTableRecord
100
AcDbLayerTableRecord
  2
hid1
 70
     0
 62
     9
  6
HIDDEN
370
    -3
390
F
1001
AcAecLayerStandard
1000

1000

  0
ENDTAB
  0
TABLE
  2
STYLE
  5
3
330
0
100
AcDbSymbolTable
 70
     4
  0
STYLE
  5
11
330
3
100
AcDbSymbolTableRecord
100
AcDbTextStyleTableRecord
  2
Standard
 70
     0
 40
0.0
 41
1.0
 50
0.0
 71
     0
 42
2.5
  3
Avgardn.ttf
  4

1001
ACAD
1000
AvantGarde Bk BT
1071
       34
  0
STYLE
  5
2C
330
3
100
AcDbSymbolTableRecord
100
AcDbTextStyleTableRecord
  2

 70
     1
 40
0.0
 41
1.0
 50
0.0
 71
     0
 42
2.5
  3
ltypeshp.shx
  4

  0
STYLE
  5
91F
330
3
100
AcDbSymbolTableRecord
100
AcDbTextStyleTableRecord
  2
SANINDUSA
 70
     0
 40
0.0
 41
1.0
 50
0.0
 71
     0
 42
2.5
  3
verdana.TTF
  4

1001
ACAD
1000
Verdana
1071
       34
  0
STYLE
  5
C7C
330
3
100
AcDbSymbolTableRecord
100
AcDbTextStyleTableRecord
  2
futura
 70
     0
 40
0.0
 41
1.0
 50
0.0
 71
     0
 42
2.5
  3
ZURCHN.TTF
  4

1001
ACAD
1000
Zurich BT
1071
       34
  0
ENDTAB
  0
TABLE
  2
VIEW
  5
6
330
0
100
AcDbSymbolTable
 70
     0
  0
ENDTAB
  0
TABLE
  2
UCS
  5
7
330
0
100
AcDbSymbolTable
 70
     0
  0
ENDTAB
  0
TABLE
  2
APPID
  5
9
330
0
100
AcDbSymbolTable
 70
    15
  0
APPID
  5
12
330
9
100
AcDbSymbolTableRecord
100
AcDbRegAppTableRecord
  2
ACAD
 70
     0
  0
APPID
  5
3A
330
9
100
AcDbSymbolTableRecord
100
AcDbRegAppTableRecord
  2
DCO15
 70
     0
  0
APPID
  5
EEE
330
9
100
AcDbSymbolTableRecord
100
AcDbRegAppTableRecord
  2
ACAD_DSTYLE_DIMTEXT_FILL
 70
     0
  0
APPID
  5
EEF
330
9
100
AcDbSymbolTableRecord
100
AcDbRegAppTableRecord
  2
ACAD_DSTYLE_DIMEXT_LENGTH
 70
     0
  0
APPID
  5
EF0
330
9
100
AcDbSymbolTableRecord
100
AcDbRegAppTableRecord
  2
ACAD_DSTYLE_DIMEXT_ENABLED
 70
     0
  0
APPID
  5
EF1
330
9
100
AcDbSymbolTableRecord
100
AcDbRegAppTableRecord
  2
ACAD_DSTYLE_DIM_LINETYPE
 70
     0
  0
APPID
  5
EF2
330
9
100
AcDbSymbolTableRecord
100
AcDbRegAppTableRecord
  2
ACAD_DSTYLE_DIM_EXT1_LINETYPE
 70
     0
  0
APPID
  5
EF3
330
9
100
AcDbSymbolTableRecord
100
AcDbRegAppTableRecord
  2
ACAD_DSTYLE_DIM_EXT2_LINETYPE
 70
     0
  0
APPID
  5
FAF
330
9
100
AcDbSymbolTableRecord
100
AcDbRegAppTableRecord
  2
ACAD_DSTYLE_DIMJOGGED_JOGANGLE_SYMBOL
 70
     0
  0
APPID
  5
1013
330
9
100
AcDbSymbolTableRecord
100
AcDbRegAppTableRecord
  2
ACAD_DSTYLE_DIMARC_LENGTH_SYMBOL
 70
     0
  0
APPID
  5
1061
330
9
100
AcDbSymbolTableRecord
100
AcDbRegAppTableRecord
  2
AcAecLayerStandard
 70
     0
  0
APPID
  5
10A7
330
9
100
AcDbSymbolTableRecord
100
AcDbRegAppTableRecord
  2
ACAD_MLEADERVER
 70
     0
  0
APPID
  5
10EB
330
9
100
AcDbSymbolTableRecord
100
AcDbRegAppTableRecord
  2
ACAD_DSTYLE_DIMJAG
 70
     0
  0
APPID
  5
10EC
330
9
100
AcDbSymbolTableRecord
100
AcDbRegAppTableRecord
  2
ACAD_DSTYLE_DIMTALN
 70
     0
  0
APPID
  5
1B33
330
9
100
AcDbSymbolTableRecord
100
AcDbRegAppTableRecord
  2
ACAD_EXEMPT_FROM_CAD_STANDARDS
 70
     0
  0
ENDTAB
  0
TABLE
  2
DIMSTYLE
  5
A
330
0
100
AcDbSymbolTable
 70
     3
100
AcDbDimStyleTable
 71
     1
340
921
  0
DIMSTYLE
105
45
330
A
100
AcDbSymbolTableRecord
100
AcDbDimStyleTableRecord
  2
STANDARD
 70
     0
289
     0
340
11
  0
DIMSTYLE
105
921
330
A
100
AcDbSymbolTableRecord
100
AcDbDimStyleTableRecord
  2
SANINDUSA
 70
     0
 41
2.0
 42
1.0
 43
1.0
 44
1.0
 73
     0
 74
     0
 77
     1
 78
     8
140
2.0
141
0.0
143
0.03937007874016
147
1.0
171
     3
172
     1
176
   256
177
   256
178
   256
179
     1
271
     1
272
     1
274
     3
278
    44
283
     0
284
     8
340
91F
371
    -1
372
    -1
1001
ACAD_DSTYLE_DIMJOGGED_JOGANGLE_SYMBOL
1070
   384
1040
1.570796326794896
  0
DIMSTYLE
105
C7D
330
A
100
AcDbSymbolTableRecord
100
AcDbDimStyleTableRecord
  2
AM_ISO
 70
     0
  4
"
 41
2.5
 42
1.0
 43
10.0
 44
1.0
 47
0.1
 48
0.1
 73
     0
 74
     0
 77
     1
 78
     8
 79
     2
140
3.5
141
0.0
143
0.0393701
146
0.71
147
1.5
172
     1
176
   256
177
   256
178
     2
271
     2
272
     3
274
     4
283
     0
284
     8
340
11
371
    -1
372
    -1
  0
ENDTAB
  0
TABLE
  2
BLOCK_RECORD
  5
1
330
0
100
AcDbSymbolTable
 70
    18
  0
BLOCK_RECORD
  5
1F
102
{ACAD_XDICTIONARY
360
1B3A
102
}
330
1
100
AcDbSymbolTableRecord
100
AcDbBlockTableRecord
  2
*Model_Space
340
22
  0
BLOCK_RECORD
  5
1B
330
1
100
AcDbSymbolTableRecord
100
AcDbBlockTableRecord
  2
*Paper_Space
340
1E
  0
BLOCK_RECORD
  5
23
330
1
100
AcDbSymbolTableRecord
100
AcDbBlockTableRecord
  2
*Paper_Space0
340
26
  0
BLOCK_RECORD
  5
919
330
1
100
AcDbSymbolTableRecord
100
AcDbBlockTableRecord
  2
_DotSmall
340
0
  0
BLOCK_RECORD
  5
922
330
1
100
AcDbSymbolTableRecord
100
AcDbBlockTableRecord
  2
base para cotas
340
0
310
2800000020000000200000000100080000000000000400000000000000000000000000000000000000000000000080000080000000808000800000008000800080800000C0C0C000C0DCC000F0CAA6000020400000206000002080000020A0000020C0000020E00000400000004020000040400000406000004080000040A0
310
000040C0000040E00000600000006020000060400000606000006080000060A0000060C0000060E00000800000008020000080400000806000008080000080A0000080C0000080E00000A0000000A0200000A0400000A0600000A0800000A0A00000A0C00000A0E00000C0000000C0200000C0400000C0600000C0800000C0
310
A00000C0C00000C0E00000E0000000E0200000E0400000E0600000E0800000E0A00000E0C00000E0E00040000000400020004000400040006000400080004000A0004000C0004000E00040200000402020004020400040206000402080004020A0004020C0004020E000404000004040200040404000404060004040800040
310
40A0004040C0004040E00040600000406020004060400040606000406080004060A0004060C0004060E00040800000408020004080400040806000408080004080A0004080C0004080E00040A0000040A0200040A0400040A0600040A0800040A0A00040A0C00040A0E00040C0000040C0200040C0400040C0600040C08000
310
40C0A00040C0C00040C0E00040E0000040E0200040E0400040E0600040E0800040E0A00040E0C00040E0E00080000000800020008000400080006000800080008000A0008000C0008000E00080200000802020008020400080206000802080008020A0008020C0008020E00080400000804020008040400080406000804080
310
008040A0008040C0008040E00080600000806020008060400080606000806080008060A0008060C0008060E00080800000808020008080400080806000808080008080A0008080C0008080E00080A0000080A0200080A0400080A0600080A0800080A0A00080A0C00080A0E00080C0000080C0200080C0400080C0600080C0
310
800080C0A00080C0C00080C0E00080E0000080E0200080E0400080E0600080E0800080E0A00080E0C00080E0E000C0000000C0002000C0004000C0006000C0008000C000A000C000C000C000E000C0200000C0202000C0204000C0206000C0208000C020A000C020C000C020E000C0400000C0402000C0404000C0406000C0
310
408000C040A000C040C000C040E000C0600000C0602000C0604000C0606000C0608000C060A000C060C000C060E000C0800000C0802000C0804000C0806000C0808000C080A000C080C000C080E000C0A00000C0A02000C0A04000C0A06000C0A08000C0A0A000C0A0C000C0A0E000C0C00000C0C02000C0C04000C0C06000
310
C0C08000C0C0A000F0FBFF00A4A0A000808080000000FF0000FF000000FFFF00FF000000FF00FF00FFFF0000FFFFFF00A4A4A4A4A4A4A4A4A4A4A4A4A4A4A4A4A4A4A4A4A4A4A4A4A4A4A4A4A4A4A4A4A4A4A4A4A4A4A4A4A4A4A4A4A4A4A4A4A4A4A4A4A4A4A4A4A4A4A4A4A4A4A4A4A4A4A4A4A4A4A4A4A4A4A4A4A4A4A4
310
A4A4A4A4A4A4A4A4A4A4A4A4A4A4A4A4A4A4A4A4A4A4A4A4A4A4A4A4A4A4A4A4A4A4A4A4A4A4A4A4A4A4A4A4A4A4A4A4A4A4A4A4A4A4A4A4A4A4A4A4A4A4A4A4A4A4A4A4A4A4A4A4A4A4A4A4A4A4A4A4A4A4A4A4A4A4A4A4A4A4A4A4A4A4A4A4A4A4A4A4A4A4A4A4A4A4A4A4A4A4A4A4A4A4A4A4A4A4A4A4A4A4A4A4A4A4A4
310
A4A4A4A4A4A4A4A4A4A4A4A4A4A4A4A4A4A4A4A4A4A4A4A4A4A4A4A4A4A4A4A4A4A4A4A4A4A4A4A4A4A4A4A4A4A4A4A4A4A4A4A4A4A4A4A4A4A4A4A4A4A4A4A4A4A4A4A4A4A4A4A4A4A4A4A4A4A4A4A4A4A4A4A4A4A4A4A4A4A4A4A4A4A4A4A4A4A4A4A4A4A4A4A4A4A4A4A4A4A4A4A4A4A4A4A4A4A4A4A4A4A4A4A4A4A4A4
310
A4A4A4A4A4A4A4A4A4A4A4A4A4A4A4A4A4A4A4A4A4A4A4A4A4A4A4A4A4A4A4A4A4A4A4A4A4A4A4A4A4A4A4A4A4A4A4A4A4A4A4A4A4A4A4A4A4A4A4A4A4A4A4A4A4A4A4A4A4A4A4A4A4A4A4A4A4A4A4A4A4A4A4A4A4A4A4A4A4A4A4A4A4A4A4A4A4A4A4A4A4A4A4A4A4A4A4A4A4A4A4A4A4A4A4A4F9F9F9F9F9F9F9F9F9F9F9
310
F9F9F9F9F9F9F9F9F9F9F9F9F9F9F9F9F9F9F9A4A4F9F9F9F9F9F9F9F9F9F9F9F9F9F9F9F9F9F9F9F9F9F9F9F9F9F9F9F9F9F9A4A4F9F9F9F9F9F9F9F9F9F9F9F9F9F9F9F9F9F9F9F9F9F9F9F9F9F9F9F9F9F9A4A4F9A4A4A4A4A4A4A4A4A4A4A4A4A4A4A4A4A4A4A4A4A4A4A4A4A4A4A4A4F9A4A4A4A4A4A4A4A4A4A4A4A4
310
A4A4A4A4A4A4A4A4A4A4A4A4A4A4A4A4A4A4A4A4A4A4A4A4A4A4A4A4A4A4A4A4A4A4A4A4A4A4A4A4A4A4A4A4A4A4A4A4A4A4A4A4A4A4A4A4A4A4A4A4A4A4A4A4A4A4A4A4A4A4A4A4A4A4A4A4A4A4A4A4A4A4A4A4A4A4A4A4A4A4A4A4A4A4A4A4A4A4A4A4A4A4A4A4A4A4A4A4A4A4A4A4A4A4A4A4A4A4A4A4A4A4A4A4A4A4A4
310
A4A4A4A4A4A4A4A4A4A4A4A4A4A4A4A4A4A4A4A4A4A4A4A4A4A4A4A4A4A4A4A4A4A4A4A4A4A4A4A4A4A4A4A4A4A4A4A4A4A4A4A4A4A4A4A4A4A4A4A4A4A4A4A4A4A4A4A4A4A4A4A4A4A4A4A4A4A4A4A4A4A4A4A4A4A4A4A4A4A4A4A4A4A4A4A4A4A4A4A4A4A4A4A4A4A4A4A4A4A4A4A4A4A4A4A4A4A4A4A4A4A4A4A4A4A4A4
310
A4A4A4A4A4A4A4A4A4A4A4A4A4A4A4A4A4A4A4A4A4A4A4A4A4A4A4A4A4A4A4A4A4A4A4A4A4A4A4A4A4A4A4A4A4A4A4A4A4A4A4A4A4A4A4A4A4A4A4A4A4A4A4A4A4A4A4A4A4A4A4A4A4A4A4A4A4A4A4A4A4A4A4A4A4A4A4A4A4A4A4A4A4A4A4A4A4A4A4A4A4A4A4A4A4A4A4A4A4A4A4A4A4A4A4A4A4A4A4A4A4A4A4A4A4A4A4
310
A4A4A4A4A4A4A4A4A4A4A4A4A4A4A4A4A4A4A4A4A4A4A4A4A4A4A4A4A4A4A4A4A4A4A4A4A4A4A4A4A4A4A4A4A4A4A4A4A4A4A4A4A4A4A4A4
1001
ACAD
1000
DesignCenter Data
1002
{
1070
     1
1070
     4
1002
}
  0
BLOCK_RECORD
  5
AA8
330
1
100
AcDbSymbolTableRecord
100
AcDbBlockTableRecord
  2
_CLOSED
340
0
  0
BLOCK_RECORD
  5
B79
330
1
100
AcDbSymbolTableRecord
100
AcDbBlockTableRecord
  2
nota revisoes
340
0
1001
ACAD
1000
DesignCenter Data
1002
{
1070
     1
1070
     4
1002
}
  0
BLOCK_RECORD
  5
B8E
330
1
100
AcDbSymbolTableRecord
100
AcDbBlockTableRecord
  2
a3l
340
0
1001
ACAD
1000
DesignCenter Data
1002
{
1070
     1
1070
     4
1002
}
  0
BLOCK_RECORD
  5
B9E
330
1
100
AcDbSymbolTableRecord
100
AcDbBlockTableRecord
  2
legenda desenvolvimento
340
0
1001
ACAD
1000
DesignCenter Data
1002
{
1070
     1
1070
     4
1002
}
  0
ENDTAB
  0
ENDSEC
  0
SECTION
  2
BLOCKS
  0
BLOCK
  5
20
330
1F
100
AcDbEntity
  8
0
100
AcDbBlockBegin
  2
*Model_Space
 70
     0
 10
0.0
 20
0.0
 30
0.0
  3
*Model_Space
  1

  0
ENDBLK
  5
21
330
1F
100
AcDbEntity
  8
0
100
AcDbBlockEnd
  0
BLOCK
  5
1C
330
1B
100
AcDbEntity
 67
     1
  8
0
100
AcDbBlockBegin
  2
*Paper_Space
 70
     0
 10
0.0
 20
0.0
 30
0.0
  3
*Paper_Space
  1

  0
ENDBLK
  5
1D
330
1B
100
AcDbEntity
 67
     1
  8
0
100
AcDbBlockEnd
  0
BLOCK
  5
24
330
23
100
AcDbEntity
 67
     1
  8
0
100
AcDbBlockBegin
  2
*Paper_Space0
 70
     0
 10
0.0
 20
0.0
 30
0.0
  3
*Paper_Space0
  1

  0
ENDBLK
  5
25
330
23
100
AcDbEntity
 67
     1
  8
0
100
AcDbBlockEnd
  0
BLOCK
  5
91B
330
919
100
AcDbEntity
  8
0
100
AcDbBlockBegin
  2
_DotSmall
 70
     0
 10
0.0
 20
0.0
 30
0.0
  3
_DotSmall
  1

  0
LWPOLYLINE
  5
91A
330
919
100
AcDbEntity
  8
0
  6
ByBlock
 62
     0
100
AcDbPolyline
 90
        2
 70
     1
 43
0.5
 10
-0.0625
 20
0.0
 42
1.0
 10
0.0625
 20
0.0
 42
1.0
  0
ENDBLK
  5
91C
330
919
100
AcDbEntity
  8
0
100
AcDbBlockEnd
  0
BLOCK
  5
92A
330
922
100
AcDbEntity
  8
0
100
AcDbBlockBegin
  2
base para cotas
 70
     0
 10
0.0
 20
0.0
 30
0.0
  3
base para cotas
  1

  0
LINE
  5
B36
330
922
100
AcDbEntity
  8
cotas
100
AcDbLine
 10
0.0
 20
-30.0
 30
0.0
 11
327.1260136525398
 21
-30.0
 31
0.0
  0
LINE
  5
B37
330
922
100
AcDbEntity
  8
cotas
100
AcDbLine
 10
0.0
 20
-25.0
 30
0.0
 11
327.1260136525398
 21
-25.0
 31
0.0
  0
LINE
  5
B38
330
922
100
AcDbEntity
  8
cotas
100
AcDbLine
 10
0.0
 20
-20.0
 30
0.0
 11
327.1260136525398
 21
-20.0
 31
0.0
  0
LINE
  5
B39
330
922
100
AcDbEntity
  8
cotas
100
AcDbLine
 10
0.0
 20
-15.0
 30
0.0
 11
327.1260136525398
 21
-15.0
 31
0.0
  0
LINE
  5
B3A
330
922
100
AcDbEntity
  8
cotas
100
AcDbLine
 10
0.0
 20
-10.0
 30
0.0
 11
327.1260136525398
 21
-10.0
 31
0.0
  0
LINE
  5
B3B
330
922
100
AcDbEntity
  8
cotas
100
AcDbLine
 10
0.0
 20
0.0
 30
0.0
 11
0.0
 21
-30.0
 31
0.0
  0
LINE
  5
B3C
330
922
100
AcDbEntity
  8
cotas
100
AcDbLine
 10
327.1260136525398
 20
-30.0
 30
0.0
 11
327.1260136525398
 21
0.0
 31
0.0
  0
ENDBLK
  5
92B
330
922
100
AcDbEntity
  8
0
100
AcDbBlockEnd
  0
BLOCK
  5
AAD
330
AA8
100
AcDbEntity
  8
0
100
AcDbBlockBegin
  2
_CLOSED
 70
     0
 10
0.0
 20
0.0
 30
0.0
  3
_CLOSED
  1

  0
LINE
  5
AA9
330
AA8
100
AcDbEntity
  8
0
100
AcDbLine
 10
-1.0
 20
0.166667
 30
0.0
 11
0.0
 21
0.0
 31
0.0
  0
LINE
  5
AAA
330
AA8
100
AcDbEntity
  8
0
100
AcDbLine
 10
0.0
 20
0.0
 30
0.0
 11
-1.0
 21
-0.166667
 31
0.0
  0
LINE
  5
AAB
330
AA8
100
AcDbEntity
  8
0
100
AcDbLine
 10
-1.0
 20
0.166667
 30
0.0
 11
-1.0
 21
-0.166667
 31
0.0
  0
LINE
  5
AAC
330
AA8
100
AcDbEntity
  8
0
100
AcDbLine
 10
0.0
 20
0.0
 30
0.0
 11
-1.0
 21
0.0
 31
0.0
  0
ENDBLK
  5
AAE
330
AA8
100
AcDbEntity
  8
0
100
AcDbBlockEnd
  0
BLOCK
  5
B7C
330
B79
100
AcDbEntity
  8
0
100
AcDbBlockBegin
  2
nota revisoes
 70
     0
 10
0.0
 20
0.0
 30
0.0
  3
nota revisoes
  1

  0
CIRCLE
  5
B7A
330
B79
100
AcDbEntity
  8
4
100
AcDbCircle
 10
0.0
 20
0.0
 30
0.0
 40
13.69426055101189
  0
TEXT
  5
B7B
330
B79
100
AcDbEntity
  8
4
100
AcDbText
 10
-5.496248358154345
 20
-5.354545554066362
 30
0.0
 40
12.0
  1
1
  7
SANINDUSA
 72
     1
 11
-0.249774214433728
 21
-5.354545554066362
 31
0.0
100
AcDbText
  0
ENDBLK
  5
B7D
330
B79
100
AcDbEntity
  8
0
100
AcDbBlockEnd
  0
BLOCK
  5
B9C
330
B8E
100
AcDbEntity
  8
0
100
AcDbBlockBegin
  2
a3l
 70
     0
 10
0.0
 20
0.0
 30
0.0
  3
a3l
  1

  0
LINE
  5
B8F
330
B8E
100
AcDbEntity
  8
1
100
AcDbLine
 10
-364.2925296599447
 20
-362.1188951399395
 30
0.0
 11
-364.2925296599447
 21
-65.11889513993946
 31
0.0
  0
LINE
  5
B90
330
B8E
100
AcDbEntity
  8
4
100
AcDbLine
 10
-369.2925296599447
 20
-357.1188951399395
 30
0.0
 11
-369.2925296599447
 21
-70.11889513993946
 31
0.0
  0
LINE
  5
B91
330
B8E
100
AcDbEntity
  8
1
100
AcDbLine
 10
-784.2925296599446
 20
-65.11889513993946
 30
0.0
 11
-784.2925296599446
 21
-362.1188951399395
 31
0.0
  0
LINE
  5
B92
330
B8E
100
AcDbEntity
  8
4
100
AcDbLine
 10
-759.2925296599446
 20
-357.1188951399395
 30
0.0
 11
-759.2925296599446
 21
-70.11889513993946
 31
0.0
  0
LINE
  5
B93
330
B8E
100
AcDbEntity
  8
1
100
AcDbLine
 10
-784.2925296599446
 20
-362.1188951399395
 30
0.0
 11
-364.2925296599447
 21
-362.1188951399395
 31
0.0
  0
LINE
  5
B94
330
B8E
100
AcDbEntity
  8
4
100
AcDbLine
 10
-759.2925296599446
 20
-357.1188951399395
 30
0.0
 11
-369.2925296599447
 21
-357.1188951399395
 31
0.0
  0
LINE
  5
B95
330
B8E
100
AcDbEntity
  8
1
100
AcDbLine
 10
-654.2925296599446
 20
-357.1188951399395
 30
0.0
 11
-654.2925296599446
 21
-362.1188951399395
 31
0.0
  0
LINE
  5
B96
330
B8E
100
AcDbEntity
  8
1
100
AcDbLine
 10
-364.2925296599447
 20
-65.11889513993946
 30
0.0
 11
-784.2925296599446
 21
-65.11889513993946
 31
0.0
  0
LINE
  5
B97
330
B8E
100
AcDbEntity
  8
4
100
AcDbLine
 10
-369.2925296599447
 20
-70.11889513993946
 30
0.0
 11
-759.2925296599446
 21
-70.11889513993946
 31
0.0
  0
LINE
  5
B98
330
B8E
100
AcDbEntity
  8
1
100
AcDbLine
 10
-654.2925296599446
 20
-65.11889513993946
 30
0.0
 11
-654.2925296599446
 21
-70.11889513993946
 31
0.0
  0
LINE
  5
B99
330
B8E
100
AcDbEntity
  8
1
100
AcDbLine
 10
-549.2925296599446
 20
-70.11889513993946
 30
0.0
 11
-549.2925296599446
 21
-65.11889513993946
 31
0.0
  0
LINE
  5
B9A
330
B8E
100
AcDbEntity
  8
1
100
AcDbLine
 10
-369.2925296599447
 20
-65.11889513993946
 30
0.0
 11
-364.2925296599447
 21
-65.11889513993946
 31
0.0
  0
LINE
  5
B9B
330
B8E
100
AcDbEntity
  8
1
100
AcDbLine
 10
-549.2925296599446
 20
-357.1188951399395
 30
0.0
 11
-549.2925296599446
 21
-362.1188951399395
 31
0.0
  0
ENDBLK
  5
B9D
330
B8E
100
AcDbEntity
  8
0
100
AcDbBlockEnd
  0
BLOCK
  5
C13
330
B9E
100
AcDbEntity
  8
0
100
AcDbBlockBegin
  2
legenda desenvolvimento
 70
     2
 10
0.0
 20
0.0
 30
0.0
  3
legenda desenvolvimento
  1

  0
ATTDEF
  5
B9F
330
B9E
100
AcDbEntity
  8
1
100
AcDbText
 10
-108.606245802552
 20
55.5
 30
0.0
 40
4.0
  1
XXXXXXXXXXXXXX
 41
0.8
  7
SANINDUSA
 72
     4
 11
-87.5
 21
57.5
 31
0.0
100
AcDbAttributeDefinition
  3
Nome do Produto:
  2
PRODUTO
 70
     0
  0
ATTDEF
  5
BA0
330
B9E
100
AcDbEntity
  8
1
100
AcDbText
 10
-97.9997966101695
 20
41.25
 30
0.0
 40
3.0
  1
XXXXXXXXX
 41
0.8
  7
futura
 72
     4
 11
-87.5
 21
42.75
 31
0.0
100
AcDbAttributeDefinition
  3
Nome da Peça:
  2
PECA
 70
     0
  0
ATTDEF
  5
BA1
330
B9E
100
AcDbEntity
  8
1
100
AcDbText
 10
-133.4422431161853
 20
21.11745296763252
 30
0.0
 40
2.5
  1
X
 41
0.8
  7
SANINDUSA
 72
     4
 11
-132.5
 21
22.36745296763252
 31
0.0
100
AcDbAttributeDefinition
  3
Cod. TESTE:
  2
TESTE
 70
     0
  0
ATTDEF
  5
BA2
330
B9E
100
AcDbEntity
  8
1
100
AcDbText
 10
-124.3844862323707
 20
21.11745296763252
 30
0.0
 40
2.5
  1
XX
 41
0.8
  7
SANINDUSA
 72
     4
 11
-122.5
 21
22.36745296763252
 31
0.0
100
AcDbAttributeDefinition
  3
Cod. Ano:
  2
ANO
 70
     0
  0
ATTDEF
  5
BA3
330
B9E
100
AcDbEntity
  8
1
100
AcDbText
 10
-112.526889953052
 20
21.11745296763252
 30
0.0
 40
2.5
  1
XXX
 41
0.8
  7
SANINDUSA
 72
     4
 11
-109.700160604496
 21
22.36745296763252
 31
0.0
100
AcDbAttributeDefinition
  3
Cod. Sequência:
  2
SEQUENCIA
 70
     0
  0
ATTDEF
  5
BA4
330
B9E
100
AcDbEntity
  8
1
100
AcDbText
 10
-99.35382430979316
 20
21.11745296763252
 30
0.0
 40
2.5
  1
XX
 41
0.8
  7
SANINDUSA
 72
     4
 11
-97.46933807742244
 21
22.36745296763252
 31
0.0
100
AcDbAttributeDefinition
  3
Cod. Tipo:
  2
TIPO
 70
     0
  0
ATTDEF
  5
BA5
330
B9E
100
AcDbEntity
  8
1
100
AcDbText
 10
-87.42035911468438
 20
21.11745296763252
 30
0.0
 40
2.5
  1
XXX
 41
0.8
  7
SANINDUSA
 72
     4
 11
-84.59362976612828
 21
22.36745296763252
 31
0.0
100
AcDbAttributeDefinition
  3
Cod. Produto:
  2
PRODUTO
 70
     0
  0
ATTDEF
  5
BA6
330
B9E
100
AcDbEntity
  8
1
100
AcDbText
 10
-74.62051971917853
 20
21.11745296763252
 30
0.0
 40
2.5
  1
XXX
 41
0.8
  7
SANINDUSA
 72
     4
 11
-71.79379037062244
 21
22.36745296763252
 31
0.0
100
AcDbAttributeDefinition
  3
Cod. Peça:
  2
PECA
 70
     0
  0
ATTDEF
  5
BA7
330
B9E
100
AcDbEntity
  8
1
100
AcDbText
 10
-61.10603446650329
 20
21.11745296763252
 30
0.0
 40
2.5
  1
XX
 41
0.8
  7
SANINDUSA
 72
     4
 11
-59.22154823413257
 21
22.36745296763252
 31
0.0
100
AcDbAttributeDefinition
  3
Cod. Revisão:
  2
REV
 70
     0
  0
ATTDEF
  5
BA8
330
B9E
100
AcDbEntity
  8
1
100
AcDbText
 10
-48.43615325006194
 20
21.11745296763252
 30
0.0
 40
2.5
  1
XX
 41
0.8
  7
SANINDUSA
 72
     4
 11
-46.55166701769121
 21
22.36745296763252
 31
0.0
100
AcDbAttributeDefinition
  3
Cod. Alteração:
  2
ALT
 70
     0
  0
ATTDEF
  5
BA9
330
B9E
100
AcDbEntity
  8
1
100
AcDbText
 10
-35.19086635325722
 20
23.98875083948959
 30
0.0
 40
3.0
  1
1/XXX
 41
0.8
  7
SANINDUSA
 72
     4
 11
-30.0
 21
25.25
 31
0.0
100
AcDbAttributeDefinition
  3
Escala geral:
  2
ESCALA
 70
     0
  0
ATTDEF
  5
BAA
330
B9E
100
AcDbEntity
  8
1
100
AcDbText
 10
-15.65345869711215
 20
23.75
 30
0.0
 40
3.0
  1
XXXXX
 41
0.8
  7
SANINDUSA
 72
     4
 11
-10.0
 21
25.25
 31
0.0
100
AcDbAttributeDefinition
  3
Folha:
  2
FOLHA
 70
     0
  0
ATTDEF
  5
BAB
330
B9E
100
AcDbEntity
  8
1
100
AcDbText
 10
-178.5146998822042
 20
56.9531347542807
 30
0.0
 40
2.0
  1
xx
 41
0.8
  7
SANINDUSA
 72
     4
 11
-177.2123493113513
 21
57.70330265219877
 31
0.0
100
AcDbAttributeDefinition
  3
revisão
  2
REV.
 70
     0
  0
ATTDEF
  5
BAC
330
B9E
100
AcDbEntity
  8
1
100
AcDbText
 10
-172.7849640077129
 20
56.9531347542807
 30
0.0
 40
2.0
  1
xx
 41
0.8
  7
SANINDUSA
 72
     4
 11
-171.48261343686
 21
57.70330265219877
 31
0.0
100
AcDbAttributeDefinition
  3
alteração
  2
ALT.
 70
     0
  0
ATTDEF
  5
BAD
330
B9E
100
AcDbEntity
  8
1
100
AcDbText
 10
-168.007199951307
 20
56.70330265219877
 30
0.0
 40
2.0
  1
xx/xx/xxxx
 41
0.8
  7
SANINDUSA
 11
-168.007199951307
 21
57.70330265219877
 31
0.0
100
AcDbAttributeDefinition
  3
data
  2
DATA
 70
     0
 74
     2
  0
ATTDEF
  5
BAE
330
B9E
100
AcDbEntity
  8
1
100
AcDbText
 10
-168.5396372253371
 20
13.15916722632639
 30
0.0
 40
2.0
  1
XX/XX/XXXX
 41
0.8
  7
SANINDUSA
 72
     4
 11
-161.5099528734231
 21
14.0
 31
0.0
100
AcDbAttributeDefinition
  3
Data projecto
  2
DATA_PROJ
 70
     0
  0
ATTDEF
  5
BAF
330
B9E
100
AcDbEntity
  8
1
100
AcDbText
 10
-150.8658110728766
 20
13.24983210208193
 30
0.0
 40
2.0
  1
xxxxxxxx
 41
0.8
  7
SANINDUSA
 72
     4
 11
-145.6564087894649
 21
14.0
 31
0.0
100
AcDbAttributeDefinition
  3
nome de quem projectou
  2
NOME
 70
     0
  0
ATTDEF
  5
BB0
330
B9E
100
AcDbEntity
  8
1
100
AcDbText
 10
-168.5396372253371
 20
9.159167226326394
 30
0.0
 40
2.0
  1
XX/XX/XXXX
 41
0.8
  7
SANINDUSA
 72
     4
 11
-161.5099528734231
 21
10.0
 31
0.0
100
AcDbAttributeDefinition
  3
Data desenhou
  2
DATA_DES
 70
     0
  0
ATTDEF
  5
BB1
330
B9E
100
AcDbEntity
  8
1
100
AcDbText
 10
-151.516986358303
 20
9.249832102081933
 30
0.0
 40
2.0
  1
xxxxxxxxx
 41
0.8
  7
SANINDUSA
 72
     4
 11
-145.6564087894649
 21
10.0
 31
0.0
100
AcDbAttributeDefinition
  3
nome
  2
NOME
 70
     0
  0
ATTDEF
  5
BB2
330
B9E
100
AcDbEntity
  8
1
100
AcDbText
 10
-127.2924214135946
 20
14.1979876583216
 30
0.0
 40
2.0
  1
Vitreous China
 41
0.8
  7
SANINDUSA
 72
     4
 11
-119.231709526422
 21
15.22216495852308
 31
0.0
100
AcDbAttributeDefinition
  3
Nome do Material:
  2
MATERIAL
 70
     0
  0
ATTDEF
  5
BB3
330
B9E
100
AcDbEntity
  8
1
100
AcDbText
 10
-103.1563452122093
 20
14.38019043949261
 30
0.0
 40
2.0
  1
Branco
 41
0.8
  7
SANINDUSA
 72
     4
 11
-99.33418268702462
 21
15.35937109765245
 31
0.0
100
AcDbAttributeDefinition
  3
cor da peça
  2
COR
 70
     0
  0
ATTDEF
  5
BB4
330
B9E
100
AcDbEntity
  8
1
100
AcDbText
 10
-116.7235057085292
 20
5.975822699798522
 30
0.0
 40
2.0
  1
Vidrado
 41
0.8
  7
SANINDUSA
 72
     4
 11
-112.5
 21
7.0
 31
0.0
100
AcDbAttributeDefinition
  3
Tipo de acabamento:
  2
ACABAMENTO
 70
     0
  0
ATTDEF
  5
BB5
330
B9E
100
AcDbEntity
  8
1
100
AcDbText
 10
-79.18527869967246
 20
16.65066409850533
 30
0.0
 40
2.0
  1
XXXXXXX
 41
0.8
  7
SANINDUSA
 72
     4
 11
-73.90871724903445
 21
17.65066409850533
 31
0.0
100
AcDbAttributeDefinition
  3
Normas
  2
NORMAS
 70
     0
  0
ATTDEF
  5
BB6
330
B9E
100
AcDbEntity
  8
1
100
AcDbText
 10
-30.55312290127603
 20
14.0
 30
0.0
 40
2.0
  1
XXXXXXXXXXXXXX
 41
0.8
  7
SANINDUSA
 72
     4
 11
-20.0
 21
15.0
 31
0.0
100
AcDbAttributeDefinition
  3
Substitui o desenho:
  2
SUBSTITUI
 70
     0
  0
ATTDEF
  5
BB7
330
B9E
100
AcDbEntity
  8
1
100
AcDbText
 10
-31.30691739422431
 20
6.0
 30
0.0
 40
2.0
  1
XXXXXXXXXXXXXXX
 41
0.8
  7
SANINDUSA
 72
     4
 11
-20.0
 21
7.0
 31
0.0
100
AcDbAttributeDefinition
  3
Substituido por:
  2
SUBSTITUIDO
 70
     0
  0
ATTDEF
  5
BB8
330
B9E
100
AcDbEntity
  8
1
100
AcDbText
 10
-110.0220608548302
 20
1.478208457928303
 30
0.0
 40
2.0
  1
XXXXXXXXXXXXXXXXXXXXXXXXXXXXXXXXXX
 41
0.8
  7
SANINDUSA
 11
-110.0220608548302
 21
2.478208457928303
 31
0.0
100
AcDbAttributeDefinition
  3
Localização do desenho:
  2
LOC-DWG
 70
     0
 74
     2
  0
LINE
  5
BB9
330
B9E
100
AcDbEntity
  8
3
100
AcDbLine
 10
-135.0
 20
4.0
 30
0.0
 11
0.0000000000004547
 21
4.0
 31
0.0
  0
LINE
  5
BBA
330
B9E
100
AcDbEntity
  8
3
100
AcDbLine
 10
-90.00000000000046
 20
12.0
 30
0.0
 11
-135.0
 21
12.0
 31
0.0
  0
LINE
  5
BBB
330
B9E
100
AcDbEntity
  8
3
100
AcDbLine
 10
-135.0
 20
32.5
 30
0.0
 11
-40.0
 21
32.5
 31
0.0
  0
TEXT
  5
BBC
330
B9E
100
AcDbEntity
  8
1
100
AcDbText
 10
-134.0
 20
1.25
 30
0.0
 40
2.0
  1
Localização do des.:
 41
0.8
  7
SANINDUSA
 11
-134.0
 21
2.25
 31
0.0
100
AcDbText
 73
     2
  0
LINE
  5
BBD
330
B9E
100
AcDbEntity
  8
3
100
AcDbLine
 10
-180.0
 20
65.0
 30
0.0
 11
0.0
 21
65.0
 31
0.0
  0
LINE
  5
BBE
330
B9E
100
AcDbEntity
  8
leg fin
100
AcDbLine
 10
-40.0
 20
25.05956924886846
 30
0.0
 11
-135.0
 21
25.05956924886846
 31
0.0
  0
LINE
  5
BBF
330
B9E
100
AcDbEntity
  8
leg fin
100
AcDbLine
 10
-40.0
 20
28.5
 30
0.0
 11
-135.0
 21
28.5
 31
0.0
  0
LINE
  5
BC0
330
B9E
100
AcDbEntity
  8
3
100
AcDbLine
 10
-135.0
 20
50.0
 30
0.0
 11
-40.0
 21
50.0
 31
0.0
  0
TEXT
  5
BC1
330
B9E
100
AcDbEntity
  8
1
100
AcDbText
 10
-134.0
 20
29.75
 30
0.0
 40
2.0
  1
Desenho nº:
 41
0.8
  7
SANINDUSA
 11
-134.0
 21
30.75
 31
0.0
100
AcDbText
 73
     2
  0
TEXT
  5
BC2
330
B9E
100
AcDbEntity
  8
1
100
AcDbText
 10
-134.0
 20
9.25
 30
0.0
 40
2.0
  1
Acabamento:
 41
0.8
  7
SANINDUSA
 11
-134.0
 21
10.25
 31
0.0
100
AcDbText
 73
     2
  0
LINE
  5
BC3
330
B9E
100
AcDbEntity
  8
3
100
AcDbLine
 10
-180.0
 20
20.0
 30
0.0
 11
0.0
 21
20.0
 31
0.0
  0
LINE
  5
BC4
330
B9E
100
AcDbEntity
  8
1
100
AcDbLine
 10
-174.5810776056337
 20
55.5
 30
0.0
 11
-174.5810776056337
 21
65.0
 31
0.0
  0
LINE
  5
BC5
330
B9E
100
AcDbEntity
  8
1
100
AcDbLine
 10
-168.9210461879161
 20
55.5
 30
0.0
 11
-168.9210461879161
 21
65.0
 31
0.0
  0
LINE
  5
BC6
330
B9E
100
AcDbEntity
  8
1
100
AcDbLine
 10
-154.0988595589306
 20
55.5
 30
0.0
 11
-154.0988595589306
 21
65.0
 31
0.0
  0
LINE
  5
BC7
330
B9E
100
AcDbEntity
  8
3
100
AcDbLine
 10
-180.0
 20
65.0
 30
0.0
 11
-180.0
 21
0.0
 31
0.0
  0
LINE
  5
BC8
330
B9E
100
AcDbEntity
  8
3
100
AcDbLine
 10
-135.0
 20
0.0
 30
0.0
 11
-135.0
 21
65.0
 31
0.0
  0
TEXT
  5
BC9
330
B9E
100
AcDbEntity
  8
1
100
AcDbText
 10
-179.0
 20
9.75
 30
0.0
 40
1.5
  1
Des.
 41
0.8
  7
SANINDUSA
 11
-179.0
 21
10.5
 31
0.0
100
AcDbText
 73
     2
  0
LINE
  5
BCA
330
B9E
100
AcDbEntity
  8
1
100
AcDbLine
 10
-168.9210461879161
 20
20.0
 30
0.0
 11
-168.9210461879161
 21
0.0
 31
0.0
  0
LINE
  5
BCB
330
B9E
100
AcDbEntity
  8
1
100
AcDbLine
 10
-154.0988595589306
 20
20.0
 30
0.0
 11
-154.0988595589306
 21
0.0
 31
0.0
  0
LINE
  5
BCC
330
B9E
100
AcDbEntity
  8
1
100
AcDbLine
 10
-180.0
 20
4.0
 30
0.0
 11
-135.0
 21
4.0
 31
0.0
  0
LINE
  5
BCD
330
B9E
100
AcDbEntity
  8
1
100
AcDbLine
 10
-180.0
 20
8.0
 30
0.0
 11
-135.0
 21
8.0
 31
0.0
  0
TEXT
  5
BCE
330
B9E
100
AcDbEntity
  8
1
100
AcDbText
 10
-179.0
 20
1.73257823687436
 30
0.0
 40
1.5
  1
Aprov.
 41
0.8
  7
SANINDUSA
 11
-179.0
 21
2.48257823687436
 31
0.0
100
AcDbText
 73
     2
  0
TEXT
  5
BCF
330
B9E
100
AcDbEntity
  8
1
100
AcDbText
 10
-179.0
 20
5.75
 30
0.0
 40
1.5
  1
Ver.
 41
0.8
  7
SANINDUSA
 11
-179.0
 21
6.5
 31
0.0
100
AcDbText
 73
     2
  0
LINE
  5
BD0
330
B9E
100
AcDbEntity
  8
1
100
AcDbLine
 10
-180.0
 20
16.0
 30
0.0
 11
-135.0
 21
16.0
 31
0.0
  0
LINE
  5
BD1
330
B9E
100
AcDbEntity
  8
1
100
AcDbLine
 10
-180.0
 20
12.0
 30
0.0
 11
-135.0
 21
12.0
 31
0.0
  0
TEXT
  5
BD2
330
B9E
100
AcDbEntity
  8
1
100
AcDbText
 10
-179.0
 20
13.75
 30
0.0
 40
1.5
  1
Proj.
 41
0.8
  7
SANINDUSA
 11
-179.0
 21
14.5
 31
0.0
100
AcDbText
 73
     2
  0
TEXT
  5
BD3
330
B9E
100
AcDbEntity
  8
1
100
AcDbText
 10
-167.9210461879161
 20
17.75
 30
0.0
 40
1.5
  1
Data
 41
0.8
  7
SANINDUSA
 11
-167.9210461879161
 21
18.5
 31
0.0
100
AcDbText
 73
     2
  0
TEXT
  5
BD4
330
B9E
100
AcDbEntity
  8
1
100
AcDbText
 10
-153.0988595589306
 20
17.75
 30
0.0
 40
1.5
  1
Nome
 41
0.8
  7
SANINDUSA
 11
-153.0988595589306
 21
18.5
 31
0.0
100
AcDbText
 73
     2
  0
LINE
  5
BD5
330
B9E
100
AcDbEntity
  8
leg fin
100
AcDbLine
 10
-130.0
 20
20.0
 30
0.0
 11
-130.0
 21
28.5
 31
0.0
  0
TEXT
  5
BD6
330
B9E
100
AcDbEntity
  8
1
100
AcDbText
 10
-134.0
 20
17.25
 30
0.0
 40
2.0
  1
Material:
 41
0.8
  7
SANINDUSA
 11
-134.0
 21
18.25
 31
0.0
100
AcDbText
 73
     2
  0
TEXT
  5
BD7
330
B9E
100
AcDbEntity
  8
1
100
AcDbText
 10
-129.0
 20
26.43288406845113
 30
0.0
 40
1.5
  1
Ano:
 41
0.8
  7
SANINDUSA
 11
-129.0
 21
27.18288406845113
 31
0.0
100
AcDbText
 73
     2
  0
LINE
  5
BD8
330
B9E
100
AcDbEntity
  8
1
100
AcDbLine
 10
-180.0
 20
55.5
 30
0.0
 11
-135.0
 21
55.5
 31
0.0
  0
TEXT
  5
BD9
330
B9E
100
AcDbEntity
  8
1
100
AcDbText
 10
-179.0
 20
52.67772246885193
 30
0.0
 40
1.5
  1
descrição
 41
0.8
  7
SANINDUSA
 11
-179.0
 21
53.42772246885193
 31
0.0
100
AcDbText
 73
     2
  0
TEXT
  5
BDA
330
B9E
100
AcDbEntity
  8
1
100
AcDbText
 10
-134.0
 20
47.25
 30
0.0
 40
2.0
  1
Peça:
 41
0.8
  7
SANINDUSA
 11
-134.0
 21
48.25
 31
0.0
100
AcDbText
 73
     2
  0
LINE
  5
BDB
330
B9E
100
AcDbEntity
  8
1
100
AcDbLine
 10
-180.0
 20
59.5
 30
0.0
 11
-135.0
 21
59.5
 31
0.0
  0
TEXT
  5
BDC
330
B9E
100
AcDbEntity
  8
1
100
AcDbText
 10
-173.5810776056337
 20
62.75
 30
0.0
 40
1.5
  1
Alt.
 41
0.8
  7
SANINDUSA
 11
-173.5810776056337
 21
63.5
 31
0.0
100
AcDbText
 73
     2
  0
TEXT
  5
BDD
330
B9E
100
AcDbEntity
  8
1
100
AcDbText
 10
-179.0
 20
62.75
 30
0.0
 40
1.5
  1
Rev.
 41
0.8
  7
SANINDUSA
 11
-179.0
 21
63.5
 31
0.0
100
AcDbText
 73
     2
  0
TEXT
  5
BDE
330
B9E
100
AcDbEntity
  8
1
100
AcDbText
 10
-167.9210461879161
 20
62.75
 30
0.0
 40
1.5
  1
Data
 41
0.8
  7
SANINDUSA
 11
-167.9210461879161
 21
63.5
 31
0.0
100
AcDbText
 73
     2
  0
TEXT
  5
BDF
330
B9E
100
AcDbEntity
  8
1
100
AcDbText
 10
-153.0988595589306
 20
62.75
 30
0.0
 40
1.5
  1
Nome
 41
0.8
  7
SANINDUSA
 11
-153.0988595589306
 21
63.5
 31
0.0
100
AcDbText
 73
     2
  0
TEXT
  5
BE0
330
B9E
100
AcDbEntity
  8
1
100
AcDbText
 10
-134.0
 20
62.25
 30
0.0
 40
2.0
  1
Produto:
 41
0.8
  7
SANINDUSA
 11
-134.0
 21
63.25
 31
0.0
100
AcDbText
 73
     2
  0
LINE
  5
BE1
330
B9E
100
AcDbEntity
  8
3
100
AcDbLine
 10
-40.0
 20
4.0
 30
0.0
 11
-40.0
 21
65.0
 31
0.0
  0
LWPOLYLINE
  5
BE2
102
{ACAD_REACTORS
330
BEC
102
}
330
B9E
100
AcDbEntity
  8
9
100
AcDbPolyline
 90
       12
 70
     1
 43
0.0
 10
-3.038714600644652
 20
58.90010174665076
 10
-5.726962862472191
 20
58.90010174665076
 10
-5.726962862472191
 20
58.5001017466509
 10
-3.038748516195028
 20
58.5001017466509
 42
-0.4142135623731731
 10
-2.638748516194482
 20
58.1001017466508
 10
-2.638748516194482
 20
57.42799728675596
 10
-5.21497371544865
 20
57.42799728675596
 42
0.4142135623731289
 10
-6.014973715448377
 20
56.627997286756
 10
-6.014973715448377
 20
55.92380871629643
 42
0.4142135623731132
 10
-5.21497371544865
 20
55.12380871629648
 10
-2.23871460064447
 20
55.12380871629648
 10
-2.23871460064447
 20
58.10010174665103
 42
0.4142135623730717
  0
LWPOLYLINE
  5
BE3
102
{ACAD_REACTORS
330
BEC
102
}
330
B9E
100
AcDbEntity
  8
9
100
AcDbPolyline
 90
       20
 70
     1
 43
0.0
 10
-10.01531287095122
 20
57.82799728675581
 10
-10.01531287095122
 20
58.10010174665103
 42
-0.4142135623730744
 10
-9.615312870951584
 20
58.5001017466509
 10
-6.92703069357276
 20
58.5001017466509
 10
-6.92703069357276
 20
58.90010174665076
 10
-9.615346786501959
 20
58.90010174665076
 42
0.4142135623730883
 10
-10.41534678650168
 20
58.1001017466508
 10
-10.41534678650168
 20
57.82796337120567
 42
0.4142135623730717
 10
-9.615346786501959
 20
57.02796337120571
 10
-7.423079531965413
 20
57.02796337120571
 42
-0.4142135623730847
 10
-7.023079531965322
 20
56.62796337120562
 10
-7.023079531965322
 20
55.90786840766487
 42
-0.4142135623730744
 10
-7.423079531965413
 20
55.507868407665
 10
-10.41534678650168
 20
55.507868407665
 10
-10.41534678650168
 20
55.12380871629648
 10
-7.445787917283723
 20
55.12380871629648
 42
0.4114777732064574
 10
-6.645822882998345
 20
55.9163291493976
 10
-6.639238813324936
 20
56.62051771985716
 42
0.4169546541682913
 10
-7.439203847610315
 20
57.42799728675596
 10
-9.615312870951584
 20
57.42799728675596
 42
-0.4142135623731576
  0
LWPOLYLINE
  5
BE4
102
{ACAD_REACTORS
330
BEC
102
}
330
B9E
100
AcDbEntity
  8
9
100
AcDbPolyline
 90
       12
 70
     1
 43
0.0
 10
-14.41561811090378
 20
58.90010174665076
 10
-14.79964388672215
 20
58.90010174665076
 10
-14.79964388672215
 20
55.92380871629643
 42
0.4142135623731133
 10
-13.99964388672242
 20
55.12380871629648
 10
-11.8233508563676
 20
55.12380871629648
 42
0.4142135623730872
 10
-11.02335085636741
 20
55.92380871629643
 10
-11.02335085636741
 20
58.90010174665076
 10
-11.42338477191788
 20
58.90010174665076
 10
-11.42338477191788
 20
55.91567577726095
 42
-0.4131711701795318
 10
-11.82196067063523
 20
55.51567831234956
 10
-14.0141940096214
 20
55.50787335710947
 42
-0.4152567234624407
 10
-14.41561811090378
 20
55.90787082202087
  0
LWPOLYLINE
  5
BE5
102
{ACAD_REACTORS
330
BEC
102
}
330
B9E
100
AcDbEntity
  8
9
100
AcDbPolyline
 90
        6
 70
     1
 43
0.0
 10
-15.80771578768872
 20
55.507868407665
 10
-18.39994912667453
 20
55.507868407665
 42
-0.4142135623731731
 10
-18.79994912667462
 20
55.90786840766487
 10
-18.79994912667462
 20
58.10010174665103
 42
-0.4142135623730744
 10
-18.39994912667453
 20
58.5001017466509
 10
-15.80771578768872
 20
58.5001017466509
  0
LWPOLYLINE
  5
BE6
102
{ACAD_REACTORS
330
BEC
102
}
330
B9E
100
AcDbEntity
  8
9
100
AcDbPolyline
 90
        8
 70
     1
 43
0.0
 10
-15.4236900118708
 20
59.87619128370352
 10
-15.80771578768872
 20
59.87619128370352
 10
-15.80771578768872
 20
58.90010174665076
 10
-18.39176256411201
 20
58.90010174665076
 42
0.4131164467977967
 10
-19.19175694739761
 20
58.1030995310698
 10
-19.1999120763262
 20
55.92680650071542
 42
0.4153115297271718
 10
-18.39991769304061
 20
55.12380871629648
 10
-15.4236900118708
 20
55.12380871629648
  0
LWPOLYLINE
  5
BE7
102
{ACAD_REACTORS
330
BEC
102
}
330
B9E
100
AcDbEntity
  8
9
100
AcDbPolyline
 90
       10
 70
     1
 43
0.0
 10
-20.59201288790928
 20
58.90010174665076
 10
-23.56830591826338
 20
58.90010174665076
 10
-23.56830591826338
 20
55.12380871629648
 10
-23.18424622689509
 20
55.12380871629648
 10
-23.18424622689509
 20
58.5001017466509
 10
-20.59204680345965
 20
58.5001017466509
 42
-0.4142135623730898
 10
-20.19204680345956
 20
58.1001017466508
 10
-20.19204680345956
 20
55.12380871629648
 10
-19.79201288790909
 20
55.12380871629648
 10
-19.79201288790909
 20
58.10010174665103
 42
0.4142135623731132
  0
LWPOLYLINE
  5
BE8
102
{ACAD_REACTORS
330
BEC
102
}
330
B9E
100
AcDbEntity
  8
9
100
AcDbPolyline
 90
        4
 70
     1
 43
0.0
 10
-24.19231812786165
 20
58.90010174665076
 10
-24.57637781922995
 20
58.90010174665076
 10
-24.57637781922995
 20
55.12380871629648
 10
-24.19231812786165
 20
55.12380871629648
  0
LWPOLYLINE
  5
BE9
102
{ACAD_REACTORS
330
BEC
102
}
330
B9E
100
AcDbEntity
  8
9
100
AcDbPolyline
 90
       10
 70
     1
 43
0.0
 10
-28.57661522808212
 20
58.5001017466509
 10
-25.98444972019706
 20
58.5001017466509
 42
-0.4142135623731731
 10
-25.58444972019652
 20
58.1001017466508
 10
-25.58444972019652
 20
55.12380871629648
 10
-25.2004239443786
 20
55.12380871629648
 10
-25.2004239443786
 20
58.10010174665103
 42
0.4142135623730717
 10
-26.00042394437833
 20
58.90010174665076
 10
-28.97664914363259
 20
58.90010174665076
 10
-28.97664914363259
 20
55.12380871629648
 10
-28.57661522808212
 20
55.12380871629648
  0
LWPOLYLINE
  5
BEA
102
{ACAD_REACTORS
330
BEC
102
}
330
B9E
100
AcDbEntity
  8
9
100
AcDbPolyline
 90
       12
 70
     1
 43
0.0
 10
-29.58465321349832
 20
58.10010174665103
 42
0.4142135623730716
 10
-30.3846532134985
 20
58.90010174665076
 10
-33.07296930642724
 20
58.90010174665076
 10
-33.07296930642724
 20
58.5001017466509
 10
-30.38468712904842
 20
58.5001017466509
 42
-0.4142135623730067
 10
-29.98468712904878
 20
58.1001017466508
 10
-29.98468712904878
 20
57.42799728675618
 10
-32.56098015940324
 20
57.42799728675596
 42
0.4142135623731289
 10
-33.36098015940343
 20
56.627997286756
 10
-33.36098015940343
 20
55.92380871629643
 42
0.4142135623731132
 10
-32.56098015940324
 20
55.12380871629648
 10
-29.58465321349832
 20
55.12380871629648
  0
LWPOLYLINE
  5
BEB
102
{ACAD_REACTORS
330
BEC
102
}
330
B9E
100
AcDbEntity
  8
9
100
AcDbPolyline
 90
       20
 70
     1
 43
0.0
 10
-34.7850262845518
 20
57.42799728675596
 10
-36.96125148380543
 20
57.42799728675596
 42
-0.4142135623730898
 10
-37.36125148380552
 20
57.82799728675604
 10
-37.36125148380552
 20
58.10010174665103
 42
-0.4142135623730744
 10
-36.96125148380543
 20
58.5001017466509
 10
-34.27303713752781
 20
58.50010174665067
 10
-34.27303713752781
 20
58.90010174665076
 10
-36.96128539935535
 20
58.90010174665076
 42
0.4142135623731289
 10
-37.76128539935553
 20
58.1001017466508
 10
-37.76128539935553
 20
57.82796337120567
 42
0.4142135623730716
 10
-36.9612853993558
 20
57.02796337120571
 10
-34.76901814481926
 20
57.02796337120571
 42
-0.414213562373168
 10
-34.36901814481962
 20
56.62796337120562
 10
-34.36901814481962
 20
55.90786840766487
 42
-0.4142135623730744
 10
-34.76901814481926
 20
55.507868407665
 10
-37.76128539935553
 20
55.507868407665
 10
-37.76128539935553
 20
55.12380871629648
 10
-34.7850262845518
 20
55.12380871629648
 42
0.4142135623731289
 10
-33.98502628455162
 20
55.92380871629643
 10
-33.98502628455162
 20
56.627997286756
 42
0.4142135623731132
  0
HATCH
  5
BEC
330
B9E
100
AcDbEntity
  8
9
100
AcDbHatch
 10
0.0
 20
0.0
 30
0.0
210
0.0
220
0.0
230
1.0
  2
SOLID
 70
     1
 71
     1
 91
       13
 92
        7
 72
     1
 73
     1
 93
       20
 10
-34.36901814481962
 20
55.90786840766487
 42
-0.414213562372991
 10
-34.76901814481926
 20
55.507868407665
 42
0.0
 10
-37.76128539935553
 20
55.507868407665
 42
0.0
 10
-37.76128539935553
 20
55.12380871629648
 42
0.0
 10
-34.7850262845518
 20
55.12380871629648
 42
0.4142135623731705
 10
-33.98502628455162
 20
55.92380871629666
 42
0.0
 10
-33.98502628455162
 20
56.627997286756
 42
0.4142135623731547
 10
-34.7850262845518
 20
57.42799728675596
 42
0.0
 10
-36.96125148380543
 20
57.42799728675596
 42
-0.4142135623730898
 10
-37.36125148380552
 20
57.82799728675604
 42
0.0
 10
-37.36125148380552
 20
58.1001017466508
 42
-0.4142135623731575
 10
-36.96125148380543
 20
58.5001017466509
 42
0.0
 10
-34.27303713752781
 20
58.50010174665067
 42
0.0
 10
-34.27303713752781
 20
58.90010174665076
 42
0.0
 10
-36.96128539935535
 20
58.90010174665076
 42
0.4142135623731705
 10
-37.76128539935553
 20
58.10010174665058
 42
0.0
 10
-37.76128539935553
 20
57.82796337120544
 42
0.4142135623730299
 10
-36.9612853993558
 20
57.02796337120571
 42
0.0
 10
-34.76901814481926
 20
57.02796337120571
 42
-0.4142135623730015
 10
-34.36901814481962
 20
56.62796337120608
 42
0.0
 97
        1
330
BEB
 92
        7
 72
     1
 73
     1
 93
       12
 10
-33.36098015940343
 20
55.92380871629666
 42
0.4142135623731547
 10
-32.56098015940324
 20
55.12380871629648
 42
0.0
 10
-29.58465321349877
 20
55.12380871629648
 42
0.0
 10
-29.58465321349832
 20
58.10010174665058
 42
0.4142135623731964
 10
-30.3846532134985
 20
58.90010174665076
 42
0.0
 10
-33.07296930642724
 20
58.90010174665076
 42
0.0
 10
-33.07296930642724
 20
58.50010174665067
 42
0.0
 10
-30.38468712904887
 20
58.5001017466509
 42
-0.4142135623732564
 10
-29.98468712904878
 20
58.10010174665103
 42
0.0
 10
-29.98468712904923
 20
57.42799728675596
 42
0.0
 10
-32.56098015940324
 20
57.42799728675596
 42
0.4142135623731705
 10
-33.36098015940343
 20
56.627997286756
 42
0.0
 97
        1
330
BEA
 92
       22
 72
     1
 73
     1
 93
        6
 10
-32.97692046803468
 20
56.62796337120562
 42
-0.4142135623731576
 10
-32.57692046803459
 20
57.02796337120571
 42
0.0
 10
-29.98468712904878
 20
57.02796337120571
 42
0.0
 10
-29.98468712904878
 20
55.507868407665
 42
0.0
 10
-32.57692046803459
 20
55.507868407665
 42
-0.4142135623731731
 10
-32.97692046803468
 20
55.90786840766487
 42
0.0
 97
        1
330
C11
 92
        7
 72
     1
 73
     1
 93
       10
 10
-28.57661522808212
 20
58.5001017466509
 42
0.0
 10
-25.98444972019661
 20
58.5001017466509
 42
-0.4142135623730067
 10
-25.58444972019652
 20
58.10010174665058
 42
0.0
 10
-25.58444972019606
 20
55.12380871629648
 42
0.0
 10
-25.20042394437906
 20
55.12380871629648
 42
0.0
 10
-25.2004239443786
 20
58.1001017466508
 42
0.4142135623731134
 10
-26.00042394437833
 20
58.90010174665076
 42
0.0
 10
-28.97664914363259
 20
58.90010174665076
 42
0.0
 10
-28.97664914363259
 20
55.12380871629648
 42
0.0
 10
-28.57661522808212
 20
55.12380871629648
 42
0.0
 97
        1
330
BE9
 92
        7
 72
     0
 73
     1
 93
        4
 10
-24.57637781922995
 20
55.12380871629648
 10
-24.19231812786165
 20
55.12380871629648
 10
-24.19231812786165
 20
58.90010174665076
 10
-24.57637781922995
 20
58.90010174665076
 97
        1
330
BE8
 92
        7
 72
     0
 73
     1
 93
        4
 10
-24.19231812786165
 20
59.87619128370352
 10
-24.5763778192304
 20
59.87619128370352
 10
-24.5763778192304
 20
59.28412752246913
 10
-24.1923181278612
 20
59.28412752246913
 97
        1
330
C12
 92
        7
 72
     1
 73
     1
 93
       10
 10
-23.18424622689509
 20
58.5001017466509
 42
0.0
 10
-20.59204680345965
 20
58.5001017466509
 42
-0.4142135623730898
 10
-20.19204680345956
 20
58.1001017466508
 42
0.0
 10
-20.19204680345956
 20
55.12380871629648
 42
0.0
 10
-19.79201288790909
 20
55.12380871629648
 42
0.0
 10
-19.79201288790909
 20
58.1001017466508
 42
0.4142135623731547
 10
-20.59201288790928
 20
58.90010174665076
 42
0.0
 10
-23.56830591826338
 20
58.90010174665076
 42
0.0
 10
-23.56830591826338
 20
55.12380871629648
 42
0.0
 10
-23.18424622689463
 20
55.12380871629648
 42
0.0
 97
        1
330
BE7
 92
        7
 72
     1
 73
     1
 93
        8
 10
-19.1999120763262
 20
55.92680650071542
 42
0.4153115297271299
 10
-18.39991769304061
 20
55.12380871629648
 42
0.0
 10
-15.4236900118708
 20
55.12380871629648
 42
0.0
 10
-15.4236900118708
 20
59.87619128370352
 42
0.0
 10
-15.80771578768872
 20
59.87619128370352
 42
0.0
 10
-15.80771578768872
 20
58.90010174665076
 42
0.0
 10
-18.39176256411201
 20
58.90010174665076
 42
0.4131164467977965
 10
-19.19175694739761
 20
58.1030995310698
 42
0.0
 97
        1
330
BE6
 92
       22
 72
     1
 73
     1
 93
        6
 10
-18.79994912667462
 20
58.1001017466508
 42
-0.4142135623731575
 10
-18.39994912667453
 20
58.5001017466509
 42
0.0
 10
-15.80771578768872
 20
58.50010174665067
 42
0.0
 10
-15.80771578768827
 20
55.507868407665
 42
0.0
 10
-18.39994912667453
 20
55.507868407665
 42
-0.4142135623731731
 10
-18.79994912667462
 20
55.90786840766487
 42
0.0
 97
        1
330
BE5
 92
        7
 72
     1
 73
     1
 93
       12
 10
-14.79964388672215
 20
55.92380871629621
 42
0.4142135623729885
 10
-13.99964388672242
 20
55.12380871629648
 42
0.0
 10
-11.8233508563676
 20
55.12380871629648
 42
0.4142135623731289
 10
-11.02335085636741
 20
55.92380871629666
 42
0.0
 10
-11.02335085636741
 20
58.90010174665076
 42
0.0
 10
-11.42338477191788
 20
58.90010174665076
 42
0.0
 10
-11.42338477191788
 20
55.91567577726095
 42
-0.4131711701795319
 10
-11.82196067063523
 20
55.51567831234956
 42
0.0
 10
-14.01419400962095
 20
55.50787335710947
 42
-0.4152567234626918
 10
-14.41561811090378
 20
55.90787082202087
 42
0.0
 10
-14.41561811090378
 20
58.90010174665076
 42
0.0
 10
-14.7996438867226
 20
58.90010174665076
 42
0.0
 97
        1
330
BE4
 92
        7
 72
     1
 73
     1
 93
       20
 10
-7.423079531965413
 20
57.02796337120571
 42
-0.414213562373168
 10
-7.023079531965322
 20
56.62796337120562
 42
0.0
 10
-7.023079531965322
 20
55.90786840766487
 42
-0.4142135623731575
 10
-7.423079531965413
 20
55.507868407665
 42
0.0
 10
-10.41534678650168
 20
55.507868407665
 42
0.0
 10
-10.41534678650168
 20
55.12380871629648
 42
0.0
 10
-7.445787917283723
 20
55.12380871629648
 42
0.4114777732065809
 10
-6.645822882998345
 20
55.91632914939783
 42
0.0
 10
-6.639238813324936
 20
56.62051771985716
 42
0.4169546541682913
 10
-7.439203847610315
 20
57.42799728675596
 42
0.0
 10
-9.615312870951584
 20
57.42799728675596
 42
-0.4142135623729911
 10
-10.01531287095122
 20
57.82799728675581
 42
0.0
 10
-10.01531287095122
 20
58.10010174665103
 42
-0.414213562372991
 10
-9.615312870951584
 20
58.5001017466509
 42
0.0
 10
-6.92703069357276
 20
58.50010174665067
 42
0.0
 10
-6.927030693572305
 20
58.90010174665076
 42
0.0
 10
-9.615346786501959
 20
58.90010174665076
 42
0.4142135623730467
 10
-10.41534678650168
 20
58.10010174665103
 42
0.0
 10
-10.41534678650168
 20
57.82796337120544
 42
0.4142135623730301
 10
-9.615346786501959
 20
57.02796337120571
 42
0.0
 97
        1
330
BE3
 92
        7
 72
     1
 73
     1
 93
       12
 10
-5.21497371544865
 20
57.42799728675596
 42
0.4142135623730871
 10
-6.014973715448377
 20
56.627997286756
 42
0.0
 10
-6.014973715448377
 20
55.92380871629621
 42
0.4142135623730715
 10
-5.21497371544865
 20
55.12380871629648
 42
0.0
 10
-2.23871460064447
 20
55.12380871629648
 42
0.0
 10
-2.23871460064447
 20
58.10010174665058
 42
0.414213562373155
 10
-3.038714600644652
 20
58.90010174665076
 42
0.0
 10
-5.726962862471737
 20
58.90010174665076
 42
0.0
 10
-5.726962862472191
 20
58.5001017466509
 42
0.0
 10
-3.038748516194573
 20
58.5001017466509
 42
-0.4142135623730067
 10
-2.638748516194482
 20
58.10010174665058
 42
0.0
 10
-2.638748516194482
 20
57.42799728675596
 42
0.0
 97
        1
330
BE2
 92
       22
 72
     1
 73
     1
 93
        6
 10
-2.638748516194937
 20
57.02796337120571
 42
0.0
 10
-2.638748516194482
 20
55.50786840766477
 42
0.0
 10
-5.21497371544865
 20
55.507868407665
 42
-0.4142135623731731
 10
-5.614973715448741
 20
55.90786840766509
 42
0.0
 10
-5.614973715448741
 20
56.62796337120562
 42
-0.4142135623731576
 10
-5.21497371544865
 20
57.02796337120571
 42
0.0
 97
        1
330
C0D
 75
     0
 76
     1
 47
0.0407044778999864
 98
       13
 10
-34.18710075113677
 20
56.16907953933765
 10
-33.12851374392494
 20
56.49471602641233
 10
-33.12851374392494
 20
56.49471602641233
 10
-28.77202873835904
 20
57.51232930166111
 10
-24.41554807250941
 20
57.91937341678636
 10
-24.41554807250941
 20
59.384734621186
 10
-23.31624584658039
 20
58.3264175319116
 10
-19.04119127844888
 20
57.75655517324913
 10
-19.04119127844888
 20
57.75655517324913
 10
-14.64399105416578
 20
57.43091868617466
 10
-8.048195057457178
 20
57.22739662861204
 10
-4.017427461911665
 20
57.18669281458665
 10
-4.017427461911665
 20
57.18669281458665
  0
TEXT
  5
BED
330
B9E
100
AcDbEntity
  8
leg fin
100
AcDbText
 10
3.391127401597259
 20
2.107634911895729
 30
0.0
 40
1.5
  1
Este desenho é propriedade da Sanindusa, S.A., e não pode ser copiado nem divulgado sem nossa autorização.
 50
90.0
 41
0.8
  7
SANINDUSA
100
AcDbText
  0
LINE
  5
BEE
330
B9E
100
AcDbEntity
  8
3
100
AcDbLine
 10
-90.0
 20
4.0
 30
0.0
 11
-90.0
 21
12.0
 31
0.0
  0
TEXT
  5
BEF
330
B9E
100
AcDbEntity
  8
1
100
AcDbText
 10
-39.0
 20
9.25
 30
0.0
 40
2.0
  1
Substituido por:
 41
0.8
  7
SANINDUSA
 11
-39.0
 21
10.25
 31
0.0
100
AcDbText
 73
     2
  0
POINT
  5
BF0
330
B9E
100
AcDbEntity
  8
SANINDUSA
100
AcDbPoint
 10
0.0
 20
0.0
 30
0.0
  0
TEXT
  5
BF1
330
B9E
100
AcDbEntity
  8
1
100
AcDbText
 10
-89.0
 20
16.74927010445663
 30
0.0
 40
2.0
  1
Normas:
 41
0.8
  7
SANINDUSA
 11
-89.0
 21
17.74927010445663
 31
0.0
100
AcDbText
 73
     2
  0
LINE
  5
BF2
330
B9E
100
AcDbEntity
  8
3
100
AcDbLine
 10
-90.0
 20
12.0
 30
0.0
 11
-90.0
 21
20.0
 31
0.0
  0
LINE
  5
BF3
330
B9E
100
AcDbEntity
  8
3
100
AcDbLine
 10
-110.546019464768
 20
12.0
 30
0.0
 11
-110.546019464768
 21
20.0
 31
0.0
  0
TEXT
  5
BF4
330
B9E
100
AcDbEntity
  8
1
100
AcDbText
 10
-109.6177520618648
 20
17.25
 30
0.0
 40
2.0
  1
Cor:
 41
0.8
  7
SANINDUSA
 11
-109.6177520618648
 21
18.25
 31
0.0
100
AcDbText
 73
     2
  0
LINE
  5
BF5
330
B9E
100
AcDbEntity
  8
leg fin
100
AcDbLine
 10
-91.42857142857156
 20
20.0
 30
0.0
 11
-91.42857142857156
 21
28.5
 31
0.0
  0
LINE
  5
BF6
330
B9E
100
AcDbEntity
  8
leg fin
100
AcDbLine
 10
-104.2857142857142
 20
20.0
 30
0.0
 11
-104.2857142857142
 21
28.5
 31
0.0
  0
LINE
  5
BF7
330
B9E
100
AcDbEntity
  8
leg fin
100
AcDbLine
 10
-117.1428571428573
 20
20.0
 30
0.0
 11
-117.1428571428573
 21
28.5
 31
0.0
  0
POINT
  5
BF8
330
B9E
100
AcDbEntity
  8
SANINDUSA
100
AcDbPoint
 10
-117.1428571428573
 20
28.5
 30
0.0
  0
POINT
  5
BF9
330
B9E
100
AcDbEntity
  8
SANINDUSA
100
AcDbPoint
 10
-104.2857142857142
 20
28.5
 30
0.0
  0
POINT
  5
BFA
330
B9E
100
AcDbEntity
  8
SANINDUSA
100
AcDbPoint
 10
-91.42857142857156
 20
28.5
 30
0.0
  0
TEXT
  5
BFB
330
B9E
100
AcDbEntity
  8
1
100
AcDbText
 10
-116.200160604496
 20
26.43288406845113
 30
0.0
 40
1.5
  1
Nº Seq.:
 41
0.8
  7
SANINDUSA
 11
-116.200160604496
 21
27.18288406845113
 31
0.0
100
AcDbText
 73
     2
  0
TEXT
  5
BFC
330
B9E
100
AcDbEntity
  8
1
100
AcDbText
 10
-103.2106584078738
 20
26.43288406845113
 30
0.0
 40
1.5
  1
Tipo:
 41
0.8
  7
SANINDUSA
 11
-103.2106584078738
 21
27.18288406845113
 31
0.0
100
AcDbText
 73
     2
  0
TEXT
  5
BFD
330
B9E
100
AcDbEntity
  8
1
100
AcDbText
 10
-90.22114672289353
 20
26.43288406845113
 30
0.0
 40
1.5
  1
Prod.:
 41
0.8
  7
SANINDUSA
 11
-90.22114672289353
 21
27.18288406845113
 31
0.0
100
AcDbText
 73
     2
  0
TEXT
  5
BFE
330
B9E
100
AcDbEntity
  8
1
100
AcDbText
 10
-64.77320576346574
 20
26.43288406845113
 30
0.0
 40
1.5
  1
Rev.:
 41
0.8
  7
SANINDUSA
 11
-64.77320576346574
 21
27.18288406845113
 31
0.0
100
AcDbText
 73
     2
  0
LINE
  5
BFF
330
B9E
100
AcDbEntity
  8
leg fin
100
AcDbLine
 10
-52.85714285714266
 20
20.0
 30
0.0
 11
-52.85714285714266
 21
28.5
 31
0.0
  0
LINE
  5
C00
330
B9E
100
AcDbEntity
  8
leg fin
100
AcDbLine
 10
-65.71428571428578
 20
20.0
 30
0.0
 11
-65.71428571428578
 21
28.5
 31
0.0
  0
LINE
  5
C01
330
B9E
100
AcDbEntity
  8
leg fin
100
AcDbLine
 10
-78.57142857142844
 20
20.0
 30
0.0
 11
-78.57142857142844
 21
28.5
 31
0.0
  0
POINT
  5
C02
330
B9E
100
AcDbEntity
  8
SANINDUSA
100
AcDbPoint
 10
-78.57142857142844
 20
28.5
 30
0.0
  0
POINT
  5
C03
330
B9E
100
AcDbEntity
  8
SANINDUSA
100
AcDbPoint
 10
-65.71428571428578
 20
28.5
 30
0.0
  0
POINT
  5
C04
330
B9E
100
AcDbEntity
  8
SANINDUSA
100
AcDbPoint
 10
-52.85714285714266
 20
28.5
 30
0.0
  0
TEXT
  5
C05
330
B9E
100
AcDbEntity
  8
1
100
AcDbText
 10
-77.61097961686573
 20
26.43288406845113
 30
0.0
 40
1.5
  1
Peça:
 41
0.8
  7
SANINDUSA
 11
-77.61097961686573
 21
27.18288406845113
 31
0.0
100
AcDbText
 73
     2
  0
TEXT
  5
C06
330
B9E
100
AcDbEntity
  8
1
100
AcDbText
 10
-52.06538060077036
 20
26.43288406845113
 30
0.0
 40
1.5
  1
Alt.:
 41
0.8
  7
SANINDUSA
 11
-52.06538060077036
 21
27.18288406845113
 31
0.0
100
AcDbText
 73
     2
  0
LINE
  5
C07
330
B9E
100
AcDbEntity
  8
3
100
AcDbLine
 10
0.0
 20
12.0
 30
0.0
 11
-40.0
 21
12.0
 31
0.0
  0
LINE
  5
C08
330
B9E
100
AcDbEntity
  8
3
100
AcDbLine
 10
-40.0
 20
32.5
 30
0.0
 11
0.0
 21
32.5
 31
0.0
  0
TEXT
  5
C09
330
B9E
100
AcDbEntity
  8
1
100
AcDbText
 10
-19.0
 20
29.75
 30
0.0
 40
2.0
  1
Folha:
 41
0.8
  7
SANINDUSA
 11
-19.0
 21
30.75
 31
0.0
100
AcDbText
 73
     2
  0
LINE
  5
C0A
330
B9E
100
AcDbEntity
  8
3
100
AcDbLine
 10
-20.0
 20
32.5
 30
0.0
 11
-20.0
 21
20.0
 31
0.0
  0
TEXT
  5
C0B
330
B9E
100
AcDbEntity
  8
1
100
AcDbText
 10
-39.0
 20
29.75
 30
0.0
 40
2.0
  1
Escala:
 41
0.8
  7
SANINDUSA
 11
-39.0
 21
30.75
 31
0.0
100
AcDbText
 73
     2
  0
TEXT
  5
C0C
330
B9E
100
AcDbEntity
  8
1
100
AcDbText
 10
-39.0
 20
17.25
 30
0.0
 40
2.0
  1
Substitui:
 41
0.8
  7
SANINDUSA
 11
-39.0
 21
18.25
 31
0.0
100
AcDbText
 73
     2
  0
LWPOLYLINE
  5
C0D
102
{ACAD_REACTORS
330
BEC
102
}
330
B9E
100
AcDbEntity
  8
9
100
AcDbPolyline
 90
        6
 70
     1
 43
0.0
 10
-2.638748516194482
 20
57.02796337120571
 10
-2.638748516194482
 20
55.50786840766477
 10
-5.21497371544865
 20
55.507868407665
 42
-0.4142135623730898
 10
-5.614973715448741
 20
55.90786840766487
 10
-5.614973715448741
 20
56.62796337120562
 42
-0.4142135623731576
 10
-5.21497371544865
 20
57.02796337120571
  0
LINE
  5
C0E
330
B9E
100
AcDbEntity
  8
3
100
AcDbLine
 10
-40.0
 20
50.0
 30
0.0
 11
0.0
 21
50.0
 31
0.0
  0
ATTDEF
  5
C0F
330
B9E
100
AcDbEntity
  8
1
100
AcDbText
 10
-31.30691739422431
 20
40.25
 30
0.0
 40
2.0
  1
XXXXXXXXXXXXXXX
 41
0.8
  7
SANINDUSA
 72
     4
 11
-20.0
 21
41.25
 31
0.0
100
AcDbAttributeDefinition
  3
Observações:
  2
OBS
 70
     0
  0
TEXT
  5
C10
330
B9E
100
AcDbEntity
  8
1
100
AcDbText
 10
-39.0
 20
47.25
 30
0.0
 40
2.0
  1
Observações:
 41
0.8
  7
SANINDUSA
 11
-39.0
 21
48.25
 31
0.0
100
AcDbText
 73
     2
  0
LWPOLYLINE
  5
C11
102
{ACAD_REACTORS
330
BEC
102
}
330
B9E
100
AcDbEntity
  8
9
100
AcDbPolyline
 90
        6
 70
     1
 43
0.0
 10
-29.98468712904878
 20
57.02796337120571
 10
-29.98468712904878
 20
55.507868407665
 10
-32.57692046803459
 20
55.507868407665
 42
-0.4142135623731731
 10
-32.97692046803468
 20
55.90786840766487
 10
-32.97692046803468
 20
56.62796337120562
 42
-0.4142135623731576
 10
-32.57692046803459
 20
57.02796337120571
  0
LWPOLYLINE
  5
C12
102
{ACAD_REACTORS
330
BEC
102
}
330
B9E
100
AcDbEntity
  8
9
100
AcDbPolyline
 90
        4
 70
     1
 43
0.0
 10
-24.19231812786165
 20
59.87619128370352
 10
-24.57637781922995
 20
59.87619128370352
 10
-24.57637781922995
 20
59.28412752246913
 10
-24.19231812786165
 20
59.28412752246913
  0
ENDBLK
  5
C14
330
B9E
100
AcDbEntity
  8
0
100
AcDbBlockEnd
  0
ENDSEC
  0
SECTION
  2
ENTITIES
  0
LINE
  5
15C1
330
1F
100
AcDbEntity
  8
SANINDUSA
100
AcDbLine
 10
3992.063718433662
 20
1733.454342906511
 30
0.0
 11
3992.063718433767
 21
1733.454333043472
 31
0.0
  0
LINE
  5
15C2
330
1F
100
AcDbEntity
  8
SANINDUSA
100
AcDbLine
 10
3992.087718433766
 20
1733.454333043472
 30
0.0
 11
3992.087718433871
 21
1733.454342906511
 31
0.0
  0
LINE
  5
15C3
330
1F
100
AcDbEntity
  8
SANINDUSA
100
AcDbLine
 10
3992.085284046999
 20
1733.453218327052
 30
0.0
 11
3992.085284047254
 21
1733.454333043472
 31
0.0
  0
LINE
  5
15C4
330
1F
100
AcDbEntity
  8
SANINDUSA
100
AcDbLine
 10
3992.066152820279
 20
1733.454333043472
 30
0.0
 11
3992.066152820534
 21
1733.453218327052
 31
0.0
  0
LINE
  5
15C5
330
1F
100
AcDbEntity
  8
SANINDUSA
100
AcDbLine
 10
3992.099718433975
 20
1733.531200167871
 30
0.0
 11
3992.099718433767
 21
1733.535357088927
 31
0.0
  0
LINE
  5
15C6
330
1F
100
AcDbEntity
  8
SANINDUSA
100
AcDbLine
 10
3992.051718433558
 20
1733.535357085204
 30
0.0
 11
3992.051718433766
 21
1733.53137337207
 31
0.0
  0
LINE
  5
15C7
330
1F
100
AcDbEntity
  8
SANINDUSA
100
AcDbLine
 10
3992.076110791926
 20
1733.526415376118
 30
0.0
 11
3992.076110791926
 21
1733.526406715865
 31
0.0
  0
LINE
  5
15C8
330
1F
100
AcDbEntity
  8
SANINDUSA
100
AcDbLine
 10
3992.081465647726
 20
1733.526556183732
 30
0.0
 11
3992.081465632903
 21
1733.526563246905
 31
0.0
  0
LINE
  5
15C9
330
1F
100
AcDbEntity
  8
SANINDUSA
100
AcDbLine
 10
3992.083218433766
 20
1733.535530294008
 30
0.0
 11
3992.083218433599
 21
1733.535538953877
 31
0.0
  0
LINE
  5
15CA
330
1F
100
AcDbEntity
  8
SANINDUSA
100
AcDbLine
 10
3992.068218433934
 20
1733.535538953877
 30
0.0
 11
3992.068218433767
 21
1733.535530294008
 31
0.0
  0
LINE
  5
15CB
330
1F
100
AcDbEntity
  8
SANINDUSA
100
AcDbLine
 10
3992.080918433766
 20
1733.535530294008
 30
0.0
 11
3992.080918433781
 21
1733.535538953877
 31
0.0
  0
LINE
  5
15CC
330
1F
100
AcDbEntity
  8
SANINDUSA
100
AcDbLine
 10
3992.070518433752
 20
1733.535538953877
 30
0.0
 11
3992.070518433767
 21
1733.535530294008
 31
0.0
  0
LINE
  5
15CD
330
1F
100
AcDbEntity
  8
SANINDUSA
100
AcDbLine
 10
3992.080873807678
 20
1733.542142578822
 30
0.0
 11
3992.080873807597
 21
1733.542151232398
 31
0.0
  0
LINE
  5
15CE
330
1F
100
AcDbEntity
  8
SANINDUSA
100
AcDbLine
 10
3992.088718434035
 20
1733.453218327052
 30
0.0
 11
3992.088718434035
 21
1733.491878685689
 31
0.0
  0
LINE
  5
15CF
330
1F
100
AcDbEntity
  8
SANINDUSA
100
AcDbLine
 10
3992.062718433498
 20
1733.491878685689
 30
0.0
 11
3992.062718433498
 21
1733.453218327052
 31
0.0
  0
LINE
  5
15D0
330
1F
100
AcDbEntity
  8
SANINDUSA
100
AcDbLine
 10
3992.099718433975
 20
1733.418286737668
 30
0.0
 11
3992.099718433975
 21
1733.531200167871
 31
0.0
  0
LINE
  5
15D1
330
1F
100
AcDbEntity
  8
SANINDUSA
100
AcDbLine
 10
3992.051718433558
 20
1733.531200167871
 30
0.0
 11
3992.051718433558
 21
1733.418286737668
 31
0.0
  0
ARC
  5
15D2
330
1F
100
AcDbEntity
  8
SANINDUSA
100
AcDbCircle
 10
3992.075700491087
 20
1733.443883016007
 30
0.0
 40
0.0173663384992593
100
AcDbArc
 50
87.23161878887735
 51
105.7069977707084
  0
LINE
  5
15D3
330
1F
100
AcDbEntity
  8
SANINDUSA
100
AcDbLine
 10
3992.070999110347
 20
1733.460600871428
 30
0.0
 11
3992.070999110288
 21
1733.460759406126
 31
0.0
  0
LINE
  5
15D4
330
1F
100
AcDbEntity
  8
SANINDUSA
100
AcDbLine
 10
3992.065760882741
 20
1733.457904000914
 30
0.0
 11
3992.065760882835
 21
1733.457699362537
 31
0.0
  0
ARC
  5
15D5
330
1F
100
AcDbEntity
  8
SANINDUSA
100
AcDbCircle
 10
3992.070356960289
 20
1733.452841802338
 30
0.0
 40
0.0066872884647715
100
AcDbArc
 50
133.4156284999892
 51
168.501819385688
  0
LINE
  5
15D6
330
1F
100
AcDbEntity
  8
SANINDUSA
100
AcDbLine
 10
3992.063803878554
 20
1733.45417482593
 30
0.0
 11
3992.063803878783
 21
1733.454716202951
 31
0.0
  0
ARC
  5
15D7
330
1F
100
AcDbEntity
  8
SANINDUSA
100
AcDbCircle
 10
3992.06961495546
 20
1733.454397541996
 30
0.0
 40
0.0058968745592795
100
AcDbArc
 50
180.6267141146388
 51
217.5543235520375
  0
LINE
  5
15D8
330
1F
100
AcDbEntity
  8
SANINDUSA
100
AcDbLine
 10
3992.064940056195
 20
1733.450803319148
 30
0.0
 11
3992.064940056195
 21
1733.44968860191
 31
0.0
  0
ARC
  5
15D9
330
1F
100
AcDbEntity
  8
SANINDUSA
100
AcDbCircle
 10
3992.072762407261
 20
1733.455701333089
 30
0.0
 40
0.0098662099361101
100
AcDbArc
 50
217.5480465900931
 51
244.5534382867271
  0
ARC
  5
15DA
330
1F
100
AcDbEntity
  8
SANINDUSA
100
AcDbCircle
 10
3992.075517546431
 20
1733.462534832911
 30
0.0
 40
0.0162243992795967
100
AcDbArc
 50
247.2633774746846
 51
267.8101775536808
  0
LINE
  5
15DB
330
1F
100
AcDbEntity
  8
SANINDUSA
100
AcDbLine
 10
3992.074897607126
 20
1733.446322282845
 30
0.0
 11
3992.074897607126
 21
1733.445207565607
 31
0.0
  0
ARC
  5
15DC
330
1F
100
AcDbEntity
  8
SANINDUSA
100
AcDbCircle
 10
3992.075736387473
 20
1733.462553489419
 30
0.0
 40
0.0173661923882503
100
AcDbArc
 50
267.231559052638
 51
285.707095533958
  0
LINE
  5
15DD
330
1F
100
AcDbEntity
  8
SANINDUSA
100
AcDbLine
 10
3992.080437757186
 20
1733.445835781039
 30
0.0
 11
3992.080437757186
 21
1733.446950498277
 31
0.0
  0
ARC
  5
15DE
330
1F
100
AcDbEntity
  8
SANINDUSA
100
AcDbCircle
 10
3992.077032579349
 20
1733.459424875731
 30
0.0
 40
0.0129307882670628
100
AcDbArc
 50
285.2682656797086
 51
307.4472515192342
  0
ARC
  5
15DF
330
1F
100
AcDbEntity
  8
SANINDUSA
100
AcDbCircle
 10
3992.081079909276
 20
1733.453594852046
 30
0.0
 40
0.0066872872714017
100
AcDbArc
 50
313.4156142073979
 51
348.5017822804734
  0
LINE
  5
15E0
330
1F
100
AcDbEntity
  8
SANINDUSA
100
AcDbLine
 10
3992.087632988979
 20
1733.452261826537
 30
0.0
 11
3992.087632988979
 21
1733.453376543775
 31
0.0
  0
LWPOLYLINE
  5
15E1
330
1F
100
AcDbEntity
  8
SANINDUSA
100
AcDbPolyline
 90
        3
 70
   128
 43
0.0
 10
3992.087718433871
 20
1733.454333041942
 10
3992.087704848668
 20
1733.453951084203
 10
3992.08763298875
 20
1733.453376543856
  0
LINE
  5
15E2
330
1F
100
AcDbEntity
  8
SANINDUSA
100
AcDbLine
 10
3992.086496811531
 20
1733.456983537561
 30
0.0
 11
3992.086496811338
 21
1733.456748050557
 31
0.0
  0
ARC
  5
15E3
330
1F
100
AcDbEntity
  8
SANINDUSA
100
AcDbCircle
 10
3992.078674465045
 20
1733.45073531546
 30
0.0
 40
0.0098662095373361
100
AcDbArc
 50
37.54808904722673
 51
64.55346786551276
  0
LINE
  5
15E4
330
1F
100
AcDbEntity
  8
SANINDUSA
100
AcDbLine
 10
3992.082913665559
 20
1733.459644371732
 30
0.0
 11
3992.082913665737
 21
1733.459813599623
 31
0.0
  0
LINE
  5
15E5
330
1F
100
AcDbEntity
  8
SANINDUSA
100
AcDbLine
 10
3992.076539260389
 20
1733.461381965465
 30
0.0
 11
3992.076539260407
 21
1733.46122908686
 31
0.0
  0
LINE
  5
15E6
330
1F
100
AcDbEntity
  8
SANINDUSA
100
AcDbLine
 10
3992.071946399467
 20
1733.459415348392
 30
0.0
 11
3992.070999110347
 21
1733.460600871428
 31
0.0
  0
ARC
  5
15E7
330
1F
100
AcDbEntity
  8
SANINDUSA
100
AcDbCircle
 10
3992.075701952944
 20
1733.445420480682
 30
0.0
 40
0.0144900130511564
100
AcDbArc
 50
87.91714936672251
 51
105.021542432017
  0
LINE
  5
15E8
330
1F
100
AcDbEntity
  8
SANINDUSA
100
AcDbLine
 10
3992.076539260407
 20
1733.46122908686
 30
0.0
 11
3992.076228586615
 21
1733.459900919364
 31
0.0
  0
ARC
  5
15E9
330
1F
100
AcDbEntity
  8
SANINDUSA
100
AcDbCircle
 10
3992.075934226647
 20
1733.448163742029
 30
0.0
 40
0.0125621122742783
100
AcDbArc
 50
61.89063745537232
 51
87.78677475569832
  0
ARC
  5
15EA
330
1F
100
AcDbEntity
  8
SANINDUSA
100
AcDbCircle
 10
3992.073927482405
 20
1733.451684629778
 30
0.0
 40
0.0087346183263546
100
AcDbArc
 50
106.5833336589151
 51
139.1085921650427
  0
LWPOLYLINE
  5
15EB
330
1F
100
AcDbEntity
  8
SANINDUSA
100
AcDbPolyline
 90
        3
 70
   128
 43
0.0
 10
3992.066308343953
 20
1733.455482539869
 10
3992.066212962552
 20
1733.455049664861
 10
3992.066152820534
 20
1733.454333041942
  0
ARC
  5
15EC
330
1F
100
AcDbEntity
  8
SANINDUSA
100
AcDbCircle
 10
3992.080750136104
 20
1733.454304265726
 30
0.0
 40
0.0045340022134358
100
AcDbArc
 50
0.3636449030272061
 51
26.3064271942525
  0
LINE
  5
15ED
330
1F
100
AcDbEntity
  8
SANINDUSA
100
AcDbLine
 10
3992.081852941478
 20
1733.459617388582
 30
0.0
 11
3992.082299708559
 21
1733.460098263956
 31
0.0
  0
LINE
  5
15EE
330
1F
100
AcDbEntity
  8
SANINDUSA
100
AcDbLine
 10
3992.085624975708
 20
1733.453420366307
 30
0.0
 11
3992.087632988979
 21
1733.453376543775
 31
0.0
  0
ARC
  5
15EF
330
1F
100
AcDbEntity
  8
SANINDUSA
100
AcDbCircle
 10
3992.080752429951
 20
1733.454443221632
 30
0.0
 40
0.004978748358967
100
AcDbArc
 50
331.5165099829783
 51
348.1444706547912
  0
LINE
  5
15F0
330
1F
100
AcDbEntity
  8
SANINDUSA
100
AcDbLine
 10
3992.080002329017
 20
1733.447495431787
 30
0.0
 11
3992.080437757186
 21
1733.446950498277
 31
0.0
  0
LINE
  5
15F1
330
1F
100
AcDbEntity
  8
SANINDUSA
100
AcDbLine
 10
3992.074897607126
 20
1733.446322282845
 30
0.0
 11
3992.075017511433
 21
1733.446834889388
 31
0.0
  0
LINE
  5
15F2
330
1F
100
AcDbEntity
  8
SANINDUSA
100
AcDbLine
 10
3992.064940056195
 20
1733.450803319148
 30
0.0
 11
3992.066622285343
 21
1733.451237761563
 31
0.0
  0
LINE
  5
15F3
330
1F
100
AcDbEntity
  8
SANINDUSA
100
AcDbLine
 10
3992.066400127656
 20
1733.458468993342
 30
0.0
 11
3992.067324533297
 21
1733.45796996463
 31
0.0
  0
LINE
  5
15F4
330
1F
100
AcDbEntity
  8
SANINDUSA
100
AcDbLine
 10
3992.081852941409
 20
1733.458502671227
 30
0.0
 11
3992.082913665559
 21
1733.459644371732
 31
0.0
  0
LINE
  5
15F5
330
1F
100
AcDbEntity
  8
SANINDUSA
100
AcDbLine
 10
3992.081852941478
 20
1733.459617388582
 30
0.0
 11
3992.081852941409
 21
1733.458502671227
 31
0.0
  0
LWPOLYLINE
  5
15F6
330
1F
100
AcDbEntity
  8
SANINDUSA
100
AcDbPolyline
 90
       44
 70
   128
 43
0.0
 10
3992.083086931783
 20
1733.457299814707
 10
3992.082120286937
 20
1733.45797420401
 10
3992.08101719728
 20
1733.458547231889
 10
3992.079801174051
 20
1733.459006679392
 10
3992.078498134094
 20
1733.459342763907
 10
3992.077135849565
 20
1733.459548310525
 10
3992.075743355391
 20
1733.459618949479
 10
3992.074350330101
 20
1733.459553168303
 10
3992.072986463488
 20
1733.459352371431
 10
3992.071680823977
 20
1733.459020835496
 10
3992.07046123937
 20
1733.458565634823
 10
3992.069353702648
 20
1733.457996458894
 10
3992.068381819113
 20
1733.45732544843
 10
3992.067566302775
 20
1733.456566904819
 10
3992.066924534908
 20
1733.455736988372
 10
3992.066470193847
 20
1733.454853390491
 10
3992.066212962552
 20
1733.453934946245
 10
3992.06615832465
 20
1733.453001228309
 10
3992.066307443364
 20
1733.452072137183
 10
3992.066657141021
 20
1733.451167472786
 10
3992.067199964246
 20
1733.450306520945
 10
3992.067924344151
 20
1733.449507628715
 10
3992.06881484127
 20
1733.448787824398
 10
3992.069852476645
 20
1733.44816244874
 10
3992.071015134624
 20
1733.447644827104
 10
3992.072278035509
 20
1733.447245997525
 10
3992.073614262448
 20
1733.44697445739
 10
3992.074995336002
 20
1733.4468359958
 10
3992.076391821199
 20
1733.44683355946
 10
3992.077773954424
 20
1733.446967207975
 10
3992.079112277536
 20
1733.447234084046
 10
3992.080378267153
 20
1733.447628506607
 10
3992.081544940064
 20
1733.448142063952
 10
3992.082587431355
 20
1733.448763814903
 10
3992.083483521997
 20
1733.449480504877
 10
3992.084214112892
 20
1733.450276860184
 10
3992.084763633258
 20
1733.451135908401
 10
3992.085120370782
 20
1733.452039339727
 10
3992.085276723079
 20
1733.452967898137
 10
3992.085229356013
 20
1733.453901794887
 10
3992.084979280999
 20
1733.454821122027
 10
3992.084531827069
 20
1733.45570629198
 10
3992.083896530031
 20
1733.456538436151
 10
3992.083086931783
 20
1733.457299814707
  0
LINE
  5
15F7
330
1F
100
AcDbEntity
  8
SANINDUSA
100
AcDbLine
 10
3992.086496811338
 20
1733.456748050557
 30
0.0
 11
3992.084622487475
 21
1733.456263997332
 31
0.0
  0
ARC
  5
15F8
330
1F
100
AcDbEntity
  8
SANINDUSA
100
AcDbCircle
 10
3992.078190443283
 20
1733.451139163609
 30
0.0
 40
0.0082240573262419
100
AcDbArc
 50
38.54664492745169
 51
63.55493328144667
  0
LINE
  5
15F9
330
1F
100
AcDbEntity
  8
SANINDUSA
100
AcDbLine
 10
3992.067324533297
 20
1733.45796996463
 30
0.0
 11
3992.067324532907
 21
1733.456855248265
 31
0.0
  0
LINE
  5
15FA
330
1F
100
AcDbEntity
  8
SANINDUSA
100
AcDbLine
 10
3992.065760882835
 20
1733.457699362537
 30
0.0
 11
3992.067324532907
 21
1733.456855248265
 31
0.0
  0
LINE
  5
15FB
330
1F
100
AcDbEntity
  8
SANINDUSA
100
AcDbLine
 10
3992.065811891825
 20
1733.454131003399
 30
0.0
 11
3992.063803878554
 21
1733.45417482593
 31
0.0
  0
ARC
  5
15FC
330
1F
100
AcDbEntity
  8
SANINDUSA
100
AcDbCircle
 10
3992.071239083303
 20
1733.452899619507
 30
0.0
 40
0.0055651336262671
100
AcDbArc
 50
134.7009341382153
 51
167.2164903396463
  0
LINE
  5
15FD
330
1F
100
AcDbEntity
  8
SANINDUSA
100
AcDbLine
 10
3992.085624975708
 20
1733.452305649069
 30
0.0
 11
3992.087632988979
 21
1733.452261826537
 31
0.0
  0
LINE
  5
15FE
330
1F
100
AcDbEntity
  8
SANINDUSA
100
AcDbLine
 10
3992.085624975708
 20
1733.453420366307
 30
0.0
 11
3992.085624975708
 21
1733.452305649069
 31
0.0
  0
LINE
  5
15FF
330
1F
100
AcDbEntity
  8
SANINDUSA
100
AcDbLine
 10
3992.084112334236
 20
1733.450148818231
 30
0.0
 11
3992.084112334626
 21
1733.449581404202
 31
0.0
  0
ARC
  5
1600
330
1F
100
AcDbEntity
  8
SANINDUSA
100
AcDbCircle
 10
3992.080197809172
 20
1733.453537020747
 30
0.0
 40
0.0055651062385261
100
AcDbArc
 50
314.7008519119689
 51
347.2165725734835
  0
LINE
  5
1601
330
1F
100
AcDbEntity
  8
SANINDUSA
100
AcDbLine
 10
3992.085675984698
 20
1733.44873728993
 30
0.0
 11
3992.084112334626
 21
1733.449581404202
 31
0.0
  0
LINE
  5
1602
330
1F
100
AcDbEntity
  8
SANINDUSA
100
AcDbLine
 10
3992.066814379937
 20
1733.450879355109
 30
0.0
 11
3992.066814380058
 21
1733.450172655135
 31
0.0
  0
LINE
  5
1603
330
1F
100
AcDbEntity
  8
SANINDUSA
100
AcDbLine
 10
3992.064940056195
 20
1733.44968860191
 30
0.0
 11
3992.066814380058
 21
1733.450172655135
 31
0.0
  0
LINE
  5
1604
330
1F
100
AcDbEntity
  8
SANINDUSA
100
AcDbLine
 10
3992.069583926055
 20
1733.448307217247
 30
0.0
 11
3992.069583926124
 21
1733.44793398124
 31
0.0
  0
ARC
  5
1605
330
1F
100
AcDbEntity
  8
SANINDUSA
100
AcDbCircle
 10
3992.073246457759
 20
1733.455297519697
 30
0.0
 40
0.008224101732092
100
AcDbArc
 50
218.5466585651571
 51
243.5548264247474
  0
LINE
  5
1606
330
1F
100
AcDbEntity
  8
SANINDUSA
100
AcDbLine
 10
3992.069583926124
 20
1733.44793398124
 30
0.0
 11
3992.068523201974
 21
1733.446792280735
 31
0.0
  0
LINE
  5
1607
330
1F
100
AcDbEntity
  8
SANINDUSA
100
AcDbLine
 10
3992.079490468066
 20
1733.447021304075
 30
0.0
 11
3992.080437757186
 21
1733.445835781039
 31
0.0
  0
LINE
  5
1608
330
1F
100
AcDbEntity
  8
SANINDUSA
100
AcDbLine
 10
3992.079490468076
 20
1733.44733633954
 30
0.0
 11
3992.079490468066
 21
1733.447021304075
 31
0.0
  0
LINE
  5
1609
330
1F
100
AcDbEntity
  8
SANINDUSA
100
AcDbLine
 10
3992.07520828093
 20
1733.446826790607
 30
0.0
 11
3992.075208280918
 21
1733.446535733103
 31
0.0
  0
ARC
  5
160A
330
1F
100
AcDbEntity
  8
SANINDUSA
100
AcDbCircle
 10
3992.075734920526
 20
1733.461016228431
 30
0.0
 40
0.0144900682397332
100
AcDbArc
 50
267.9171338017426
 51
285.0214595831731
  0
LINE
  5
160B
330
1F
100
AcDbEntity
  8
SANINDUSA
100
AcDbLine
 10
3992.074897607126
 20
1733.445207565607
 30
0.0
 11
3992.075208280918
 21
1733.446535733103
 31
0.0
  0
LWPOLYLINE
  5
160C
330
1F
100
AcDbEntity
  8
SANINDUSA
100
AcDbPolyline
 90
       43
 70
   128
 43
0.0
 10
3992.099718433975
 20
1733.535357085204
 10
3992.099618998526
 20
1733.53426587317
 10
3992.09932151547
 20
1733.53318369124
 10
3992.098828449084
 20
1733.532119524813
 10
3992.098143886014
 20
1733.531082187927
 10
3992.097273498013
 20
1733.530080271101
 10
3992.096224499105
 20
1733.529122081733
 10
3992.095005580394
 20
1733.528215554691
 10
3992.093626843004
 20
1733.52736820761
 10
3992.092099708676
 20
1733.526587058938
 10
3992.090436835944
 20
1733.525878575778
 10
3992.088652000933
 20
1733.52524864409
 10
3992.086759994908
 20
1733.524702464378
 10
3992.084776494822
 20
1733.524244581497
 10
3992.082717936191
 20
1733.523878772891
 10
3992.080601378049
 20
1733.523608078397
 10
3992.078444358132
 20
1733.523434740639
 10
3992.0762647505
 20
1733.52336019758
 10
3992.074080615824
 20
1733.523385060168
 10
3992.071910052731
 20
1733.523509134687
 10
3992.069771046921
 20
1733.523731378055
 10
3992.067681322975
 20
1733.524049957431
 10
3992.065658196978
 20
1733.524462235308
 10
3992.063718433662
 20
1733.52496478442
 10
3992.061878105796
 20
1733.525553447342
 10
3992.060152463785
 20
1733.526223351395
 10
3992.058555805294
 20
1733.526968938446
 10
3992.057101362555
 20
1733.527784031964
 10
3992.055801185949
 20
1733.528661881721
 10
3992.05466605088
 20
1733.529595208502
 10
3992.053705361842
 20
1733.530576278603
 10
3992.052927081643
 20
1733.531596963442
 10
3992.052337655037
 20
1733.532648806608
 10
3992.051941971464
 20
1733.533723090923
 10
3992.051743305458
 20
1733.534810912943
 10
3992.051743305458
 20
1733.535903264916
 10
3992.051941971464
 20
1733.536991086936
 10
3992.052337655037
 20
1733.538065371251
 10
3992.052927081643
 20
1733.539117214418
 10
3992.053705361842
 20
1733.540137906707
 10
3992.05466605088
 20
1733.541118969357
 10
3992.055801185949
 20
1733.542052303589
 10
3992.05620467773
 20
1733.542343025243
  0
ARC
  5
160D
330
1F
100
AcDbEntity
  8
SANINDUSA
100
AcDbCircle
 10
3992.090947932339
 20
1733.534658290293
 30
0.0
 40
0.0087982960436491
100
AcDbArc
 50
4.555451781301401
 51
60.86023246472464
  0
LWPOLYLINE
  5
160E
330
1F
100
AcDbEntity
  8
SANINDUSA
100
AcDbPolyline
 90
       24
 70
   128
 43
0.0
 10
3992.095232189803
 20
1733.542343025244
 10
3992.095232189802
 20
1733.542343025244
 10
3992.094711243345
 20
1733.54270165149
 10
3992.093306846156
 20
1733.543547277487
 10
3992.091752390548
 20
1733.544324507153
 10
3992.090061138554
 20
1733.545026694572
 10
3992.088247519157
 20
1733.545647879279
 10
3992.086327006279
 20
1733.546182741559
 10
3992.084315985611
 20
1733.546626706755
 10
3992.082231613046
 20
1733.546976019776
 10
3992.080091672188
 20
1733.547227670587
 10
3992.077914420685
 20
1733.54737952832
 10
3992.075718433767
 20
1733.547430296576
 10
3992.073522446847
 20
1733.54737952832
 10
3992.071345195345
 20
1733.547227670587
 10
3992.069205254487
 20
1733.546976019776
 10
3992.067120881922
 20
1733.546626706755
 10
3992.065109861254
 20
1733.546182741559
 10
3992.063189348376
 20
1733.545647879279
 10
3992.061375728979
 20
1733.545026694572
 10
3992.059684476986
 20
1733.544324507153
 10
3992.058130021377
 20
1733.543547277487
 10
3992.056725624188
 20
1733.54270165149
 10
3992.05620467773
 20
1733.542343025243
  0
LINE
  5
1611
330
1F
100
AcDbEntity
  8
SANINDUSA
100
AcDbLine
 10
3992.068538813413
 20
1733.526955236893
 30
0.0
 11
3992.069684847428
 21
1733.526955236829
 31
0.0
  0
LWPOLYLINE
  5
1612
330
1F
100
AcDbEntity
  8
SANINDUSA
100
AcDbPolyline
 90
        9
 70
   128
 43
0.0
 10
3992.068197744603
 20
1733.526811962164
 10
3992.068204297854
 20
1733.526778695322
 10
3992.068223705685
 20
1733.526746709979
 10
3992.068255222573
 20
1733.526717228032
 10
3992.068297636865
 20
1733.526691381968
 10
3992.068349319215
 20
1733.526670177615
 10
3992.06840828311
 20
1733.526654419637
 10
3992.068472262642
 20
1733.526644711531
 10
3992.06853879912
 20
1733.526641440725
  0
LINE
  5
1613
330
1F
100
AcDbEntity
  8
SANINDUSA
100
AcDbLine
 10
3992.068538798955
 20
1733.526641437357
 30
0.0
 11
3992.069473401924
 21
1733.526641437357
 31
0.0
  0
LWPOLYLINE
  5
1614
330
1F
100
AcDbEntity
  8
SANINDUSA
100
AcDbPolyline
 90
        9
 70
   128
 43
0.0
 10
3992.069473401814
 20
1733.526641440725
 10
3992.069506670053
 20
1733.526639801598
 10
3992.069538660052
 20
1733.526634943819
 10
3992.069568141534
 20
1733.526627068556
 10
3992.069593982942
 20
1733.526616466379
 10
3992.069615190088
 20
1733.526603547073
 10
3992.069630948531
 20
1733.526588802374
 10
3992.069640652447
 20
1733.526572805977
 10
3992.069643929305
 20
1733.526556176281
  0
LINE
  5
1615
330
1F
100
AcDbEntity
  8
SANINDUSA
100
AcDbLine
 10
3992.068197744603
 20
1733.526235547996
 30
0.0
 11
3992.069466577365
 21
1733.526235549664
 31
0.0
  0
LWPOLYLINE
  5
1616
330
1F
100
AcDbEntity
  8
SANINDUSA
100
AcDbPolyline
 90
        9
 70
   128
 43
0.0
 10
3992.069466577547
 20
1733.526235547996
 10
3992.069533113561
 20
1733.526238826252
 10
3992.069597093093
 20
1733.526248526908
 10
3992.069656056988
 20
1733.526264292336
 10
3992.069707739337
 20
1733.526285496688
 10
3992.06975015363
 20
1733.526311335302
 10
3992.069781670517
 20
1733.526340817249
 10
3992.069801078348
 20
1733.526372810042
 10
3992.0698076316
 20
1733.526406076884
  0
LWPOLYLINE
  5
1617
330
1F
100
AcDbEntity
  8
SANINDUSA
100
AcDbPolyline
 90
        9
 70
   128
 43
0.0
 10
3992.068368286065
 20
1733.526869972384
 10
3992.068371562923
 20
1733.526886609531
 10
3992.068381266839
 20
1733.526902605927
 10
3992.068397025283
 20
1733.526917343176
 10
3992.068418232429
 20
1733.526930262482
 10
3992.06844407337
 20
1733.526940864659
 10
3992.068473555318
 20
1733.526948747373
 10
3992.068505545317
 20
1733.526953597701
 10
3992.068538813556
 20
1733.526955236829
  0
LWPOLYLINE
  5
1618
330
1F
100
AcDbEntity
  8
SANINDUSA
100
AcDbPolyline
 90
        9
 70
   128
 43
0.0
 10
3992.076110791935
 20
1733.526406717635
 10
3992.076117126441
 20
1733.526373353935
 10
3992.076136385203
 20
1733.526341264284
 10
3992.076167824586
 20
1733.526311670578
 10
3992.076210230642
 20
1733.526285720206
 10
3992.076261965961
 20
1733.526264418996
 10
3992.076321032942
 20
1733.526248593962
 10
3992.076385150834
 20
1733.526238841153
 10
3992.076451843949
 20
1733.526235547996
  0
LINE
  5
1619
330
1F
100
AcDbEntity
  8
SANINDUSA
100
AcDbLine
 10
3992.076451843924
 20
1733.526235549664
 30
0.0
 11
3992.077720663214
 21
1733.526235547996
 31
0.0
  0
LWPOLYLINE
  5
161A
330
1F
100
AcDbEntity
  8
SANINDUSA
100
AcDbPolyline
 90
        9
 70
   128
 43
0.0
 10
3992.07798670552
 20
1733.526406076884
 10
3992.077993258771
 20
1733.526372810042
 10
3992.078012666603
 20
1733.526340817249
 10
3992.078044183489
 20
1733.526311335302
 10
3992.078086598015
 20
1733.526285496688
 10
3992.078138280131
 20
1733.526264292336
 10
3992.078197244027
 20
1733.526248526908
 10
3992.078261223326
 20
1733.526238826252
 10
3992.078327759805
 20
1733.526235547996
  0
LINE
  5
161B
330
1F
100
AcDbEntity
  8
SANINDUSA
100
AcDbLine
 10
3992.078327759808
 20
1733.526235549664
 30
0.0
 11
3992.079255552678
 21
1733.526235549664
 31
0.0
  0
LWPOLYLINE
  5
161C
330
1F
100
AcDbEntity
  8
SANINDUSA
100
AcDbPolyline
 90
        9
 70
   128
 43
0.0
 10
3992.079255552667
 20
1733.526235547996
 10
3992.079322089145
 20
1733.526238826252
 10
3992.079386068446
 20
1733.526248526908
 10
3992.07944503234
 20
1733.526264292336
 10
3992.079496714456
 20
1733.526285496688
 10
3992.079539128982
 20
1733.526311335302
 10
3992.07957064587
 20
1733.526340817249
 10
3992.079590053701
 20
1733.526372810042
 10
3992.079596607185
 20
1733.526406076884
  0
LINE
  5
161D
330
1F
100
AcDbEntity
  8
SANINDUSA
100
AcDbLine
 10
3992.073818707893
 20
1733.526235547996
 30
0.0
 11
3992.073982439407
 21
1733.526235547996
 31
0.0
  0
LINE
  5
161E
330
1F
100
AcDbEntity
  8
SANINDUSA
100
AcDbLine
 10
3992.072113334604
 20
1733.526955236829
 30
0.0
 11
3992.073218421476
 21
1733.526955236893
 31
0.0
  0
LWPOLYLINE
  5
161F
330
1F
100
AcDbEntity
  8
SANINDUSA
100
AcDbPolyline
 90
        9
 70
   128
 43
0.0
 10
3992.073218421482
 20
1733.526955236829
 10
3992.073251689722
 20
1733.526953597701
 10
3992.073283679488
 20
1733.526948747373
 10
3992.073313161203
 20
1733.526940864659
 10
3992.073339002377
 20
1733.526930262482
 10
3992.073360209757
 20
1733.526917343176
 10
3992.073375967967
 20
1733.526902605927
 10
3992.073385672116
 20
1733.526886609531
 10
3992.073388948741
 20
1733.526869972384
  0
LINE
  5
1620
330
1F
100
AcDbEntity
  8
SANINDUSA
100
AcDbLine
 10
3992.073388948741
 20
1733.526235547996
 30
0.0
 11
3992.073552665703
 21
1733.526235547996
 31
0.0
  0
LINE
  5
1621
330
1F
100
AcDbEntity
  8
SANINDUSA
100
AcDbLine
 10
3992.071942793142
 20
1733.526235547996
 30
0.0
 11
3992.072113334604
 21
1733.526235547996
 31
0.0
  0
LINE
  5
1622
330
1F
100
AcDbEntity
  8
SANINDUSA
100
AcDbLine
 10
3992.073968433712
 20
1733.541819368637
 30
0.0
 11
3992.074318433817
 21
1733.541819368637
 31
0.0
  0
LWPOLYLINE
  5
1623
330
1F
100
AcDbEntity
  8
SANINDUSA
100
AcDbPolyline
 90
        9
 70
   128
 43
0.0
 10
3992.074318433817
 20
1733.536030297315
 10
3992.074425002381
 20
1733.535762419141
 10
3992.07472848432
 20
1733.535535317994
 10
3992.075182676951
 20
1733.535383579469
 10
3992.075718433767
 20
1733.535330292917
 10
3992.076254190582
 20
1733.535383579469
 10
3992.076708383213
 20
1733.535535317994
 10
3992.077011865152
 20
1733.535762419141
 10
3992.077118433716
 20
1733.536030297315
  0
LINE
  5
1624
330
1F
100
AcDbEntity
  8
SANINDUSA
100
AcDbLine
 10
3992.077118433716
 20
1733.544224013722
 30
0.0
 11
3992.077468433821
 21
1733.544224013722
 31
0.0
  0
LINE
  5
1625
330
1F
100
AcDbEntity
  8
SANINDUSA
100
AcDbLine
 10
3992.077468433821
 20
1733.542688523567
 30
0.0
 11
3992.078191058512
 21
1733.541862152996
 31
0.0
  0
LWPOLYLINE
  5
1626
330
1F
100
AcDbEntity
  8
SANINDUSA
100
AcDbPolyline
 90
        8
 70
   128
 43
0.0
 10
3992.078191058415
 20
1733.541862149871
 10
3992.078503330641
 20
1733.541638051308
 10
3992.078963349045
 20
1733.54149076823
 10
3992.079501080264
 20
1733.541442711986
 10
3992.080034659414
 20
1733.541501199043
 10
3992.080482853747
 20
1733.54165733341
 10
3992.080777430146
 20
1733.541887347734
 10
3992.080873807597
 20
1733.542142574823
  0
LWPOLYLINE
  5
1627
330
1F
100
AcDbEntity
  8
SANINDUSA
100
AcDbPolyline
 90
        9
 70
   128
 43
0.0
 10
3992.065768433905
 20
1733.541173582113
 10
3992.065787648022
 20
1733.541076039112
 10
3992.065844554625
 20
1733.540982236302
 10
3992.065936964176
 20
1733.540895794666
 10
3992.066061327404
 20
1733.540820022261
 10
3992.066212863831
 20
1733.540757839716
 10
3992.066385749898
 20
1733.540711631215
 10
3992.06657334341
 20
1733.540683184898
 10
3992.066768434069
 20
1733.540673573649
  0
LINE
  5
1628
330
1F
100
AcDbEntity
  8
SANINDUSA
100
AcDbLine
 10
3992.066768433767
 20
1733.540673576831
 30
0.0
 11
3992.067068433767
 21
1733.540673576831
 31
0.0
  0
LWPOLYLINE
  5
1629
330
1F
100
AcDbEntity
  8
SANINDUSA
100
AcDbPolyline
 90
        9
 70
   128
 43
0.0
 10
3992.067068433559
 20
1733.540673573649
 10
3992.067263524218
 20
1733.540683184898
 10
3992.067451116799
 20
1733.540711631215
 10
3992.067624003797
 20
1733.540757839716
 10
3992.067775540224
 20
1733.540820022261
 10
3992.067899903453
 20
1733.540895794666
 10
3992.067992313469
 20
1733.540982236302
 10
3992.068049219142
 20
1733.541076039112
 10
3992.068068433724
 20
1733.541173582113
  0
LINE
  5
162A
330
1F
100
AcDbEntity
  8
SANINDUSA
100
AcDbLine
 10
3992.068068433724
 20
1733.542095859683
 30
0.0
 11
3992.068418433594
 21
1733.542095859683
 31
0.0
  0
LWPOLYLINE
  5
162B
330
1F
100
AcDbEntity
  8
SANINDUSA
100
AcDbPolyline
 90
        9
 70
   128
 43
0.0
 10
3992.068418433594
 20
1733.540696983373
 10
3992.068437648642
 20
1733.540599440372
 10
3992.068494554314
 20
1733.540505637563
 10
3992.06858696433
 20
1733.540419195926
 10
3992.068711327094
 20
1733.540343423522
 10
3992.068862863521
 20
1733.540281240976
 10
3992.069035750518
 20
1733.540235047376
 10
3992.069223343565
 20
1733.540206586158
 10
3992.069418433759
 20
1733.54019697491
  0
LINE
  5
162C
330
1F
100
AcDbEntity
  8
SANINDUSA
100
AcDbLine
 10
3992.069418433766
 20
1733.54019698193
 30
0.0
 11
3992.070018433766
 21
1733.54019698193
 31
0.0
  0
LWPOLYLINE
  5
162D
330
1F
100
AcDbEntity
  8
SANINDUSA
100
AcDbPolyline
 90
        9
 70
   128
 43
0.0
 10
3992.07001843367
 20
1733.54019697491
 10
3992.070213523863
 20
1733.540206586158
 10
3992.070401117376
 20
1733.540235047376
 10
3992.070574003907
 20
1733.540281240976
 10
3992.070725540335
 20
1733.540343423522
 10
3992.070849903564
 20
1733.540419195926
 10
3992.070942313115
 20
1733.540505637563
 10
3992.070999219253
 20
1733.540599440372
 10
3992.071018433834
 20
1733.540696983373
  0
LINE
  5
162E
330
1F
100
AcDbEntity
  8
SANINDUSA
100
AcDbLine
 10
3992.071018433834
 20
1733.541819368637
 30
0.0
 11
3992.071368433705
 21
1733.541819368637
 31
0.0
  0
LWPOLYLINE
  5
162F
330
1F
100
AcDbEntity
  8
SANINDUSA
100
AcDbPolyline
 90
        9
 70
   128
 43
0.0
 10
3992.071368433705
 20
1733.540211294926
 10
3992.071387648287
 20
1733.540113751924
 10
3992.071444554425
 20
1733.540019949115
 10
3992.071536963976
 20
1733.539933507478
 10
3992.071661327204
 20
1733.539857735074
 10
3992.071812863632
 20
1733.539795552528
 10
3992.071985750396
 20
1733.539749358929
 10
3992.072173343443
 20
1733.539720897711
 10
3992.072368433869
 20
1733.539711286462
  0
LINE
  5
1630
330
1F
100
AcDbEntity
  8
SANINDUSA
100
AcDbLine
 10
3992.072368433767
 20
1733.53971129321
 30
0.0
 11
3992.072968433767
 21
1733.53971129321
 31
0.0
  0
LWPOLYLINE
  5
1631
330
1F
100
AcDbEntity
  8
SANINDUSA
100
AcDbPolyline
 90
        9
 70
   128
 43
0.0
 10
3992.072968433781
 20
1733.539711286462
 10
3992.073163523975
 20
1733.539720897711
 10
3992.073351117254
 20
1733.539749358929
 10
3992.073524004019
 20
1733.539795552528
 10
3992.073675540446
 20
1733.539857735074
 10
3992.073799903326
 20
1733.539933507478
 10
3992.073892313342
 20
1733.540019949115
 10
3992.073949219014
 20
1733.540113751924
 10
3992.073968433712
 20
1733.540211294926
  0
LWPOLYLINE
  5
1632
330
1F
100
AcDbEntity
  8
SANINDUSA
100
AcDbPolyline
 90
       20
 70
   128
 43
0.0
 10
3992.068218433934
 20
1733.535530296302
 10
3992.068313356194
 20
1733.534935561157
 10
3992.068611843682
 20
1733.534331713951
 10
3992.069105857222
 20
1733.533760843015
 10
3992.069781805093
 20
1733.533238654173
 10
3992.070621089249
 20
1733.532779519594
 10
3992.071600618011
 20
1733.532396060563
 10
3992.072693442164
 20
1733.532098842001
 10
3992.073869493727
 20
1733.531896029747
 10
3992.075096415817
 20
1733.531793211735
 10
3992.076340451716
 20
1733.531793211735
 10
3992.077567373806
 20
1733.531896029747
 10
3992.078743425368
 20
1733.532098842001
 10
3992.079836249522
 20
1733.532396060563
 10
3992.080815778285
 20
1733.532779519594
 10
3992.08165506244
 20
1733.533238654173
 10
3992.082331010311
 20
1733.533760843015
 10
3992.082825023851
 20
1733.534331713951
 10
3992.083123511339
 20
1733.534935561157
 10
3992.083218433599
 20
1733.535530296302
  0
LWPOLYLINE
  5
1633
330
1F
100
AcDbEntity
  8
SANINDUSA
100
AcDbPolyline
 90
        8
 70
   128
 43
0.0
 10
3992.077468433821
 20
1733.537978631592
 10
3992.078405847477
 20
1733.537756157256
 10
3992.079236248212
 20
1733.537445035911
 10
3992.079926568719
 20
1733.537057680226
 10
3992.080449321012
 20
1733.536609498
 10
3992.080783688633
 20
1733.536118340827
 10
3992.080916356931
 20
1733.535603766477
 10
3992.080918433781
 20
1733.535530296302
  0
LWPOLYLINE
  5
1634
330
1F
100
AcDbEntity
  8
SANINDUSA
100
AcDbPolyline
 90
        8
 70
   128
 43
0.0
 10
3992.070518433752
 20
1733.535530296302
 10
3992.070520510602
 20
1733.535603766477
 10
3992.070653178899
 20
1733.536118340827
 10
3992.070987546521
 20
1733.536609498
 10
3992.071510298814
 20
1733.537057680226
 10
3992.07220061932
 20
1733.537445035911
 10
3992.073031020055
 20
1733.537756157256
 10
3992.073968433712
 20
1733.537978631592
  0
LINE
  5
1635
330
1F
100
AcDbEntity
  8
SANINDUSA
100
AcDbLine
 10
3992.070196457843
 20
1733.526955236829
 30
0.0
 11
3992.071342521109
 21
1733.526955236893
 31
0.0
  0
LWPOLYLINE
  5
1636
330
1F
100
AcDbEntity
  8
SANINDUSA
100
AcDbPolyline
 90
        9
 70
   128
 43
0.0
 10
3992.071342521052
 20
1733.526955236829
 10
3992.071375789291
 20
1733.526953597701
 10
3992.071407778825
 20
1733.526948747373
 10
3992.071437260772
 20
1733.526940864659
 10
3992.07146310218
 20
1733.526930262482
 10
3992.071484309326
 20
1733.526917343176
 10
3992.071500067769
 20
1733.526902605927
 10
3992.071509771685
 20
1733.526886609531
 10
3992.071513048078
 20
1733.526869972384
  0
LWPOLYLINE
  5
1637
330
1F
100
AcDbEntity
  8
SANINDUSA
100
AcDbPolyline
 90
        9
 70
   128
 43
0.0
 10
3992.070073673672
 20
1733.526406076884
 10
3992.070080226923
 20
1733.526372810042
 10
3992.07009963522
 20
1733.526340817249
 10
3992.070131152107
 20
1733.526311335302
 10
3992.0701735664
 20
1733.526285496688
 10
3992.070225248749
 20
1733.526264292336
 10
3992.070284212179
 20
1733.526248526908
 10
3992.070348191711
 20
1733.526238826252
 10
3992.070414728189
 20
1733.526235547996
  0
LINE
  5
1638
330
1F
100
AcDbEntity
  8
SANINDUSA
100
AcDbLine
 10
3992.070414728239
 20
1733.526235549664
 30
0.0
 11
3992.071683590005
 21
1733.526235547996
 31
0.0
  0
LINE
  5
1639
330
1F
100
AcDbEntity
  8
SANINDUSA
100
AcDbLine
 10
3992.075687827043
 20
1733.526235547996
 30
0.0
 11
3992.075858368694
 21
1733.526235547996
 31
0.0
  0
LINE
  5
163A
330
1F
100
AcDbEntity
  8
SANINDUSA
100
AcDbLine
 10
3992.074248467043
 20
1733.526235547996
 30
0.0
 11
3992.074412198558
 21
1733.526235547996
 31
0.0
  0
LINE
  5
163B
330
1F
100
AcDbEntity
  8
SANINDUSA
100
AcDbLine
 10
3992.074412198558
 20
1733.526955236829
 30
0.0
 11
3992.075517299848
 21
1733.526955236893
 31
0.0
  0
LWPOLYLINE
  5
163C
330
1F
100
AcDbEntity
  8
SANINDUSA
100
AcDbPolyline
 90
        9
 70
   128
 43
0.0
 10
3992.075517299843
 20
1733.526955236829
 10
3992.075550568053
 20
1733.526953597701
 10
3992.075582557776
 20
1733.526948747373
 10
3992.075612039679
 20
1733.526940864659
 10
3992.075637880781
 20
1733.526930262482
 10
3992.07565908803
 20
1733.526917343176
 10
3992.075674846433
 20
1733.526902605927
 10
3992.07568455041
 20
1733.526886609531
 10
3992.075687827043
 20
1733.526869972384
  0
LINE
  5
163D
330
1F
100
AcDbEntity
  8
SANINDUSA
100
AcDbLine
 10
3992.073818707893
 20
1733.527122360802
 30
0.0
 11
3992.073982439407
 21
1733.527122360802
 31
0.0
  0
LINE
  5
163E
330
1F
100
AcDbEntity
  8
SANINDUSA
100
AcDbLine
 10
3992.081854552667
 20
1733.526955236829
 30
0.0
 11
3992.083000586689
 21
1733.526955236893
 31
0.0
  0
LWPOLYLINE
  5
163F
330
1F
100
AcDbEntity
  8
SANINDUSA
100
AcDbPolyline
 90
        9
 70
   128
 43
0.0
 10
3992.083000586538
 20
1733.526955236829
 10
3992.083033854778
 20
1733.526953597701
 10
3992.083065844777
 20
1733.526948747373
 10
3992.083095326724
 20
1733.526940864659
 10
3992.083121167667
 20
1733.526930262482
 10
3992.083142374813
 20
1733.526917343176
 10
3992.083158133256
 20
1733.526902605927
 10
3992.083167837171
 20
1733.526886609531
 10
3992.08317111403
 20
1733.526869972384
  0
LWPOLYLINE
  5
1640
330
1F
100
AcDbEntity
  8
SANINDUSA
100
AcDbPolyline
 90
        9
 70
   128
 43
0.0
 10
3992.081731768495
 20
1733.526406076884
 10
3992.081738321746
 20
1733.526372810042
 10
3992.081757729578
 20
1733.526340817249
 10
3992.081789246465
 20
1733.526311335302
 10
3992.081831660757
 20
1733.526285496688
 10
3992.081883343107
 20
1733.526264292336
 10
3992.081942307001
 20
1733.526248526908
 10
3992.082006286534
 20
1733.526238826252
 10
3992.082072822547
 20
1733.526235547996
  0
LINE
  5
1641
330
1F
100
AcDbEntity
  8
SANINDUSA
100
AcDbLine
 10
3992.082072822737
 20
1733.526235549664
 30
0.0
 11
3992.083341655492
 21
1733.526235547996
 31
0.0
  0
LINE
  5
1642
330
1F
100
AcDbEntity
  8
SANINDUSA
100
AcDbLine
 10
3992.081462825996
 20
1733.526404482523
 30
0.0
 11
3992.081465632825
 21
1733.526554589308
 31
0.0
  0
LWPOLYLINE
  5
1643
330
1F
100
AcDbEntity
  8
SANINDUSA
100
AcDbPolyline
 90
        9
 70
   128
 43
0.0
 10
3992.080026352017
 20
1733.526869972384
 10
3992.08002962841
 20
1733.526886609531
 10
3992.080039332325
 20
1733.526902605927
 10
3992.080055090769
 20
1733.526917343176
 10
3992.080076297916
 20
1733.526930262482
 10
3992.080102139322
 20
1733.526940864659
 10
3992.08013162127
 20
1733.526948747373
 10
3992.080163610804
 20
1733.526953597701
 10
3992.080196879043
 20
1733.526955236829
  0
LINE
  5
1644
330
1F
100
AcDbEntity
  8
SANINDUSA
100
AcDbLine
 10
3992.080196878993
 20
1733.526955236893
 30
0.0
 11
3992.081342942252
 21
1733.526955236829
 31
0.0
  0
LWPOLYLINE
  5
1645
330
1F
100
AcDbEntity
  8
SANINDUSA
100
AcDbPolyline
 90
        9
 70
   128
 43
0.0
 10
3992.07985581009
 20
1733.526811962164
 10
3992.079862363341
 20
1733.526778695322
 10
3992.079881771172
 20
1733.526746709979
 10
3992.07991328806
 20
1733.526717228032
 10
3992.079955702818
 20
1733.526691381968
 10
3992.080007384701
 20
1733.526670177615
 10
3992.080066348597
 20
1733.526654419637
 10
3992.080130328129
 20
1733.526644711531
 10
3992.080196864608
 20
1733.526641440725
  0
LINE
  5
1646
330
1F
100
AcDbEntity
  8
SANINDUSA
100
AcDbLine
 10
3992.080196864534
 20
1733.526641437357
 30
0.0
 11
3992.081131467504
 21
1733.526641437357
 31
0.0
  0
LWPOLYLINE
  5
1647
330
1F
100
AcDbEntity
  8
SANINDUSA
100
AcDbPolyline
 90
        9
 70
   128
 43
0.0
 10
3992.0811314673
 20
1733.526641440725
 10
3992.081164735539
 20
1733.526639801598
 10
3992.081196725539
 20
1733.526634943819
 10
3992.081226207486
 20
1733.526627068556
 10
3992.081252048428
 20
1733.526616466379
 10
3992.081273255575
 20
1733.526603547073
 10
3992.081289014018
 20
1733.526588802374
 10
3992.081298717933
 20
1733.526572805977
 10
3992.081301994792
 20
1733.526556176281
  0
LINE
  5
1648
330
1F
100
AcDbEntity
  8
SANINDUSA
100
AcDbLine
 10
3992.07985581009
 20
1733.526235547996
 30
0.0
 11
3992.08112178651
 21
1733.526235549664
 31
0.0
  0
LWPOLYLINE
  5
1649
330
1F
100
AcDbEntity
  8
SANINDUSA
100
AcDbPolyline
 90
        9
 70
   128
 43
0.0
 10
3992.081121786668
 20
1733.526235547996
 10
3992.08118793199
 20
1733.526238788998
 10
3992.081251565537
 20
1733.526248377896
 10
3992.08131027099
 20
1733.52626395706
 10
3992.081361818298
 20
1733.526284930444
 10
3992.081404250751
 20
1733.526310508287
 10
3992.081435956697
 20
1733.526339714563
 10
3992.081455731934
 20
1733.526371439135
 10
3992.081462825819
 20
1733.52640448246
  0
LINE
  5
164B
330
1F
100
AcDbEntity
  8
SANINDUSA
100
AcDbLine
 10
3992.081902295541
 20
1733.526564834012
 30
0.0
 11
3992.081902295541
 21
1733.526411339294
 31
0.0
  0
LWPOLYLINE
  5
164C
330
1F
100
AcDbEntity
  8
SANINDUSA
100
AcDbPolyline
 90
        9
 70
   128
 43
0.0
 10
3992.081902295522
 20
1733.526411336995
 10
3992.08190557238
 20
1733.526394707299
 10
3992.081915276295
 20
1733.526378710902
 10
3992.081931034739
 20
1733.526363966203
 10
3992.081952241886
 20
1733.526351046896
 10
3992.081978082827
 20
1733.52634044472
 10
3992.082007564775
 20
1733.526332569456
 10
3992.082039554308
 20
1733.526327711678
 10
3992.082072822547
 20
1733.52632607255
  0
LINE
  5
164D
330
1F
100
AcDbEntity
  8
SANINDUSA
100
AcDbLine
 10
3992.082072822737
 20
1733.526326075696
 30
0.0
 11
3992.08317111403
 21
1733.52632607255
 31
0.0
  0
LINE
  5
164E
330
1F
100
AcDbEntity
  8
SANINDUSA
100
AcDbLine
 10
3992.08317111403
 20
1733.52632607255
 30
0.0
 11
3992.08317111403
 21
1733.526650098301
 31
0.0
  0
LINE
  5
164F
330
1F
100
AcDbEntity
  8
SANINDUSA
100
AcDbLine
 10
3992.08317111403
 20
1733.526650098301
 30
0.0
 11
3992.082072822737
 21
1733.52665009761
 31
0.0
  0
LWPOLYLINE
  5
1650
330
1F
100
AcDbEntity
  8
SANINDUSA
100
AcDbPolyline
 90
        9
 70
   128
 43
0.0
 10
3992.082072822547
 20
1733.526650098301
 10
3992.082039554308
 20
1733.526648459173
 10
3992.082007564775
 20
1733.526643608845
 10
3992.081978082827
 20
1733.52663572613
 10
3992.081952241886
 20
1733.526625123954
 10
3992.081931034739
 20
1733.526612204648
 10
3992.081915276295
 20
1733.526597459948
 10
3992.08190557238
 20
1733.526581471003
 10
3992.081902295522
 20
1733.526564833856
  0
LWPOLYLINE
  5
1651
330
1F
100
AcDbEntity
  8
SANINDUSA
100
AcDbPolyline
 90
        9
 70
   128
 43
0.0
 10
3992.081731768495
 20
1733.526414734459
 10
3992.081738321746
 20
1733.526381467617
 10
3992.081757729578
 20
1733.526349482275
 10
3992.081789246465
 20
1733.526320000327
 10
3992.081831660757
 20
1733.526294154263
 10
3992.081883343107
 20
1733.526272949911
 10
3992.081942307001
 20
1733.526257191932
 10
3992.082006286534
 20
1733.526247483826
 10
3992.082072822547
 20
1733.526244213021
  0
LINE
  5
1652
330
1F
100
AcDbEntity
  8
SANINDUSA
100
AcDbLine
 10
3992.081731768344
 20
1733.526564841242
 30
0.0
 11
3992.081731768344
 21
1733.526414737114
 31
0.0
  0
LWPOLYLINE
  5
1653
330
1F
100
AcDbEntity
  8
SANINDUSA
100
AcDbPolyline
 90
        9
 70
   128
 43
0.0
 10
3992.082072822547
 20
1733.526735370195
 10
3992.082006286534
 20
1733.52673209194
 10
3992.081942307001
 20
1733.526722391284
 10
3992.081883343107
 20
1733.526706625855
 10
3992.081831660757
 20
1733.526685421503
 10
3992.081789246465
 20
1733.526659582889
 10
3992.081757729578
 20
1733.526630100942
 10
3992.081738321746
 20
1733.526598108149
 10
3992.081731768495
 20
1733.526564841306
  0
LINE
  5
1654
330
1F
100
AcDbEntity
  8
SANINDUSA
100
AcDbLine
 10
3992.08317111403
 20
1733.526735370195
 30
0.0
 11
3992.082072822737
 21
1733.526735368438
 31
0.0
  0
LINE
  5
1655
330
1F
100
AcDbEntity
  8
SANINDUSA
100
AcDbLine
 10
3992.083171113885
 20
1733.526878633549
 30
0.0
 11
3992.08317111403
 21
1733.526735370195
 31
0.0
  0
LWPOLYLINE
  5
1656
330
1F
100
AcDbEntity
  8
SANINDUSA
100
AcDbPolyline
 90
        9
 70
   128
 43
0.0
 10
3992.083000586538
 20
1733.526963894403
 10
3992.083033854778
 20
1733.526962255275
 10
3992.083065844777
 20
1733.526957404947
 10
3992.083095326724
 20
1733.526949529684
 10
3992.083121167667
 20
1733.526938927508
 10
3992.083142374813
 20
1733.526926000751
 10
3992.083158133256
 20
1733.526911263502
 10
3992.083167837171
 20
1733.526895267106
 10
3992.08317111403
 20
1733.526878629959
  0
LINE
  5
1657
330
1F
100
AcDbEntity
  8
SANINDUSA
100
AcDbLine
 10
3992.081854552667
 20
1733.526963894403
 30
0.0
 11
3992.083000586689
 21
1733.526963897147
 31
0.0
  0
LINE
  5
1658
330
1F
100
AcDbEntity
  8
SANINDUSA
100
AcDbLine
 10
3992.081854552667
 20
1733.527049158848
 30
0.0
 11
3992.081854552667
 21
1733.526963894403
 31
0.0
  0
LINE
  5
1659
330
1F
100
AcDbEntity
  8
SANINDUSA
100
AcDbLine
 10
3992.083000601148
 20
1733.527049160745
 30
0.0
 11
3992.081854552667
 21
1733.527049158848
 31
0.0
  0
LWPOLYLINE
  5
165A
330
1F
100
AcDbEntity
  8
SANINDUSA
100
AcDbPolyline
 90
        9
 70
   128
 43
0.0
 10
3992.083341655492
 20
1733.526878629959
 10
3992.08333510224
 20
1733.526911904252
 10
3992.083315694409
 20
1733.526943889594
 10
3992.083284177521
 20
1733.526973371542
 10
3992.083241763229
 20
1733.526999217606
 10
3992.08319008088
 20
1733.527020421959
 10
3992.083131116985
 20
1733.527036179936
 10
3992.083067137452
 20
1733.527045880592
 10
3992.083000600974
 20
1733.527049158848
  0
LINE
  5
165B
330
1F
100
AcDbEntity
  8
SANINDUSA
100
AcDbLine
 10
3992.083341655492
 20
1733.526244213021
 30
0.0
 11
3992.08334165554
 21
1733.526878633549
 31
0.0
  0
LINE
  5
165C
330
1F
100
AcDbEntity
  8
SANINDUSA
100
AcDbLine
 10
3992.082072822737
 20
1733.526244209918
 30
0.0
 11
3992.083341655492
 21
1733.526244213021
 31
0.0
  0
LINE
  5
165D
330
1F
100
AcDbEntity
  8
SANINDUSA
100
AcDbLine
 10
3992.082072822737
 20
1733.526244209918
 30
0.0
 11
3992.082072822737
 21
1733.526235549664
 31
0.0
  0
LINE
  5
165E
330
1F
100
AcDbEntity
  8
SANINDUSA
100
AcDbLine
 10
3992.083341655492
 20
1733.526244213021
 30
0.0
 11
3992.083341655492
 21
1733.526235547996
 31
0.0
  0
LINE
  5
165F
330
1F
100
AcDbEntity
  8
SANINDUSA
100
AcDbLine
 10
3992.076451843924
 20
1733.526244209918
 30
0.0
 11
3992.076451843924
 21
1733.526235549664
 31
0.0
  0
LINE
  5
1660
330
1F
100
AcDbEntity
  8
SANINDUSA
100
AcDbLine
 10
3992.076451843924
 20
1733.526244209918
 30
0.0
 11
3992.077720663214
 21
1733.526244213021
 31
0.0
  0
LINE
  5
1661
330
1F
100
AcDbEntity
  8
SANINDUSA
100
AcDbLine
 10
3992.077720663214
 20
1733.526244213021
 30
0.0
 11
3992.077720663214
 21
1733.526235547996
 31
0.0
  0
LINE
  5
1662
330
1F
100
AcDbEntity
  8
SANINDUSA
100
AcDbLine
 10
3992.081731768344
 20
1733.526414737114
 30
0.0
 11
3992.081731768344
 21
1733.52640607686
 31
0.0
  0
LINE
  5
1663
330
1F
100
AcDbEntity
  8
SANINDUSA
100
AcDbLine
 10
3992.073388948741
 20
1733.526244213021
 30
0.0
 11
3992.073388948741
 21
1733.526235547996
 31
0.0
  0
LINE
  5
1664
330
1F
100
AcDbEntity
  8
SANINDUSA
100
AcDbLine
 10
3992.073388948741
 20
1733.526244213021
 30
0.0
 11
3992.073552665703
 21
1733.526244213021
 31
0.0
  0
LINE
  5
1665
330
1F
100
AcDbEntity
  8
SANINDUSA
100
AcDbLine
 10
3992.073552665703
 20
1733.526244213021
 30
0.0
 11
3992.073552665703
 21
1733.526235547996
 31
0.0
  0
LINE
  5
1666
330
1F
100
AcDbEntity
  8
SANINDUSA
100
AcDbLine
 10
3992.068368286217
 20
1733.526820632036
 30
0.0
 11
3992.068368286217
 21
1733.526878633549
 31
0.0
  0
LWPOLYLINE
  5
1667
330
1F
100
AcDbEntity
  8
SANINDUSA
100
AcDbPolyline
 90
        9
 70
   128
 43
0.0
 10
3992.068538813556
 20
1733.526735370195
 10
3992.068505545317
 20
1733.526737009323
 10
3992.068473555318
 20
1733.526741859651
 10
3992.06844407337
 20
1733.526749734914
 10
3992.068418232429
 20
1733.526760344541
 10
3992.068397025283
 20
1733.526773263848
 10
3992.068381266839
 20
1733.526788001096
 10
3992.068371562923
 20
1733.526803997493
 10
3992.068368286065
 20
1733.52682063464
  0
LINE
  5
1668
330
1F
100
AcDbEntity
  8
SANINDUSA
100
AcDbLine
 10
3992.069466577365
 20
1733.526735368438
 30
0.0
 11
3992.068538813413
 21
1733.526735368438
 31
0.0
  0
LWPOLYLINE
  5
1669
330
1F
100
AcDbEntity
  8
SANINDUSA
100
AcDbPolyline
 90
        9
 70
   128
 43
0.0
 10
3992.0698076316
 20
1733.526564841306
 10
3992.069801078348
 20
1733.526598108149
 10
3992.069781670517
 20
1733.526630100942
 10
3992.06975015363
 20
1733.526659582889
 10
3992.069707739337
 20
1733.526685421503
 10
3992.069656056988
 20
1733.526706625855
 10
3992.069597093093
 20
1733.526722391284
 10
3992.069533113561
 20
1733.52673209194
 10
3992.069466577547
 20
1733.526735370195
  0
LINE
  5
166A
330
1F
100
AcDbEntity
  8
SANINDUSA
100
AcDbLine
 10
3992.069807631757
 20
1733.526414737114
 30
0.0
 11
3992.069807631757
 21
1733.526564841242
 31
0.0
  0
LWPOLYLINE
  5
166B
330
1F
100
AcDbEntity
  8
SANINDUSA
100
AcDbPolyline
 90
        9
 70
   128
 43
0.0
 10
3992.069466577547
 20
1733.526244213021
 10
3992.069533113561
 20
1733.526247483826
 10
3992.069597093093
 20
1733.526257191932
 10
3992.069656056988
 20
1733.526272949911
 10
3992.069707739337
 20
1733.526294154263
 10
3992.06975015363
 20
1733.526320000327
 10
3992.069781670517
 20
1733.526349482275
 10
3992.069801078348
 20
1733.526381467617
 10
3992.0698076316
 20
1733.526414734459
  0
LINE
  5
166C
330
1F
100
AcDbEntity
  8
SANINDUSA
100
AcDbLine
 10
3992.068197744603
 20
1733.526244213021
 30
0.0
 11
3992.069466577365
 21
1733.526244209918
 31
0.0
  0
LINE
  5
166D
330
1F
100
AcDbEntity
  8
SANINDUSA
100
AcDbLine
 10
3992.068197744603
 20
1733.52632607255
 30
0.0
 11
3992.068197744603
 21
1733.526244213021
 31
0.0
  0
LINE
  5
166E
330
1F
100
AcDbEntity
  8
SANINDUSA
100
AcDbLine
 10
3992.069473401924
 20
1733.526326075696
 30
0.0
 11
3992.068197744603
 21
1733.52632607255
 31
0.0
  0
LWPOLYLINE
  5
166F
330
1F
100
AcDbEntity
  8
SANINDUSA
100
AcDbPolyline
 90
        9
 70
   128
 43
0.0
 10
3992.069643929305
 20
1733.526411336995
 10
3992.069640652447
 20
1733.526394707299
 10
3992.069630948531
 20
1733.526378710902
 10
3992.069615190088
 20
1733.526363966203
 10
3992.069593982942
 20
1733.526351046896
 10
3992.069568141534
 20
1733.52634044472
 10
3992.069538660052
 20
1733.526332569456
 10
3992.069506670053
 20
1733.526327711678
 10
3992.069473401814
 20
1733.52632607255
  0
LINE
  5
1670
330
1F
100
AcDbEntity
  8
SANINDUSA
100
AcDbLine
 10
3992.069643929119
 20
1733.526564834012
 30
0.0
 11
3992.069643929119
 21
1733.526411339294
 31
0.0
  0
LWPOLYLINE
  5
1671
330
1F
100
AcDbEntity
  8
SANINDUSA
100
AcDbPolyline
 90
        9
 70
   128
 43
0.0
 10
3992.069473401814
 20
1733.526650098301
 10
3992.069506670053
 20
1733.526648459173
 10
3992.069538660052
 20
1733.526643608845
 10
3992.069568141534
 20
1733.52663572613
 10
3992.069593982942
 20
1733.526625123954
 10
3992.069615190088
 20
1733.526612204648
 10
3992.069630948531
 20
1733.526597459948
 10
3992.069640652447
 20
1733.526581471003
 10
3992.069643929305
 20
1733.526564833856
  0
LINE
  5
1672
330
1F
100
AcDbEntity
  8
SANINDUSA
100
AcDbLine
 10
3992.068538798955
 20
1733.52665009761
 30
0.0
 11
3992.069473401924
 21
1733.52665009761
 31
0.0
  0
LWPOLYLINE
  5
1673
330
1F
100
AcDbEntity
  8
SANINDUSA
100
AcDbPolyline
 90
        9
 70
   128
 43
0.0
 10
3992.068197744603
 20
1733.526820627189
 10
3992.068204297854
 20
1733.526787352896
 10
3992.068223705685
 20
1733.526755367554
 10
3992.068255222573
 20
1733.526725885606
 10
3992.068297636865
 20
1733.526700046993
 10
3992.068349319215
 20
1733.52667883519
 10
3992.06840828311
 20
1733.526663077212
 10
3992.068472262642
 20
1733.526653376556
 10
3992.06853879912
 20
1733.526650098301
  0
LINE
  5
1674
330
1F
100
AcDbEntity
  8
SANINDUSA
100
AcDbLine
 10
3992.068197744562
 20
1733.526878633549
 30
0.0
 11
3992.068197744562
 21
1733.526820624806
 31
0.0
  0
LWPOLYLINE
  5
1675
330
1F
100
AcDbEntity
  8
SANINDUSA
100
AcDbPolyline
 90
        9
 70
   128
 43
0.0
 10
3992.06853879912
 20
1733.527049158848
 10
3992.068472262642
 20
1733.527045880592
 10
3992.06840828311
 20
1733.527036179936
 10
3992.068349319215
 20
1733.527020421959
 10
3992.068297636865
 20
1733.526999217606
 10
3992.068255222573
 20
1733.526973371542
 10
3992.068223705685
 20
1733.526943889594
 10
3992.068204297854
 20
1733.526911904252
 10
3992.068197744603
 20
1733.526878629959
  0
LINE
  5
1676
330
1F
100
AcDbEntity
  8
SANINDUSA
100
AcDbLine
 10
3992.069684847428
 20
1733.527049158848
 30
0.0
 11
3992.068538798955
 21
1733.527049160745
 31
0.0
  0
LINE
  5
1677
330
1F
100
AcDbEntity
  8
SANINDUSA
100
AcDbLine
 10
3992.069684847428
 20
1733.526963894403
 30
0.0
 11
3992.069684847428
 21
1733.527049158848
 31
0.0
  0
LINE
  5
1678
330
1F
100
AcDbEntity
  8
SANINDUSA
100
AcDbLine
 10
3992.068538813413
 20
1733.526963897147
 30
0.0
 11
3992.069684847428
 21
1733.526963894403
 31
0.0
  0
LWPOLYLINE
  5
1679
330
1F
100
AcDbEntity
  8
SANINDUSA
100
AcDbPolyline
 90
        9
 70
   128
 43
0.0
 10
3992.068368286065
 20
1733.526878629959
 10
3992.068371562923
 20
1733.526895267106
 10
3992.068381266839
 20
1733.526911263502
 10
3992.068397025283
 20
1733.526926000751
 10
3992.068418232429
 20
1733.526938927508
 10
3992.06844407337
 20
1733.526949529684
 10
3992.068473555318
 20
1733.526957404947
 10
3992.068505545317
 20
1733.526962255275
 10
3992.068538813556
 20
1733.526963894403
  0
LINE
  5
167A
330
1F
100
AcDbEntity
  8
SANINDUSA
100
AcDbLine
 10
3992.07985581009
 20
1733.526244213021
 30
0.0
 11
3992.08112178651
 21
1733.526244209918
 31
0.0
  0
LINE
  5
167B
330
1F
100
AcDbEntity
  8
SANINDUSA
100
AcDbLine
 10
3992.08112178651
 20
1733.526244209918
 30
0.0
 11
3992.08112178651
 21
1733.526235549664
 31
0.0
  0
LINE
  5
167C
330
1F
100
AcDbEntity
  8
SANINDUSA
100
AcDbLine
 10
3992.07985581009
 20
1733.526244213021
 30
0.0
 11
3992.07985581009
 21
1733.526235547996
 31
0.0
  0
LINE
  5
167D
330
1F
100
AcDbEntity
  8
SANINDUSA
100
AcDbLine
 10
3992.075687827043
 20
1733.526244213021
 30
0.0
 11
3992.075858368694
 21
1733.526244213021
 31
0.0
  0
LINE
  5
167E
330
1F
100
AcDbEntity
  8
SANINDUSA
100
AcDbLine
 10
3992.075858368694
 20
1733.526244213021
 30
0.0
 11
3992.075858368694
 21
1733.526235547996
 31
0.0
  0
LINE
  5
167F
330
1F
100
AcDbEntity
  8
SANINDUSA
100
AcDbLine
 10
3992.075687827043
 20
1733.526244213021
 30
0.0
 11
3992.075687827043
 21
1733.526235547996
 31
0.0
  0
LINE
  5
1680
330
1F
100
AcDbEntity
  8
SANINDUSA
100
AcDbLine
 10
3992.069466577365
 20
1733.526244209918
 30
0.0
 11
3992.069466577365
 21
1733.526235549664
 31
0.0
  0
LINE
  5
1681
330
1F
100
AcDbEntity
  8
SANINDUSA
100
AcDbLine
 10
3992.069807631757
 20
1733.526414737114
 30
0.0
 11
3992.069807631757
 21
1733.52640607686
 31
0.0
  0
LINE
  5
1682
330
1F
100
AcDbEntity
  8
SANINDUSA
100
AcDbLine
 10
3992.074248467043
 20
1733.526244213021
 30
0.0
 11
3992.074412198558
 21
1733.526244213021
 31
0.0
  0
LINE
  5
1683
330
1F
100
AcDbEntity
  8
SANINDUSA
100
AcDbLine
 10
3992.074412198558
 20
1733.526244213021
 30
0.0
 11
3992.074412198558
 21
1733.526235547996
 31
0.0
  0
LINE
  5
1684
330
1F
100
AcDbEntity
  8
SANINDUSA
100
AcDbLine
 10
3992.074248467043
 20
1733.526244213021
 30
0.0
 11
3992.074248467043
 21
1733.526235547996
 31
0.0
  0
LINE
  5
1685
330
1F
100
AcDbEntity
  8
SANINDUSA
100
AcDbLine
 10
3992.073818707893
 20
1733.526244213021
 30
0.0
 11
3992.073818707893
 21
1733.526235547996
 31
0.0
  0
LINE
  5
1686
330
1F
100
AcDbEntity
  8
SANINDUSA
100
AcDbLine
 10
3992.073818707893
 20
1733.526244213021
 30
0.0
 11
3992.073982439407
 21
1733.526244213021
 31
0.0
  0
LINE
  5
1687
330
1F
100
AcDbEntity
  8
SANINDUSA
100
AcDbLine
 10
3992.073982439407
 20
1733.526244213021
 30
0.0
 11
3992.073982439407
 21
1733.526235547996
 31
0.0
  0
LINE
  5
1688
330
1F
100
AcDbEntity
  8
SANINDUSA
100
AcDbLine
 10
3992.079256145339
 20
1733.526327740447
 30
0.0
 11
3992.078321556828
 21
1733.526326076751
 31
0.0
  0
LWPOLYLINE
  5
1689
330
1F
100
AcDbEntity
  8
SANINDUSA
100
AcDbPolyline
 90
        9
 70
   128
 43
0.0
 10
3992.07942606549
 20
1733.526413005925
 10
3992.079422803533
 20
1733.526396406031
 10
3992.079413142924
 20
1733.526380446887
 10
3992.0793974527
 20
1733.526365731991
 10
3992.079376333563
 20
1733.526352820135
 10
3992.079350593204
 20
1733.526342217959
 10
3992.079321216497
 20
1733.526334320343
 10
3992.079289327313
 20
1733.526329432762
 10
3992.079256145454
 20
1733.52632774148
  0
LINE
  5
168A
330
1F
100
AcDbEntity
  8
SANINDUSA
100
AcDbLine
 10
3992.07942606549
 20
1733.527049158848
 30
0.0
 11
3992.079426065415
 21
1733.526413003505
 31
0.0
  0
LINE
  5
168B
330
1F
100
AcDbEntity
  8
SANINDUSA
100
AcDbLine
 10
3992.079596607185
 20
1733.527049158848
 30
0.0
 11
3992.07942606549
 21
1733.527049158848
 31
0.0
  0
LINE
  5
168C
330
1F
100
AcDbEntity
  8
SANINDUSA
100
AcDbLine
 10
3992.07959660707
 20
1733.526414737114
 30
0.0
 11
3992.079596607185
 21
1733.527049158848
 31
0.0
  0
LWPOLYLINE
  5
168D
330
1F
100
AcDbEntity
  8
SANINDUSA
100
AcDbPolyline
 90
        9
 70
   128
 43
0.0
 10
3992.079255552667
 20
1733.526244213021
 10
3992.079322089145
 20
1733.526247483826
 10
3992.079386068446
 20
1733.526257191932
 10
3992.07944503234
 20
1733.526272949911
 10
3992.079496714456
 20
1733.526294154263
 10
3992.079539128982
 20
1733.526320000327
 10
3992.07957064587
 20
1733.526349482275
 10
3992.079590053701
 20
1733.526381467617
 10
3992.079596607185
 20
1733.526414734459
  0
LINE
  5
168E
330
1F
100
AcDbEntity
  8
SANINDUSA
100
AcDbLine
 10
3992.078327759808
 20
1733.526244209918
 30
0.0
 11
3992.079255552678
 21
1733.526244209918
 31
0.0
  0
LWPOLYLINE
  5
168F
330
1F
100
AcDbEntity
  8
SANINDUSA
100
AcDbPolyline
 90
        9
 70
   128
 43
0.0
 10
3992.07798670552
 20
1733.526414734459
 10
3992.077993258771
 20
1733.526381467617
 10
3992.078012666603
 20
1733.526349482275
 10
3992.078044183489
 20
1733.526320000327
 10
3992.078086598015
 20
1733.526294154263
 10
3992.078138280131
 20
1733.526272949911
 10
3992.078197244027
 20
1733.526257191932
 10
3992.078261223326
 20
1733.526247483826
 10
3992.078327759805
 20
1733.526244213021
  0
LINE
  5
1690
330
1F
100
AcDbEntity
  8
SANINDUSA
100
AcDbLine
 10
3992.07798670552
 20
1733.527049158848
 30
0.0
 11
3992.077986705416
 21
1733.526414737114
 31
0.0
  0
LINE
  5
1691
330
1F
100
AcDbEntity
  8
SANINDUSA
100
AcDbLine
 10
3992.078150422483
 20
1733.527049158848
 30
0.0
 11
3992.07798670552
 21
1733.527049158848
 31
0.0
  0
LINE
  5
1692
330
1F
100
AcDbEntity
  8
SANINDUSA
100
AcDbLine
 10
3992.078150422513
 20
1733.526411339808
 30
0.0
 11
3992.078150422483
 21
1733.527049158848
 31
0.0
  0
LWPOLYLINE
  5
1693
330
1F
100
AcDbEntity
  8
SANINDUSA
100
AcDbPolyline
 90
        9
 70
   128
 43
0.0
 10
3992.078321556731
 20
1733.526326080001
 10
3992.078288202577
 20
1733.526327659524
 10
3992.078256112693
 20
1733.52633248005
 10
3992.078226525507
 20
1733.526340340412
 10
3992.078200583517
 20
1733.526350942588
 10
3992.078179288127
 20
1733.526363876796
 10
3992.078163461231
 20
1733.526378643847
 10
3992.07815371401
 20
1733.526394670046
 10
3992.078150422483
 20
1733.526411336995
  0
LINE
  5
1694
330
1F
100
AcDbEntity
  8
SANINDUSA
100
AcDbLine
 10
3992.078327759808
 20
1733.526244209918
 30
0.0
 11
3992.078327759808
 21
1733.526235549664
 31
0.0
  0
LINE
  5
1695
330
1F
100
AcDbEntity
  8
SANINDUSA
100
AcDbLine
 10
3992.079255552678
 20
1733.526244209918
 30
0.0
 11
3992.079255552678
 21
1733.526235549664
 31
0.0
  0
LINE
  5
1696
330
1F
100
AcDbEntity
  8
SANINDUSA
100
AcDbLine
 10
3992.071942793142
 20
1733.526244213021
 30
0.0
 11
3992.071942793142
 21
1733.526235547996
 31
0.0
  0
LINE
  5
1697
330
1F
100
AcDbEntity
  8
SANINDUSA
100
AcDbLine
 10
3992.071942793142
 20
1733.526244213021
 30
0.0
 11
3992.072113334604
 21
1733.526244213021
 31
0.0
  0
LINE
  5
1698
330
1F
100
AcDbEntity
  8
SANINDUSA
100
AcDbLine
 10
3992.072113334604
 20
1733.526244213021
 30
0.0
 11
3992.072113334604
 21
1733.526235547996
 31
0.0
  0
LINE
  5
1699
330
1F
100
AcDbEntity
  8
SANINDUSA
100
AcDbLine
 10
3992.068197744603
 20
1733.526244213021
 30
0.0
 11
3992.068197744603
 21
1733.526235547996
 31
0.0
  0
LINE
  5
169A
330
1F
100
AcDbEntity
  8
SANINDUSA
100
AcDbLine
 10
3992.081131467504
 20
1733.526326075696
 30
0.0
 11
3992.07985581009
 21
1733.52632607255
 31
0.0
  0
LWPOLYLINE
  5
169B
330
1F
100
AcDbEntity
  8
SANINDUSA
100
AcDbPolyline
 90
        9
 70
   128
 43
0.0
 10
3992.081301994792
 20
1733.526411336995
 10
3992.081298717933
 20
1733.526394707299
 10
3992.081289014018
 20
1733.526378710902
 10
3992.081273255575
 20
1733.526363966203
 10
3992.081252048428
 20
1733.526351046896
 10
3992.081226207486
 20
1733.52634044472
 10
3992.081196725539
 20
1733.526332569456
 10
3992.081164735539
 20
1733.526327711678
 10
3992.0811314673
 20
1733.52632607255
  0
LINE
  5
169C
330
1F
100
AcDbEntity
  8
SANINDUSA
100
AcDbLine
 10
3992.0813019947
 20
1733.526564834012
 30
0.0
 11
3992.0813019947
 21
1733.526411339294
 31
0.0
  0
LWPOLYLINE
  5
169D
330
1F
100
AcDbEntity
  8
SANINDUSA
100
AcDbPolyline
 90
        9
 70
   128
 43
0.0
 10
3992.0811314673
 20
1733.526650098301
 10
3992.081164735539
 20
1733.526648459173
 10
3992.081196725539
 20
1733.526643608845
 10
3992.081226207486
 20
1733.52663572613
 10
3992.081252048428
 20
1733.526625123954
 10
3992.081273255575
 20
1733.526612204648
 10
3992.081289014018
 20
1733.526597459948
 10
3992.081298717933
 20
1733.526581471003
 10
3992.081301994792
 20
1733.526564833856
  0
LINE
  5
169E
330
1F
100
AcDbEntity
  8
SANINDUSA
100
AcDbLine
 10
3992.080196864534
 20
1733.52665009761
 30
0.0
 11
3992.081131467504
 21
1733.52665009761
 31
0.0
  0
LWPOLYLINE
  5
169F
330
1F
100
AcDbEntity
  8
SANINDUSA
100
AcDbPolyline
 90
        9
 70
   128
 43
0.0
 10
3992.07985581009
 20
1733.526820627189
 10
3992.079862363341
 20
1733.526787352896
 10
3992.079881771172
 20
1733.526755367554
 10
3992.07991328806
 20
1733.526725885606
 10
3992.079955702818
 20
1733.526700046993
 10
3992.080007384701
 20
1733.52667883519
 10
3992.080066348597
 20
1733.526663077212
 10
3992.080130328129
 20
1733.526653376556
 10
3992.080196864608
 20
1733.526650098301
  0
LINE
  5
16A0
330
1F
100
AcDbEntity
  8
SANINDUSA
100
AcDbLine
 10
3992.079855810143
 20
1733.526878633549
 30
0.0
 11
3992.079855810143
 21
1733.526820624806
 31
0.0
  0
LWPOLYLINE
  5
16A1
330
1F
100
AcDbEntity
  8
SANINDUSA
100
AcDbPolyline
 90
        9
 70
   128
 43
0.0
 10
3992.080196864608
 20
1733.527049158848
 10
3992.080130328129
 20
1733.527045880592
 10
3992.080066348597
 20
1733.527036179936
 10
3992.080007384701
 20
1733.527020421959
 10
3992.079955702818
 20
1733.526999217606
 10
3992.07991328806
 20
1733.526973371542
 10
3992.079881771172
 20
1733.526943889594
 10
3992.079862363341
 20
1733.526911904252
 10
3992.07985581009
 20
1733.526878629959
  0
LINE
  5
16A2
330
1F
100
AcDbEntity
  8
SANINDUSA
100
AcDbLine
 10
3992.081342942252
 20
1733.527049158848
 30
0.0
 11
3992.080196864534
 21
1733.527049160745
 31
0.0
  0
LINE
  5
16A3
330
1F
100
AcDbEntity
  8
SANINDUSA
100
AcDbLine
 10
3992.081342942252
 20
1733.526963894403
 30
0.0
 11
3992.081342942252
 21
1733.527049158848
 31
0.0
  0
LINE
  5
16A4
330
1F
100
AcDbEntity
  8
SANINDUSA
100
AcDbLine
 10
3992.080196878993
 20
1733.526963897147
 30
0.0
 11
3992.081342942252
 21
1733.526963894403
 31
0.0
  0
LWPOLYLINE
  5
16A5
330
1F
100
AcDbEntity
  8
SANINDUSA
100
AcDbPolyline
 90
        9
 70
   128
 43
0.0
 10
3992.080026352017
 20
1733.526878629959
 10
3992.08002962841
 20
1733.526895267106
 10
3992.080039332325
 20
1733.526911263502
 10
3992.080055090769
 20
1733.526926000751
 10
3992.080076297916
 20
1733.526938927508
 10
3992.080102139322
 20
1733.526949529684
 10
3992.08013162127
 20
1733.526957404947
 10
3992.080163610804
 20
1733.526962255275
 10
3992.080196879043
 20
1733.526963894403
  0
LINE
  5
16A6
330
1F
100
AcDbEntity
  8
SANINDUSA
100
AcDbLine
 10
3992.080026351798
 20
1733.526820632036
 30
0.0
 11
3992.080026351798
 21
1733.526878633549
 31
0.0
  0
LWPOLYLINE
  5
16A7
330
1F
100
AcDbEntity
  8
SANINDUSA
100
AcDbPolyline
 90
        9
 70
   128
 43
0.0
 10
3992.080196879043
 20
1733.526735370195
 10
3992.080163610804
 20
1733.526737009323
 10
3992.08013162127
 20
1733.526741859651
 10
3992.080102139322
 20
1733.526749734914
 10
3992.080076297916
 20
1733.526760344541
 10
3992.080055090769
 20
1733.526773263848
 10
3992.080039332325
 20
1733.526788001096
 10
3992.08002962841
 20
1733.526803997493
 10
3992.080026352017
 20
1733.52682063464
  0
LINE
  5
16A8
330
1F
100
AcDbEntity
  8
SANINDUSA
100
AcDbLine
 10
3992.081124593418
 20
1733.526735368438
 30
0.0
 11
3992.080196878993
 21
1733.526735368438
 31
0.0
  0
LWPOLYLINE
  5
16A9
330
1F
100
AcDbEntity
  8
SANINDUSA
100
AcDbPolyline
 90
        9
 70
   128
 43
0.0
 10
3992.081465632825
 20
1733.526563246882
 10
3992.081459627657
 20
1733.526596737242
 10
3992.081440594218
 20
1733.526628990805
 10
3992.081409271977
 20
1733.526658748424
 10
3992.081366880036
 20
1733.526684855259
 10
3992.08131506637
 20
1733.52670629803
 10
3992.08125584543
 20
1733.526722234822
 10
3992.081191520842
 20
1733.526732054687
 10
3992.081124593209
 20
1733.526735370195
  0
LINE
  5
16AA
330
1F
100
AcDbEntity
  8
SANINDUSA
100
AcDbLine
 10
3992.081462825996
 20
1733.526413142777
 30
0.0
 11
3992.081465632903
 21
1733.526563246905
 31
0.0
  0
LWPOLYLINE
  5
16AB
330
1F
100
AcDbEntity
  8
SANINDUSA
100
AcDbPolyline
 90
        9
 70
   128
 43
0.0
 10
3992.081121786668
 20
1733.526244213021
 10
3992.08118793199
 20
1733.526247446573
 10
3992.081251565537
 20
1733.52625703547
 10
3992.08131027099
 20
1733.526272614635
 10
3992.081361818298
 20
1733.526293595469
 10
3992.081404250751
 20
1733.526319173313
 10
3992.081435956697
 20
1733.526348379589
 10
3992.081455731934
 20
1733.526380104161
 10
3992.081462825819
 20
1733.526413140035
  0
LINE
  5
16AC
330
1F
100
AcDbEntity
  8
SANINDUSA
100
AcDbLine
 10
3992.07985581009
 20
1733.52632607255
 30
0.0
 11
3992.07985581009
 21
1733.526244213021
 31
0.0
  0
LINE
  5
16AD
330
1F
100
AcDbEntity
  8
SANINDUSA
100
AcDbLine
 10
3992.070414728239
 20
1733.526244209918
 30
0.0
 11
3992.070414728239
 21
1733.526235549664
 31
0.0
  0
LINE
  5
16AE
330
1F
100
AcDbEntity
  8
SANINDUSA
100
AcDbLine
 10
3992.070414728239
 20
1733.526244209918
 30
0.0
 11
3992.071683590005
 21
1733.526244213021
 31
0.0
  0
LINE
  5
16AF
330
1F
100
AcDbEntity
  8
SANINDUSA
100
AcDbLine
 10
3992.071683590005
 20
1733.526244213021
 30
0.0
 11
3992.071683590005
 21
1733.526235547996
 31
0.0
  0
LINE
  5
16B0
330
1F
100
AcDbEntity
  8
SANINDUSA
100
AcDbLine
 10
3992.07959660707
 20
1733.526414737114
 30
0.0
 11
3992.07959660707
 21
1733.52640607686
 31
0.0
  0
LINE
  5
16B1
330
1F
100
AcDbEntity
  8
SANINDUSA
100
AcDbLine
 10
3992.077556946252
 20
1733.52632607255
 30
0.0
 11
3992.077556946252
 21
1733.526963894403
 31
0.0
  0
LINE
  5
16B2
330
1F
100
AcDbEntity
  8
SANINDUSA
100
AcDbLine
 10
3992.077556946252
 20
1733.526963894403
 30
0.0
 11
3992.076451830523
 21
1733.526963897147
 31
0.0
  0
LWPOLYLINE
  5
16B3
330
1F
100
AcDbEntity
  8
SANINDUSA
100
AcDbPolyline
 90
        9
 70
   128
 43
0.0
 10
3992.076451830504
 20
1733.526963894403
 10
3992.076418562322
 20
1733.526962255275
 10
3992.076386572614
 20
1733.526957404947
 10
3992.076357090667
 20
1733.526949529684
 10
3992.076331249609
 20
1733.526938927508
 10
3992.076310042346
 20
1733.526926000751
 10
3992.07629428396
 20
1733.526911263502
 10
3992.076284579987
 20
1733.526895267106
 10
3992.076281303303
 20
1733.526878629959
  0
LINE
  5
16B4
330
1F
100
AcDbEntity
  8
SANINDUSA
100
AcDbLine
 10
3992.076281303327
 20
1733.526878633549
 30
0.0
 11
3992.076281303327
 21
1733.526411339294
 31
0.0
  0
LWPOLYLINE
  5
16B5
330
1F
100
AcDbEntity
  8
SANINDUSA
100
AcDbPolyline
 90
        9
 70
   128
 43
0.0
 10
3992.076281303303
 20
1733.526411336995
 10
3992.076284579987
 20
1733.526394707299
 10
3992.07629428396
 20
1733.526378710902
 10
3992.076310042346
 20
1733.526363966203
 10
3992.076331249609
 20
1733.526351046896
 10
3992.076357090667
 20
1733.52634044472
 10
3992.076386572614
 20
1733.526332569456
 10
3992.076418562322
 20
1733.526327711678
 10
3992.076451830504
 20
1733.52632607255
  0
LINE
  5
16B6
330
1F
100
AcDbEntity
  8
SANINDUSA
100
AcDbLine
 10
3992.076451830523
 20
1733.526326075696
 30
0.0
 11
3992.077556946252
 21
1733.52632607255
 31
0.0
  0
LWPOLYLINE
  5
16B7
330
1F
100
AcDbEntity
  8
SANINDUSA
100
AcDbPolyline
 90
        9
 70
   128
 43
0.0
 10
3992.076110791935
 20
1733.526415375209
 10
3992.076117126441
 20
1733.52638201896
 10
3992.076136385203
 20
1733.526349921859
 10
3992.076167824586
 20
1733.526320328152
 10
3992.076210230642
 20
1733.526294385231
 10
3992.076261965961
 20
1733.526273084021
 10
3992.076321032942
 20
1733.526257251537
 10
3992.076385150834
 20
1733.526247498727
 10
3992.076451843949
 20
1733.526244213021
  0
LINE
  5
16B8
330
1F
100
AcDbEntity
  8
SANINDUSA
100
AcDbLine
 10
3992.076114268605
 20
1733.526879272554
 30
0.0
 11
3992.076110791926
 21
1733.526415376118
 31
0.0
  0
LWPOLYLINE
  5
16B9
330
1F
100
AcDbEntity
  8
SANINDUSA
100
AcDbPolyline
 90
        9
 70
   128
 43
0.0
 10
3992.076455320577
 20
1733.527049158848
 10
3992.076388940851
 20
1733.527045902944
 10
3992.076325099969
 20
1733.527036239541
 10
3992.076266239626
 20
1733.527020556069
 10
3992.076214611002
 20
1733.526999441123
 10
3992.076172188793
 20
1733.526973706818
 10
3992.076140595479
 20
1733.526944336629
 10
3992.076121039423
 20
1733.526912448144
 10
3992.07611426859
 20
1733.526879270709
  0
LINE
  5
16BA
330
1F
100
AcDbEntity
  8
SANINDUSA
100
AcDbLine
 10
3992.077556946252
 20
1733.527049158848
 30
0.0
 11
3992.076455320602
 21
1733.527049160745
 31
0.0
  0
LINE
  5
16BB
330
1F
100
AcDbEntity
  8
SANINDUSA
100
AcDbLine
 10
3992.077556946252
 20
1733.527257223762
 30
0.0
 11
3992.077556946252
 21
1733.527049158848
 31
0.0
  0
LINE
  5
16BC
330
1F
100
AcDbEntity
  8
SANINDUSA
100
AcDbLine
 10
3992.077720663214
 20
1733.527257223762
 30
0.0
 11
3992.077556946252
 21
1733.527257223762
 31
0.0
  0
LINE
  5
16BD
330
1F
100
AcDbEntity
  8
SANINDUSA
100
AcDbLine
 10
3992.077720663214
 20
1733.526244213021
 30
0.0
 11
3992.077720663214
 21
1733.527257223762
 31
0.0
  0
LINE
  5
16BE
330
1F
100
AcDbEntity
  8
SANINDUSA
100
AcDbLine
 10
3992.081462825996
 20
1733.526413142777
 30
0.0
 11
3992.081462825996
 21
1733.526404482523
 31
0.0
  0
LINE
  5
16BF
330
1F
100
AcDbEntity
  8
SANINDUSA
100
AcDbLine
 10
3992.073211611377
 20
1733.527049160745
 30
0.0
 11
3992.071942793142
 21
1733.527049158848
 31
0.0
  0
LWPOLYLINE
  5
16C0
330
1F
100
AcDbEntity
  8
SANINDUSA
100
AcDbPolyline
 90
        9
 70
   128
 43
0.0
 10
3992.073552665703
 20
1733.526878629959
 10
3992.073546112452
 20
1733.526911904252
 10
3992.073526704621
 20
1733.526943889594
 10
3992.073495187734
 20
1733.526973371542
 10
3992.073452773209
 20
1733.526999217606
 10
3992.073401091092
 20
1733.527020421959
 10
3992.073342127197
 20
1733.527036179936
 10
3992.073278147898
 20
1733.527045880592
 10
3992.073211611419
 20
1733.527049158848
  0
LWPOLYLINE
  5
16C1
330
1F
100
AcDbEntity
  8
SANINDUSA
100
AcDbPolyline
 90
        9
 70
   128
 43
0.0
 10
3992.073218421482
 20
1733.526963894403
 10
3992.073251689722
 20
1733.526962255275
 10
3992.073283679488
 20
1733.526957404947
 10
3992.073313161203
 20
1733.526949529684
 10
3992.073339002377
 20
1733.526938927508
 10
3992.073360209757
 20
1733.526926000751
 10
3992.073375967967
 20
1733.526911263502
 10
3992.073385672116
 20
1733.526895267106
 10
3992.073388948741
 20
1733.526878629959
  0
LINE
  5
16C2
330
1F
100
AcDbEntity
  8
SANINDUSA
100
AcDbLine
 10
3992.072113334604
 20
1733.526963894403
 30
0.0
 11
3992.073218421476
 21
1733.526963897147
 31
0.0
  0
LINE
  5
16C3
330
1F
100
AcDbEntity
  8
SANINDUSA
100
AcDbLine
 10
3992.072113334604
 20
1733.526244213021
 30
0.0
 11
3992.072113334604
 21
1733.526963894403
 31
0.0
  0
LINE
  5
16C4
330
1F
100
AcDbEntity
  8
SANINDUSA
100
AcDbLine
 10
3992.071942793142
 20
1733.527049158848
 30
0.0
 11
3992.071942793142
 21
1733.526244213021
 31
0.0
  0
LINE
  5
16C5
330
1F
100
AcDbEntity
  8
SANINDUSA
100
AcDbLine
 10
3992.073552665703
 20
1733.526244213021
 30
0.0
 11
3992.073552665769
 21
1733.526878633549
 31
0.0
  0
LINE
  5
16C6
330
1F
100
AcDbEntity
  8
SANINDUSA
100
AcDbLine
 10
3992.073388948672
 20
1733.526878633549
 30
0.0
 11
3992.073388948741
 21
1733.526244213021
 31
0.0
  0
LINE
  5
16C7
330
1F
100
AcDbEntity
  8
SANINDUSA
100
AcDbLine
 10
3992.073982439407
 20
1733.527049158848
 30
0.0
 11
3992.073818707893
 21
1733.527049158848
 31
0.0
  0
LINE
  5
16C8
330
1F
100
AcDbEntity
  8
SANINDUSA
100
AcDbLine
 10
3992.073818707893
 20
1733.527049158848
 30
0.0
 11
3992.073818707893
 21
1733.526244213021
 31
0.0
  0
LINE
  5
16C9
330
1F
100
AcDbEntity
  8
SANINDUSA
100
AcDbLine
 10
3992.073982439407
 20
1733.526244213021
 30
0.0
 11
3992.073982439407
 21
1733.527049158848
 31
0.0
  0
LINE
  5
16CA
330
1F
100
AcDbEntity
  8
SANINDUSA
100
AcDbLine
 10
3992.071513048078
 20
1733.52632607255
 30
0.0
 11
3992.071513048078
 21
1733.526650098301
 31
0.0
  0
LINE
  5
16CB
330
1F
100
AcDbEntity
  8
SANINDUSA
100
AcDbLine
 10
3992.071513048078
 20
1733.526650098301
 30
0.0
 11
3992.070407932599
 21
1733.52665009761
 31
0.0
  0
LWPOLYLINE
  5
16CC
330
1F
100
AcDbEntity
  8
SANINDUSA
100
AcDbPolyline
 90
        9
 70
   128
 43
0.0
 10
3992.070407932794
 20
1733.526650098301
 10
3992.070374664555
 20
1733.526648459173
 10
3992.070342674556
 20
1733.526643608845
 10
3992.070313192608
 20
1733.52663572613
 10
3992.070287351667
 20
1733.526625123954
 10
3992.070266144521
 20
1733.526612204648
 10
3992.070250386077
 20
1733.526597459948
 10
3992.070240682161
 20
1733.526581471003
 10
3992.070237405303
 20
1733.526564833856
  0
LINE
  5
16CD
330
1F
100
AcDbEntity
  8
SANINDUSA
100
AcDbLine
 10
3992.070237405402
 20
1733.526564834012
 30
0.0
 11
3992.070237405402
 21
1733.526411339294
 31
0.0
  0
LWPOLYLINE
  5
16CE
330
1F
100
AcDbEntity
  8
SANINDUSA
100
AcDbPolyline
 90
        9
 70
   128
 43
0.0
 10
3992.070237405303
 20
1733.526411336995
 10
3992.070240682161
 20
1733.526394707299
 10
3992.070250386077
 20
1733.526378710902
 10
3992.070266144521
 20
1733.526363966203
 10
3992.070287351667
 20
1733.526351046896
 10
3992.070313192608
 20
1733.52634044472
 10
3992.070342674556
 20
1733.526332569456
 10
3992.070374664555
 20
1733.526327711678
 10
3992.070407932794
 20
1733.52632607255
  0
LINE
  5
16CF
330
1F
100
AcDbEntity
  8
SANINDUSA
100
AcDbLine
 10
3992.070407932599
 20
1733.526326075696
 30
0.0
 11
3992.071513048078
 21
1733.52632607255
 31
0.0
  0
LINE
  5
16D0
330
1F
100
AcDbEntity
  8
SANINDUSA
100
AcDbLine
 10
3992.071342535568
 20
1733.527049160745
 30
0.0
 11
3992.070196457843
 21
1733.527049158848
 31
0.0
  0
LWPOLYLINE
  5
16D1
330
1F
100
AcDbEntity
  8
SANINDUSA
100
AcDbPolyline
 90
        9
 70
   128
 43
0.0
 10
3992.071683590005
 20
1733.526878629959
 10
3992.071677036753
 20
1733.526911904252
 10
3992.071657628923
 20
1733.526943889594
 10
3992.071626112036
 20
1733.526973371542
 10
3992.071583697277
 20
1733.526999217606
 10
3992.071532015393
 20
1733.527020421959
 10
3992.071473051498
 20
1733.527036179936
 10
3992.071409071966
 20
1733.527045880592
 10
3992.071342535487
 20
1733.527049158848
  0
LWPOLYLINE
  5
16D2
330
1F
100
AcDbEntity
  8
SANINDUSA
100
AcDbPolyline
 90
        9
 70
   128
 43
0.0
 10
3992.070073673672
 20
1733.526414734459
 10
3992.070080226923
 20
1733.526381467617
 10
3992.07009963522
 20
1733.526349482275
 10
3992.070131152107
 20
1733.526320000327
 10
3992.0701735664
 20
1733.526294154263
 10
3992.070225248749
 20
1733.526272949911
 10
3992.070284212179
 20
1733.526257191932
 10
3992.070348191711
 20
1733.526247483826
 10
3992.070414728189
 20
1733.526244213021
  0
LINE
  5
16D3
330
1F
100
AcDbEntity
  8
SANINDUSA
100
AcDbLine
 10
3992.070073673847
 20
1733.526564841242
 30
0.0
 11
3992.070073673847
 21
1733.526414737114
 31
0.0
  0
LWPOLYLINE
  5
16D4
330
1F
100
AcDbEntity
  8
SANINDUSA
100
AcDbPolyline
 90
        9
 70
   128
 43
0.0
 10
3992.070414728189
 20
1733.526735370195
 10
3992.070348191711
 20
1733.52673209194
 10
3992.070284212179
 20
1733.526722391284
 10
3992.070225248749
 20
1733.526706625855
 10
3992.0701735664
 20
1733.526685421503
 10
3992.070131152107
 20
1733.526659582889
 10
3992.07009963522
 20
1733.526630100942
 10
3992.070080226923
 20
1733.526598108149
 10
3992.070073673672
 20
1733.526564841306
  0
LINE
  5
16D5
330
1F
100
AcDbEntity
  8
SANINDUSA
100
AcDbLine
 10
3992.071513048078
 20
1733.526735370195
 30
0.0
 11
3992.070414728239
 21
1733.526735368438
 31
0.0
  0
LINE
  5
16D6
330
1F
100
AcDbEntity
  8
SANINDUSA
100
AcDbLine
 10
3992.071513048305
 20
1733.526878633549
 30
0.0
 11
3992.071513048078
 21
1733.526735370195
 31
0.0
  0
LWPOLYLINE
  5
16D7
330
1F
100
AcDbEntity
  8
SANINDUSA
100
AcDbPolyline
 90
        9
 70
   128
 43
0.0
 10
3992.071342521052
 20
1733.526963894403
 10
3992.071375789291
 20
1733.526962255275
 10
3992.071407778825
 20
1733.526957404947
 10
3992.071437260772
 20
1733.526949529684
 10
3992.07146310218
 20
1733.526938927508
 10
3992.071484309326
 20
1733.526926000751
 10
3992.071500067769
 20
1733.526911263502
 10
3992.071509771685
 20
1733.526895267106
 10
3992.071513048078
 20
1733.526878629959
  0
LINE
  5
16D8
330
1F
100
AcDbEntity
  8
SANINDUSA
100
AcDbLine
 10
3992.070196457843
 20
1733.526963894403
 30
0.0
 11
3992.071342521109
 21
1733.526963897147
 31
0.0
  0
LINE
  5
16D9
330
1F
100
AcDbEntity
  8
SANINDUSA
100
AcDbLine
 10
3992.070196457843
 20
1733.527049158848
 30
0.0
 11
3992.070196457843
 21
1733.526963894403
 31
0.0
  0
LINE
  5
16DA
330
1F
100
AcDbEntity
  8
SANINDUSA
100
AcDbLine
 10
3992.071683590005
 20
1733.526244213021
 30
0.0
 11
3992.07168358996
 21
1733.526878633549
 31
0.0
  0
LINE
  5
16DB
330
1F
100
AcDbEntity
  8
SANINDUSA
100
AcDbLine
 10
3992.074412198558
 20
1733.526963894403
 30
0.0
 11
3992.075517299848
 21
1733.526963897147
 31
0.0
  0
LINE
  5
16DC
330
1F
100
AcDbEntity
  8
SANINDUSA
100
AcDbLine
 10
3992.075517314307
 20
1733.527049160745
 30
0.0
 11
3992.074248467043
 21
1733.527049158848
 31
0.0
  0
LWPOLYLINE
  5
16DD
330
1F
100
AcDbEntity
  8
SANINDUSA
100
AcDbPolyline
 90
        9
 70
   128
 43
0.0
 10
3992.075858368694
 20
1733.526878629959
 10
3992.075851815428
 20
1733.526911904252
 10
3992.075832407481
 20
1733.526943889594
 10
3992.075800890666
 20
1733.526973371542
 10
3992.075758476181
 20
1733.526999217606
 10
3992.075706793975
 20
1733.527020421959
 10
3992.075647830173
 20
1733.527036179936
 10
3992.075583850713
 20
1733.527045880592
 10
3992.075517314307
 20
1733.527049158848
  0
LWPOLYLINE
  5
16DE
330
1F
100
AcDbEntity
  8
SANINDUSA
100
AcDbPolyline
 90
        9
 70
   128
 43
0.0
 10
3992.075517299843
 20
1733.526963894403
 10
3992.075550568053
 20
1733.526962255275
 10
3992.075582557776
 20
1733.526957404947
 10
3992.075612039679
 20
1733.526949529684
 10
3992.075637880781
 20
1733.526938927508
 10
3992.07565908803
 20
1733.526926000751
 10
3992.075674846433
 20
1733.526911263502
 10
3992.07568455041
 20
1733.526895267106
 10
3992.075687827043
 20
1733.526878629959
  0
LINE
  5
16DF
330
1F
100
AcDbEntity
  8
SANINDUSA
100
AcDbLine
 10
3992.074412198558
 20
1733.526244213021
 30
0.0
 11
3992.074412198558
 21
1733.526963894403
 31
0.0
  0
LINE
  5
16E0
330
1F
100
AcDbEntity
  8
SANINDUSA
100
AcDbLine
 10
3992.074248467043
 20
1733.527049158848
 30
0.0
 11
3992.074248467043
 21
1733.526244213021
 31
0.0
  0
LINE
  5
16E1
330
1F
100
AcDbEntity
  8
SANINDUSA
100
AcDbLine
 10
3992.075858368694
 20
1733.526244213021
 30
0.0
 11
3992.075858368698
 21
1733.526878633549
 31
0.0
  0
LINE
  5
16E2
330
1F
100
AcDbEntity
  8
SANINDUSA
100
AcDbLine
 10
3992.075687827044
 20
1733.526878633549
 30
0.0
 11
3992.075687827043
 21
1733.526244213021
 31
0.0
  0
LINE
  5
16E3
330
1F
100
AcDbEntity
  8
SANINDUSA
100
AcDbLine
 10
3992.077986705416
 20
1733.526414737114
 30
0.0
 11
3992.077986705416
 21
1733.52640607686
 31
0.0
  0
LINE
  5
16E4
330
1F
100
AcDbEntity
  8
SANINDUSA
100
AcDbLine
 10
3992.070073673847
 20
1733.526414737114
 30
0.0
 11
3992.070073673847
 21
1733.52640607686
 31
0.0
  0
LWPOLYLINE
  5
16E5
330
1F
100
AcDbEntity
  8
SANINDUSA
100
AcDbPolyline
 90
        9
 70
   128
 43
0.0
 10
3992.082072822547
 20
1733.526641440725
 10
3992.082039554308
 20
1733.526639801598
 10
3992.082007564775
 20
1733.526634943819
 10
3992.081978082827
 20
1733.526627068556
 10
3992.081952241886
 20
1733.526616466379
 10
3992.081931034739
 20
1733.526603547073
 10
3992.081915276295
 20
1733.526588802374
 10
3992.08190557238
 20
1733.526572805977
 10
3992.081902295522
 20
1733.526556176281
  0
LINE
  5
16E6
330
1F
100
AcDbEntity
  8
SANINDUSA
100
AcDbLine
 10
3992.08317111403
 20
1733.526641440725
 30
0.0
 11
3992.082072822737
 21
1733.526641437357
 31
0.0
  0
LWPOLYLINE
  5
16E7
330
1F
100
AcDbEntity
  8
SANINDUSA
100
AcDbPolyline
 90
        9
 70
   128
 43
0.0
 10
3992.070407932794
 20
1733.526641440725
 10
3992.070374664555
 20
1733.526639801598
 10
3992.070342674556
 20
1733.526634943819
 10
3992.070313192608
 20
1733.526627068556
 10
3992.070287351667
 20
1733.526616466379
 10
3992.070266144521
 20
1733.526603547073
 10
3992.070250386077
 20
1733.526588802374
 10
3992.070240682161
 20
1733.526572805977
 10
3992.070237405303
 20
1733.526556176281
  0
LINE
  5
16E8
330
1F
100
AcDbEntity
  8
SANINDUSA
100
AcDbLine
 10
3992.071513048078
 20
1733.526641440725
 30
0.0
 11
3992.070407932599
 21
1733.526641437357
 31
0.0
  0
LWPOLYLINE
  5
16E9
330
1F
100
AcDbEntity
  8
SANINDUSA
100
AcDbPolyline
 90
        9
 70
   128
 43
0.0
 10
3992.076451830504
 20
1733.526955236829
 10
3992.076418562322
 20
1733.526953597701
 10
3992.076386572614
 20
1733.526948747373
 10
3992.076357090667
 20
1733.526940864659
 10
3992.076331249609
 20
1733.526930262482
 10
3992.076310042346
 20
1733.526917343176
 10
3992.07629428396
 20
1733.526902605927
 10
3992.076284579987
 20
1733.526886609531
 10
3992.076281303303
 20
1733.526869972384
  0
LINE
  5
16EA
330
1F
100
AcDbEntity
  8
SANINDUSA
100
AcDbLine
 10
3992.077556946252
 20
1733.526955236829
 30
0.0
 11
3992.076451830523
 21
1733.526955236893
 31
0.0
  0
LINE
  5
16EB
330
1F
100
AcDbEntity
  8
SANINDUSA
100
AcDbLine
 10
3992.081465632903
 20
1733.526563246905
 30
0.0
 11
3992.081465632825
 21
1733.526554589308
 31
0.0
  0
LINE
  5
16EC
330
1F
100
AcDbEntity
  8
SANINDUSA
100
AcDbLine
 10
3992.081131467504
 20
1733.52665009761
 30
0.0
 11
3992.081131467504
 21
1733.526641437357
 31
0.0
  0
LINE
  5
16ED
330
1F
100
AcDbEntity
  8
SANINDUSA
100
AcDbLine
 10
3992.082072822737
 20
1733.52665009761
 30
0.0
 11
3992.082072822737
 21
1733.526641437357
 31
0.0
  0
LINE
  5
16EE
330
1F
100
AcDbEntity
  8
SANINDUSA
100
AcDbLine
 10
3992.070407932599
 20
1733.52665009761
 30
0.0
 11
3992.070407932599
 21
1733.526641437357
 31
0.0
  0
LINE
  5
16EF
330
1F
100
AcDbEntity
  8
SANINDUSA
100
AcDbLine
 10
3992.069473401924
 20
1733.52665009761
 30
0.0
 11
3992.069473401924
 21
1733.526641437357
 31
0.0
  0
LINE
  5
16F0
330
1F
100
AcDbEntity
  8
SANINDUSA
100
AcDbLine
 10
3992.068538798955
 20
1733.52665009761
 30
0.0
 11
3992.068538798955
 21
1733.526641437357
 31
0.0
  0
LINE
  5
16F1
330
1F
100
AcDbEntity
  8
SANINDUSA
100
AcDbLine
 10
3992.068197744562
 20
1733.526820624806
 30
0.0
 11
3992.068197744562
 21
1733.526811964553
 31
0.0
  0
LINE
  5
16F2
330
1F
100
AcDbEntity
  8
SANINDUSA
100
AcDbLine
 10
3992.079855810143
 20
1733.526820624806
 30
0.0
 11
3992.079855810143
 21
1733.526811964553
 31
0.0
  0
LINE
  5
16F3
330
1F
100
AcDbEntity
  8
SANINDUSA
100
AcDbLine
 10
3992.080196864534
 20
1733.52665009761
 30
0.0
 11
3992.080196864534
 21
1733.526641437357
 31
0.0
  0
LINE
  5
16F4
330
1F
100
AcDbEntity
  8
SANINDUSA
100
AcDbLine
 10
3992.083000586689
 20
1733.526963897147
 30
0.0
 11
3992.083000586689
 21
1733.526955236893
 31
0.0
  0
LINE
  5
16F5
330
1F
100
AcDbEntity
  8
SANINDUSA
100
AcDbLine
 10
3992.075517299848
 20
1733.526963897147
 30
0.0
 11
3992.075517299848
 21
1733.526955236893
 31
0.0
  0
LINE
  5
16F6
330
1F
100
AcDbEntity
  8
SANINDUSA
100
AcDbLine
 10
3992.073218421476
 20
1733.526963897147
 30
0.0
 11
3992.073218421476
 21
1733.526955236893
 31
0.0
  0
LINE
  5
16F7
330
1F
100
AcDbEntity
  8
SANINDUSA
100
AcDbLine
 10
3992.071342521109
 20
1733.526963897147
 30
0.0
 11
3992.071342521109
 21
1733.526955236893
 31
0.0
  0
LINE
  5
16F8
330
1F
100
AcDbEntity
  8
SANINDUSA
100
AcDbLine
 10
3992.080196878993
 20
1733.526963897147
 30
0.0
 11
3992.080196878993
 21
1733.526955236893
 31
0.0
  0
LINE
  5
16F9
330
1F
100
AcDbEntity
  8
SANINDUSA
100
AcDbLine
 10
3992.076451830523
 20
1733.526963897147
 30
0.0
 11
3992.076451830523
 21
1733.526955236893
 31
0.0
  0
LINE
  5
16FA
330
1F
100
AcDbEntity
  8
SANINDUSA
100
AcDbLine
 10
3992.068538813413
 20
1733.526963897147
 30
0.0
 11
3992.068538813413
 21
1733.526955236893
 31
0.0
  0
LINE
  5
16FB
330
1F
100
AcDbEntity
  8
SANINDUSA
100
AcDbLine
 10
3992.081854552667
 20
1733.526963894403
 30
0.0
 11
3992.081854552667
 21
1733.526955236829
 31
0.0
  0
LINE
  5
16FC
330
1F
100
AcDbEntity
  8
SANINDUSA
100
AcDbLine
 10
3992.069684847428
 20
1733.526963894403
 30
0.0
 11
3992.069684847428
 21
1733.526955236829
 31
0.0
  0
LINE
  5
16FD
330
1F
100
AcDbEntity
  8
SANINDUSA
100
AcDbLine
 10
3992.081342942252
 20
1733.526963894403
 30
0.0
 11
3992.081342942252
 21
1733.526955236829
 31
0.0
  0
LINE
  5
16FE
330
1F
100
AcDbEntity
  8
SANINDUSA
100
AcDbLine
 10
3992.070196457843
 20
1733.526963894403
 30
0.0
 11
3992.070196457843
 21
1733.526955236829
 31
0.0
  0
LINE
  5
16FF
330
1F
100
AcDbEntity
  8
SANINDUSA
100
AcDbLine
 10
3992.073982439407
 20
1733.527257223762
 30
0.0
 11
3992.073818707893
 21
1733.527257223762
 31
0.0
  0
LINE
  5
1700
330
1F
100
AcDbEntity
  8
SANINDUSA
100
AcDbLine
 10
3992.073818707893
 20
1733.527131018377
 30
0.0
 11
3992.073982439407
 21
1733.527131018377
 31
0.0
  0
LINE
  5
1701
330
1F
100
AcDbEntity
  8
SANINDUSA
100
AcDbLine
 10
3992.073818707893
 20
1733.527257223762
 30
0.0
 11
3992.073818707893
 21
1733.527131018377
 31
0.0
  0
LINE
  5
1702
330
1F
100
AcDbEntity
  8
SANINDUSA
100
AcDbLine
 10
3992.073982439407
 20
1733.527131018377
 30
0.0
 11
3992.073982439407
 21
1733.527257223762
 31
0.0
  0
LINE
  5
1703
330
1F
100
AcDbEntity
  8
SANINDUSA
100
AcDbLine
 10
3992.073818707893
 20
1733.527131018377
 30
0.0
 11
3992.073818707893
 21
1733.527122360802
 31
0.0
  0
LINE
  5
1704
330
1F
100
AcDbEntity
  8
SANINDUSA
100
AcDbLine
 10
3992.073982439407
 20
1733.527131018377
 30
0.0
 11
3992.073982439407
 21
1733.527122360802
 31
0.0
  0
LWPOLYLINE
  5
1705
330
1F
100
AcDbEntity
  8
SANINDUSA
100
AcDbPolyline
 90
       36
 70
   128
 43
0.0
 10
3992.073968433712
 20
1733.539185439384
 10
3992.072786978848
 20
1733.538990643955
 10
3992.07168617815
 20
1733.538700875974
 10
3992.070696318227
 20
1733.538324107564
 10
3992.069844633511
 20
1733.537870717383
 10
3992.069154556546
 20
1733.537353170252
 10
3992.068645073737
 20
1733.536785711682
 10
3992.068330202888
 20
1733.536183943188
 10
3992.068218606694
 20
1733.535564434863
 10
3992.068313356194
 20
1733.534944218731
 10
3992.068611843682
 20
1733.534340371526
 10
3992.069105857222
 20
1733.53376950059
 10
3992.069781805093
 20
1733.533247311747
 10
3992.070621089249
 20
1733.532788177169
 10
3992.071600618011
 20
1733.532404725588
 10
3992.072693442164
 20
1733.532107499576
 10
3992.073869493727
 20
1733.531904694772
 10
3992.075096415817
 20
1733.53180187676
 10
3992.076340451716
 20
1733.53180187676
 10
3992.077567373806
 20
1733.531904694772
 10
3992.078743425368
 20
1733.532107499576
 10
3992.079836249522
 20
1733.532404725588
 10
3992.080815778285
 20
1733.532788177169
 10
3992.08165506244
 20
1733.533247311747
 10
3992.082331010311
 20
1733.53376950059
 10
3992.082825023851
 20
1733.534340371526
 10
3992.083123511339
 20
1733.534944218731
 10
3992.083218260839
 20
1733.535564434863
 10
3992.083106664645
 20
1733.536183943188
 10
3992.082791793797
 20
1733.536785711682
 10
3992.082282310987
 20
1733.537353170252
 10
3992.081592234022
 20
1733.537870717383
 10
3992.080740549306
 20
1733.538324107564
 10
3992.079750689383
 20
1733.538700875974
 10
3992.078649888684
 20
1733.538990643955
 10
3992.077468433821
 20
1733.539185439384
  0
LINE
  5
1706
330
1F
100
AcDbEntity
  8
SANINDUSA
100
AcDbLine
 10
3992.077468433766
 20
1733.539185442299
 30
0.0
 11
3992.077468433766
 21
1733.537987295537
 31
0.0
  0
LINE
  5
1707
330
1F
100
AcDbEntity
  8
SANINDUSA
100
AcDbLine
 10
3992.073968433766
 20
1733.537987295537
 30
0.0
 11
3992.073968433766
 21
1733.539185442299
 31
0.0
  0
LWPOLYLINE
  5
1708
330
1F
100
AcDbEntity
  8
SANINDUSA
100
AcDbPolyline
 90
       29
 70
   128
 43
0.0
 10
3992.077468433821
 20
1733.537987296617
 10
3992.078405847477
 20
1733.53776481483
 10
3992.079236248212
 20
1733.537453700936
 10
3992.079926568719
 20
1733.5370663378
 10
3992.080449321012
 20
1733.536618155575
 10
3992.080783688633
 20
1733.536126998401
 10
3992.080916356931
 20
1733.535612431503
 10
3992.080842043444
 20
1733.535094929075
 10
3992.080563706516
 20
1733.534595114327
 10
3992.080092430751
 20
1733.534132880307
 10
3992.079446981366
 20
1733.5337266374
 10
3992.078653060769
 20
1733.533392560816
 10
3992.077742282937
 20
1733.533143957293
 10
3992.076750915202
 20
1733.532990721202
 10
3992.075718433767
 20
1733.532938954568
 10
3992.074685952331
 20
1733.532990721202
 10
3992.073694584596
 20
1733.533143957293
 10
3992.072783806764
 20
1733.533392560816
 10
3992.071989886167
 20
1733.5337266374
 10
3992.071344436782
 20
1733.534132880307
 10
3992.070873161017
 20
1733.534595114327
 10
3992.07059482409
 20
1733.535094929075
 10
3992.070520510602
 20
1733.535612431503
 10
3992.070653178899
 20
1733.536126998401
 10
3992.070987546521
 20
1733.536618155575
 10
3992.071510298814
 20
1733.5370663378
 10
3992.07220061932
 20
1733.537453700936
 10
3992.073031020055
 20
1733.53776481483
 10
3992.073968433712
 20
1733.537987296617
  0
LINE
  5
1709
330
1F
100
AcDbEntity
  8
SANINDUSA
100
AcDbLine
 10
3992.077468433766
 20
1733.537987295537
 30
0.0
 11
3992.077468433766
 21
1733.537978635283
 31
0.0
  0
LINE
  5
170A
330
1F
100
AcDbEntity
  8
SANINDUSA
100
AcDbLine
 10
3992.073968433766
 20
1733.537987295537
 30
0.0
 11
3992.073968433766
 21
1733.537978635283
 31
0.0
  0
LINE
  5
170B
330
1F
100
AcDbEntity
  8
SANINDUSA
100
AcDbLine
 10
3992.074318433766
 20
1733.536038954262
 30
0.0
 11
3992.074318433766
 21
1733.536030294008
 31
0.0
  0
LWPOLYLINE
  5
170C
330
1F
100
AcDbEntity
  8
SANINDUSA
100
AcDbPolyline
 90
        9
 70
   128
 43
0.0
 10
3992.074318433817
 20
1733.53603895489
 10
3992.074425002381
 20
1733.535771076715
 10
3992.07472848432
 20
1733.535543983019
 10
3992.075182676951
 20
1733.535392237044
 10
3992.075718433767
 20
1733.535338957942
 10
3992.076254190582
 20
1733.535392237044
 10
3992.076708383213
 20
1733.535543983019
 10
3992.077011865152
 20
1733.535771076715
 10
3992.077118433716
 20
1733.53603895489
  0
LINE
  5
170D
330
1F
100
AcDbEntity
  8
SANINDUSA
100
AcDbLine
 10
3992.077118433767
 20
1733.536038954262
 30
0.0
 11
3992.077118433767
 21
1733.536030294008
 31
0.0
  0
LWPOLYLINE
  5
170E
330
1F
100
AcDbEntity
  8
SANINDUSA
100
AcDbPolyline
 90
        9
 70
   128
 43
0.0
 10
3992.072968433781
 20
1733.539719958938
 10
3992.073163523975
 20
1733.539729555285
 10
3992.073351117254
 20
1733.539758016503
 10
3992.073524004019
 20
1733.539804225004
 10
3992.073675540446
 20
1733.539866392648
 10
3992.073799903326
 20
1733.539942165053
 10
3992.073892313342
 20
1733.540028606689
 10
3992.073949219014
 20
1733.540122409499
 10
3992.073968433712
 20
1733.5402199525
  0
LINE
  5
170F
330
1F
100
AcDbEntity
  8
SANINDUSA
100
AcDbLine
 10
3992.072368433767
 20
1733.539719953464
 30
0.0
 11
3992.072968433767
 21
1733.539719953464
 31
0.0
  0
LWPOLYLINE
  5
1710
330
1F
100
AcDbEntity
  8
SANINDUSA
100
AcDbPolyline
 90
        9
 70
   128
 43
0.0
 10
3992.071368433705
 20
1733.5402199525
 10
3992.071387648287
 20
1733.540122409499
 10
3992.071444554425
 20
1733.540028606689
 10
3992.071536963976
 20
1733.539942165053
 10
3992.071661327204
 20
1733.539866392648
 10
3992.071812863632
 20
1733.539804225004
 10
3992.071985750396
 20
1733.539758016503
 10
3992.072173343443
 20
1733.539729555285
 10
3992.072368433869
 20
1733.539719958938
  0
LINE
  5
1711
330
1F
100
AcDbEntity
  8
SANINDUSA
100
AcDbLine
 10
3992.071368433705
 20
1733.541828026211
 30
0.0
 11
3992.071368433766
 21
1733.540219953464
 31
0.0
  0
LINE
  5
1712
330
1F
100
AcDbEntity
  8
SANINDUSA
100
AcDbLine
 10
3992.071018433834
 20
1733.541828026211
 30
0.0
 11
3992.071368433705
 21
1733.541828026211
 31
0.0
  0
LINE
  5
1713
330
1F
100
AcDbEntity
  8
SANINDUSA
100
AcDbLine
 10
3992.071018433767
 20
1733.540705642184
 30
0.0
 11
3992.071018433834
 21
1733.541828026211
 31
0.0
  0
LWPOLYLINE
  5
1714
330
1F
100
AcDbEntity
  8
SANINDUSA
100
AcDbPolyline
 90
        9
 70
   128
 43
0.0
 10
3992.07001843367
 20
1733.540205647386
 10
3992.070213523863
 20
1733.540215243733
 10
3992.070401117376
 20
1733.540243704951
 10
3992.070574003907
 20
1733.540289913452
 10
3992.070725540335
 20
1733.540352095998
 10
3992.070849903564
 20
1733.540427853501
 10
3992.070942313115
 20
1733.540514295137
 10
3992.070999219253
 20
1733.540608097947
 10
3992.071018433834
 20
1733.540705640948
  0
LINE
  5
1715
330
1F
100
AcDbEntity
  8
SANINDUSA
100
AcDbLine
 10
3992.069418433766
 20
1733.540205642184
 30
0.0
 11
3992.070018433766
 21
1733.540205642184
 31
0.0
  0
LWPOLYLINE
  5
1716
330
1F
100
AcDbEntity
  8
SANINDUSA
100
AcDbPolyline
 90
        9
 70
   128
 43
0.0
 10
3992.068418433594
 20
1733.540705640948
 10
3992.068437648642
 20
1733.540608097947
 10
3992.068494554314
 20
1733.540514295137
 10
3992.06858696433
 20
1733.540427853501
 10
3992.068711327094
 20
1733.540352095998
 10
3992.068862863521
 20
1733.540289913452
 10
3992.069035750518
 20
1733.540243704951
 10
3992.069223343565
 20
1733.540215243733
 10
3992.069418433759
 20
1733.540205647386
  0
LINE
  5
1717
330
1F
100
AcDbEntity
  8
SANINDUSA
100
AcDbLine
 10
3992.068418433594
 20
1733.542104517258
 30
0.0
 11
3992.068418433767
 21
1733.540705642184
 31
0.0
  0
LINE
  5
1718
330
1F
100
AcDbEntity
  8
SANINDUSA
100
AcDbLine
 10
3992.068068433724
 20
1733.542104517258
 30
0.0
 11
3992.068418433594
 21
1733.542104517258
 31
0.0
  0
LINE
  5
1719
330
1F
100
AcDbEntity
  8
SANINDUSA
100
AcDbLine
 10
3992.068068433766
 20
1733.541182237085
 30
0.0
 11
3992.068068433724
 21
1733.542104517258
 31
0.0
  0
LWPOLYLINE
  5
171A
330
1F
100
AcDbEntity
  8
SANINDUSA
100
AcDbPolyline
 90
        9
 70
   128
 43
0.0
 10
3992.067068433559
 20
1733.540682231224
 10
3992.067263524218
 20
1733.540691842473
 10
3992.067451116799
 20
1733.540720303691
 10
3992.067624003797
 20
1733.54076649729
 10
3992.067775540224
 20
1733.540828679836
 10
3992.067899903453
 20
1733.540904452241
 10
3992.067992313469
 20
1733.540990893877
 10
3992.068049219142
 20
1733.541084696687
 10
3992.068068433724
 20
1733.541182239688
  0
LINE
  5
171B
330
1F
100
AcDbEntity
  8
SANINDUSA
100
AcDbLine
 10
3992.066768433767
 20
1733.540682237085
 30
0.0
 11
3992.067068433767
 21
1733.540682237085
 31
0.0
  0
LWPOLYLINE
  5
171C
330
1F
100
AcDbEntity
  8
SANINDUSA
100
AcDbPolyline
 90
        9
 70
   128
 43
0.0
 10
3992.065768433905
 20
1733.541182239688
 10
3992.065787648022
 20
1733.541084696687
 10
3992.065844554625
 20
1733.540990893877
 10
3992.065936964176
 20
1733.540904452241
 10
3992.066061327404
 20
1733.540828679836
 10
3992.066212863831
 20
1733.54076649729
 10
3992.066385749898
 20
1733.540720303691
 10
3992.06657334341
 20
1733.540691842473
 10
3992.066768434069
 20
1733.540682231224
  0
LINE
  5
171D
330
1F
100
AcDbEntity
  8
SANINDUSA
100
AcDbLine
 10
3992.065768433766
 20
1733.542999762344
 30
0.0
 11
3992.065768433766
 21
1733.541182237085
 31
0.0
  0
ARC
  5
171E
330
1F
100
AcDbEntity
  8
SANINDUSA
100
AcDbCircle
 10
3992.068246288733
 20
1733.542971979068
 30
0.0
 40
0.0024780106049187
100
AcDbArc
 50
149.5720372600137
 51
179.3575493049333
  0
LINE
  5
171F
330
1F
100
AcDbEntity
  8
SANINDUSA
100
AcDbLine
 10
3992.067347867437
 20
1733.54641120816
 30
0.0
 11
3992.066109583415
 21
1733.544226985898
 31
0.0
  0
ARC
  5
1720
330
1F
100
AcDbEntity
  8
SANINDUSA
100
AcDbCircle
 10
3992.075653218002
 20
1733.502506241264
 30
0.0
 40
0.0446836076009884
100
AcDbArc
 50
89.27233897794476
 51
100.7118703171701
  0
ARC
  5
1721
330
1F
100
AcDbEntity
  8
SANINDUSA
100
AcDbCircle
 10
3992.063547556162
 20
1733.531628352436
 30
0.0
 40
0.0200662977936939
100
AcDbArc
 50
41.41279037569996
 51
50.83446493969107
  0
LINE
  5
1722
330
1F
100
AcDbEntity
  8
SANINDUSA
100
AcDbLine
 10
3992.080756556845
 20
1733.542431664902
 30
0.0
 11
3992.078596545523
 21
1733.544901794672
 31
0.0
  0
LWPOLYLINE
  5
1723
330
1F
100
AcDbEntity
  8
SANINDUSA
100
AcDbPolyline
 90
        9
 70
   128
 43
0.0
 10
3992.078191058415
 20
1733.541870807445
 10
3992.078503330641
 20
1733.541646708882
 10
3992.078963349045
 20
1733.541499425805
 10
3992.079501080264
 20
1733.54145136956
 10
3992.080034659414
 20
1733.541509871519
 10
3992.080482853747
 20
1733.541666005886
 10
3992.080777430146
 20
1733.541896005309
 10
3992.08087354217
 20
1733.542164881862
 10
3992.080756556879
 20
1733.542431672251
  0
LINE
  5
1724
330
1F
100
AcDbEntity
  8
SANINDUSA
100
AcDbLine
 10
3992.077468433821
 20
1733.542697181142
 30
0.0
 11
3992.078191058512
 21
1733.541870813251
 31
0.0
  0
LINE
  5
1725
330
1F
100
AcDbEntity
  8
SANINDUSA
100
AcDbLine
 10
3992.077468433821
 20
1733.544232671297
 30
0.0
 11
3992.077468433821
 21
1733.542697181142
 31
0.0
  0
LINE
  5
1726
330
1F
100
AcDbEntity
  8
SANINDUSA
100
AcDbLine
 10
3992.077118433716
 20
1733.544232671297
 30
0.0
 11
3992.077468433821
 21
1733.544232671297
 31
0.0
  0
LINE
  5
1727
330
1F
100
AcDbEntity
  8
SANINDUSA
100
AcDbLine
 10
3992.077118433767
 20
1733.536038954262
 30
0.0
 11
3992.077118433716
 21
1733.544232671297
 31
0.0
  0
LINE
  5
1728
330
1F
100
AcDbEntity
  8
SANINDUSA
100
AcDbLine
 10
3992.074318433817
 20
1733.541828026211
 30
0.0
 11
3992.074318433766
 21
1733.536038954262
 31
0.0
  0
LINE
  5
1729
330
1F
100
AcDbEntity
  8
SANINDUSA
100
AcDbLine
 10
3992.073968433712
 20
1733.541828026211
 30
0.0
 11
3992.074318433817
 21
1733.541828026211
 31
0.0
  0
LINE
  5
172A
330
1F
100
AcDbEntity
  8
SANINDUSA
100
AcDbLine
 10
3992.073968433766
 20
1733.540219953464
 30
0.0
 11
3992.073968433712
 21
1733.541828026211
 31
0.0
  0
LINE
  5
172B
330
1F
100
AcDbEntity
  8
SANINDUSA
100
AcDbLine
 10
3992.071368433766
 20
1733.540219953464
 30
0.0
 11
3992.071368433766
 21
1733.54021129321
 31
0.0
  0
LINE
  5
172C
330
1F
100
AcDbEntity
  8
SANINDUSA
100
AcDbLine
 10
3992.072368433767
 20
1733.539719953464
 30
0.0
 11
3992.072368433767
 21
1733.53971129321
 31
0.0
  0
LINE
  5
172D
330
1F
100
AcDbEntity
  8
SANINDUSA
100
AcDbLine
 10
3992.072968433767
 20
1733.539719953464
 30
0.0
 11
3992.072968433767
 21
1733.53971129321
 31
0.0
  0
LINE
  5
172E
330
1F
100
AcDbEntity
  8
SANINDUSA
100
AcDbLine
 10
3992.073968433766
 20
1733.540219953464
 30
0.0
 11
3992.073968433766
 21
1733.54021129321
 31
0.0
  0
LINE
  5
172F
330
1F
100
AcDbEntity
  8
SANINDUSA
100
AcDbLine
 10
3992.068418433767
 20
1733.540705642184
 30
0.0
 11
3992.068418433767
 21
1733.54069698193
 31
0.0
  0
LINE
  5
1730
330
1F
100
AcDbEntity
  8
SANINDUSA
100
AcDbLine
 10
3992.069418433766
 20
1733.540205642184
 30
0.0
 11
3992.069418433766
 21
1733.54019698193
 31
0.0
  0
LINE
  5
1731
330
1F
100
AcDbEntity
  8
SANINDUSA
100
AcDbLine
 10
3992.070018433766
 20
1733.540205642184
 30
0.0
 11
3992.070018433766
 21
1733.54019698193
 31
0.0
  0
LINE
  5
1732
330
1F
100
AcDbEntity
  8
SANINDUSA
100
AcDbLine
 10
3992.071018433767
 20
1733.540705642184
 30
0.0
 11
3992.071018433767
 21
1733.54069698193
 31
0.0
  0
LINE
  5
1733
330
1F
100
AcDbEntity
  8
SANINDUSA
100
AcDbLine
 10
3992.065768433766
 20
1733.541182237085
 30
0.0
 11
3992.065768433766
 21
1733.541173576831
 31
0.0
  0
LINE
  5
1734
330
1F
100
AcDbEntity
  8
SANINDUSA
100
AcDbLine
 10
3992.066768433767
 20
1733.540682237085
 30
0.0
 11
3992.066768433767
 21
1733.540673576831
 31
0.0
  0
LINE
  5
1735
330
1F
100
AcDbEntity
  8
SANINDUSA
100
AcDbLine
 10
3992.067068433767
 20
1733.540682237085
 30
0.0
 11
3992.067068433767
 21
1733.540673576831
 31
0.0
  0
LINE
  5
1736
330
1F
100
AcDbEntity
  8
SANINDUSA
100
AcDbLine
 10
3992.068068433766
 20
1733.541182237085
 30
0.0
 11
3992.068068433766
 21
1733.541173576831
 31
0.0
  0
LINE
  5
1737
330
1F
100
AcDbEntity
  8
SANINDUSA
100
AcDbLine
 10
3992.078191058512
 20
1733.541870813251
 30
0.0
 11
3992.078191058512
 21
1733.541862152996
 31
0.0
  0
LINE
  5
1738
330
1F
100
AcDbEntity
  8
SANINDUSA
100
AcDbLine
 10
3992.077468433821
 20
1733.542697181142
 30
0.0
 11
3992.077468433821
 21
1733.542688523567
 31
0.0
  0
LWPOLYLINE
  5
1739
330
1F
100
AcDbEntity
  8
SANINDUSA
100
AcDbPolyline
 90
       51
 70
   128
 43
0.0
 10
3992.066597922875
 20
1733.459416956789
 10
3992.067830891519
 20
1733.460132965034
 10
3992.069188250865
 20
1733.460739922858
 10
3992.070648595395
 20
1733.461228263712
 10
3992.072188894202
 20
1733.461590279973
 10
3992.073784855947
 20
1733.46182026822
 10
3992.075411311521
 20
1733.461914596295
 10
3992.077042610555
 20
1733.461871781534
 10
3992.078653026542
 20
1733.461692494488
 10
3992.080217162317
 20
1733.461379566378
 10
3992.081710350404
 20
1733.460937929488
 10
3992.083109042312
 20
1733.46037455011
 10
3992.084391179665
 20
1733.459698313064
 10
3992.08553654345
 20
1733.458919880128
 10
3992.08652706927
 20
1733.458051533586
 10
3992.087347136049
 20
1733.457106963879
 10
3992.087983811444
 20
1733.456101068443
 10
3992.088427054866
 20
1733.455049709565
 10
3992.088669875807
 20
1733.45396946851
 10
3992.088708444669
 20
1733.452877381033
 10
3992.088542153298
 20
1733.451790672875
 10
3992.088173623367
 20
1733.450726476646
 10
3992.087608669123
 20
1733.44970158223
 10
3992.086856197736
 20
1733.44873214621
 10
3992.085928077049
 20
1733.447833460903
 10
3992.084838944658
 20
1733.447019697315
 10
3992.083605976014
 20
1733.446303689069
 10
3992.082248616668
 20
1733.445696731246
 10
3992.080788272138
 20
1733.445208390391
 10
3992.079247973331
 20
1733.444846372268
 10
3992.077652011586
 20
1733.444616385883
 10
3992.076025556012
 20
1733.444522055945
 10
3992.074394256978
 20
1733.444564872569
 10
3992.07278384099
 20
1733.444744157753
 10
3992.071219705215
 20
1733.445057087726
 10
3992.069726517128
 20
1733.445498724616
 10
3992.068327825221
 20
1733.446062103993
 10
3992.067045687868
 20
1733.44673834104
 10
3992.065900324083
 20
1733.44751677025
 10
3992.064909798263
 20
1733.448385116792
 10
3992.064089731483
 20
1733.449329686499
 10
3992.063453056088
 20
1733.45033558566
 10
3992.063009812667
 20
1733.451386944539
 10
3992.062766991726
 20
1733.452467181868
 10
3992.062728422864
 20
1733.453559269345
 10
3992.062894714235
 20
1733.454645981229
 10
3992.063263244166
 20
1733.455710173732
 10
3992.06382819841
 20
1733.456735071874
 10
3992.064580669797
 20
1733.457704507894
 10
3992.065508790484
 20
1733.4586031932
 10
3992.066597922875
 20
1733.459416956789
  0
LWPOLYLINE
  5
173A
330
1F
100
AcDbEntity
  8
SANINDUSA
100
AcDbPolyline
 90
       50
 70
   128
 43
0.0
 10
3992.067089026964
 20
1733.459083185679
 10
3992.068280704024
 20
1733.459773422367
 10
3992.069594508207
 20
1733.460356024242
 10
3992.071008867288
 20
1733.460821428484
 10
3992.072500556878
 20
1733.461161987072
 10
3992.074045084238
 20
1733.461372112072
 10
3992.075617087928
 20
1733.461448353863
 10
3992.077190755688
 20
1733.461389457023
 10
3992.078740247928
 20
1733.461196390129
 10
3992.080240122213
 20
1733.4608723234
 10
3992.081665750298
 20
1733.460422580278
 10
3992.082993723622
 20
1733.459854540563
 10
3992.084202236667
 20
1733.459177536106
 10
3992.085271446205
 20
1733.458402683175
 10
3992.086183795875
 20
1733.45754269991
 10
3992.086924304425
 20
1733.456611712611
 10
3992.087480812504
 20
1733.455625006145
 10
3992.087844182908
 20
1733.454598781801
 10
3992.088008448652
 20
1733.453549889064
 10
3992.087970912627
 20
1733.452495553679
 10
3992.087732191368
 20
1733.451453087068
 10
3992.087296204811
 20
1733.450439603216
 10
3992.086670111104
 20
1733.449471746719
 10
3992.085864192045
 20
1733.448565409666
 10
3992.084891678935
 20
1733.447735470868
 10
3992.083768542095
 20
1733.446995564884
 10
3992.082513222175
 20
1733.446357832438
 10
3992.08114633214
 20
1733.44583275277
 10
3992.079690315931
 20
1733.445428940616
 10
3992.078169081996
 20
1733.445153030715
 10
3992.076607608348
 20
1733.445009553022
 10
3992.075031534415
 20
1733.445000863782
 10
3992.073466739322
 20
1733.445127104557
 10
3992.071938917212
 20
1733.445386202222
 10
3992.070473154246
 20
1733.44577390436
 10
3992.069093519061
 20
1733.446283844448
 10
3992.067822664215
 20
1733.446907648033
 10
3992.066681458785
 20
1733.447635070569
 10
3992.065688639118
 20
1733.448454172498
 10
3992.064860508948
 20
1733.449351501799
 10
3992.064210665583
 20
1733.450312321222
 10
3992.063749779186
 20
1733.451320857889
 10
3992.063485417686
 20
1733.452360552884
 10
3992.063421921975
 20
1733.453414333201
 10
3992.063560335136
 20
1733.454464894867
 10
3992.06389838381
 20
1733.455494986064
 10
3992.064430517315
 20
1733.456487693972
 10
3992.065147997982
 20
1733.457426720447
 10
3992.06603904458
 20
1733.458296646512
 10
3992.067089026964
 20
1733.459083185679
  0
LWPOLYLINE
  5
173B
330
1F
100
AcDbEntity
  8
SANINDUSA
100
AcDbPolyline
 90
       15
 70
   128
 43
0.0
 10
3992.067229342817
 20
1733.459073630309
 10
3992.066196433439
 20
1733.458299883789
 10
3992.065319874495
 20
1733.457444102651
 10
3992.064614060505
 20
1733.456520346141
 10
3992.064090579918
 20
1733.45554377619
 10
3992.06375802791
 20
1733.4545304339
 10
3992.063621865756
 20
1733.453496956414
 10
3992.06368432863
 20
1733.452460312432
 10
3992.063944391145
 20
1733.451437522805
 10
3992.064397783189
 20
1733.450445384866
 10
3992.065037060699
 20
1733.449500185585
 10
3992.065851724877
 20
1733.448617448247
 10
3992.066828400999
 20
1733.447811667955
 10
3992.067951051223
 20
1733.447096069491
 10
3992.068174485753
 20
1733.446973906047
  0
ARC
  5
173C
330
1F
100
AcDbEntity
  8
SANINDUSA
100
AcDbCircle
 10
3992.075477177373
 20
1733.461320213307
 30
0.0
 40
0.0161043384293781
100
AcDbArc
 50
244.4236806281065
 51
267.9375681708585
  0
LWPOLYLINE
  5
173D
330
1F
100
AcDbEntity
  8
SANINDUSA
100
AcDbPolyline
 90
       30
 70
   128
 43
0.0
 10
3992.080437757245
 20
1733.445848868376
 10
3992.081058073494
 20
1733.446038653291
 10
3992.082402737516
 20
1733.446555198318
 10
3992.083637645638
 20
1733.447182559556
 10
3992.084742520175
 20
1733.447910436577
 10
3992.085699220358
 20
1733.448726878649
 10
3992.086492035708
 20
1733.449618478454
 10
3992.087107948198
 20
1733.450570595598
 10
3992.087536845526
 20
1733.451567598766
 10
3992.087771685033
 20
1733.452593119032
 10
3992.087808611041
 20
1733.453630310631
 10
3992.08764701633
 20
1733.454662145263
 10
3992.087289554238
 20
1733.455671684033
 10
3992.086742094888
 20
1733.456642349398
 10
3992.086013627409
 20
1733.457558197117
 10
3992.085116112775
 20
1733.458404195643
 10
3992.084064289166
 20
1733.459166449642
 10
3992.082875426098
 20
1733.459832445866
 10
3992.081569045952
 20
1733.460391246862
 10
3992.080166598486
 20
1733.460833680964
 10
3992.078691112747
 20
1733.461152476406
 10
3992.077166815459
 20
1733.461342402882
 10
3992.075618735823
 20
1733.461400342322
 10
3992.074072293176
 20
1733.461325341052
 10
3992.072552880209
 20
1733.461118632144
 10
3992.071085445287
 20
1733.460783613062
 10
3992.069694084285
 20
1733.460325774885
 10
3992.068401642779
 20
1733.459752646423
 10
3992.067229342817
 20
1733.459073630309
 10
3992.067229342817
 20
1733.459073630309
  0
LWPOLYLINE
  5
173E
330
1F
100
AcDbEntity
  8
SANINDUSA
100
AcDbPolyline
 90
       36
 70
   128
 43
0.0
 10
3992.051719059406
 20
1733.531286765969
 10
3992.051774383693
 20
1733.530381259656
 10
3992.052022521554
 20
1733.529295978284
 10
3992.052467012017
 20
1733.528226477242
 10
3992.053104170768
 20
1733.52718161527
 10
3992.053928719072
 20
1733.526170049942
 10
3992.054933824747
 20
1733.525200170612
 10
3992.05611115618
 20
1733.524280001557
 10
3992.057450960561
 20
1733.523417179621
 10
3992.058942134662
 20
1733.52261884991
 10
3992.060572323559
 20
1733.52189162854
 10
3992.062328016556
 20
1733.521241543031
 10
3992.064194667324
 20
1733.520673972702
 10
3992.066156807526
 20
1733.520193633771
 10
3992.0681981786
 20
1733.519804489947
 10
3992.070301864467
 20
1733.519509774781
 10
3992.072450434261
 20
1733.519311932063
 10
3992.074626083423
 20
1733.519212600923
 10
3992.07681078411
 20
1733.519212600923
 10
3992.078986433272
 20
1733.519311932063
 10
3992.081135003066
 20
1733.519509774781
 10
3992.083238688934
 20
1733.519804489947
 10
3992.085280060006
 20
1733.520193633771
 10
3992.08724220021
 20
1733.520673972702
 10
3992.089108850977
 20
1733.521241543031
 10
3992.090864543973
 20
1733.52189162854
 10
3992.092494732871
 20
1733.52261884991
 10
3992.093985906972
 20
1733.523417179621
 10
3992.095325711353
 20
1733.524280001557
 10
3992.096503042786
 20
1733.525200170612
 10
3992.097508148461
 20
1733.526170049942
 10
3992.098332696765
 20
1733.52718161527
 10
3992.098969855516
 20
1733.528226477242
 10
3992.099414345979
 20
1733.529295978284
 10
3992.09966248384
 20
1733.530381259656
 10
3992.099717808127
 20
1733.531286765969
  0
LINE
  5
173F
330
1F
100
AcDbEntity
  8
SANINDUSA
100
AcDbLine
 10
3992.051718433558
 20
1733.418286737668
 30
0.0
 11
3992.099718433975
 21
1733.418286737668
 31
0.0
  0
LWPOLYLINE
  5
1740
330
1F
100
AcDbEntity
  8
SANINDUSA
100
AcDbPolyline
 90
       11
 70
   128
 43
0.0
 10
3992.075718433767
 20
1733.500726987756
 10
3992.077872554942
 20
1733.500638720727
 10
3992.079964914064
 20
1733.50037350986
 10
3992.08193363732
 20
1733.49992578212
 10
3992.083731621674
 20
1733.499286857582
 10
3992.085338804109
 20
1733.498422329462
 10
3992.086676054805
 20
1733.497327615655
 10
3992.087677786297
 20
1733.496019487417
 10
3992.0883524224
 20
1733.494487223363
 10
3992.088662743738
 20
1733.492933382428
 10
3992.088687546721
 20
1733.49186239872
  0
LWPOLYLINE
  5
1741
330
1F
100
AcDbEntity
  8
SANINDUSA
100
AcDbPolyline
 90
       11
 70
   128
 43
0.0
 10
3992.062739652752
 20
1733.491866727507
 10
3992.062859208493
 20
1733.493530233539
 10
3992.063371339052
 20
1733.495265749431
 10
3992.064109958878
 20
1733.496555087304
 10
3992.065104902892
 20
1733.497658413983
 10
3992.06635700742
 20
1733.498587739802
 10
3992.067818538456
 20
1733.499335591829
 10
3992.069625043015
 20
1733.4999601591
 10
3992.07159839867
 20
1733.500395153797
 10
3992.073630263268
 20
1733.500644114948
 10
3992.075718433767
 20
1733.500726987756
  0
LINE
  5
1910
330
1F
100
AcDbEntity
  8
SANINDUSA
100
AcDbLine
 10
3991.957137155904
 20
1733.450373799494
 30
0.0
 11
3991.957137155696
 21
1733.448073800889
 31
0.0
  0
LINE
  5
1911
330
1F
100
AcDbEntity
  8
SANINDUSA
100
AcDbLine
 10
3992.005137155904
 20
1733.448073799494
 30
0.0
 11
3992.005137155904
 21
1733.450373799494
 31
0.0
  0
LINE
  5
1912
330
1F
100
AcDbEntity
  8
SANINDUSA
100
AcDbLine
 10
3991.986292529734
 20
1733.459421612558
 30
0.0
 11
3991.986292529816
 21
1733.459426612747
 31
0.0
  0
LINE
  5
1913
330
1F
100
AcDbEntity
  8
SANINDUSA
100
AcDbLine
 10
3991.973637155904
 20
1733.447973799494
 30
0.0
 11
3991.973637156072
 21
1733.447968799857
 31
0.0
  0
LINE
  5
1914
330
1F
100
AcDbEntity
  8
SANINDUSA
100
AcDbLine
 10
3991.988637155736
 20
1733.447968799857
 30
0.0
 11
3991.988637155904
 21
1733.447973799494
 31
0.0
  0
LINE
  5
1915
330
1F
100
AcDbEntity
  8
SANINDUSA
100
AcDbLine
 10
3991.975937155904
 20
1733.447973799494
 30
0.0
 11
3991.97593715589
 21
1733.447968799857
 31
0.0
  0
LINE
  5
1916
330
1F
100
AcDbEntity
  8
SANINDUSA
100
AcDbLine
 10
3991.986337155918
 20
1733.447968799857
 30
0.0
 11
3991.986337155904
 21
1733.447973799494
 31
0.0
  0
LINE
  5
1917
330
1F
100
AcDbEntity
  8
SANINDUSA
100
AcDbLine
 10
3991.986884369864
 20
1733.432425182548
 30
0.0
 11
3991.986884369864
 21
1733.432430181888
 31
0.0
  0
LINE
  5
1918
330
1F
100
AcDbEntity
  8
SANINDUSA
100
AcDbLine
 10
3991.994137155904
 20
1733.415070920698
 30
0.0
 11
3991.994137156172
 21
1733.430602398005
 31
0.0
  0
LINE
  5
1919
330
1F
100
AcDbEntity
  8
SANINDUSA
100
AcDbLine
 10
3991.968137155636
 20
1733.430602398005
 30
0.0
 11
3991.968137155904
 21
1733.415070920698
 31
0.0
  0
LINE
  5
191A
330
1F
100
AcDbEntity
  8
SANINDUSA
100
AcDbLine
 10
3991.957137155696
 20
1733.51566439844
 30
0.0
 11
3991.957137155904
 21
1733.450473799494
 31
0.0
  0
LINE
  5
191B
330
1F
100
AcDbEntity
  8
SANINDUSA
100
AcDbLine
 10
3992.005137155904
 20
1733.450473799494
 30
0.0
 11
3992.005137156113
 21
1733.51566439844
 31
0.0
  0
LWPOLYLINE
  5
191C
330
1F
100
AcDbEntity
  8
SANINDUSA
100
AcDbPolyline
 90
       18
 70
   128
 43
0.0
 10
3991.979527155868
 20
1733.472608410058
 10
3991.979635875672
 20
1733.472317610172
 10
3991.979947351501
 20
1733.472066086021
 10
3991.980419517145
 20
1733.471887801078
 10
3991.980988603842
 20
1733.471806843069
 10
3991.981577753321
 20
1733.471834138271
 10
3991.982107397693
 20
1733.471966006097
 10
3991.982506005442
 20
1733.472184632209
 10
3991.982719742576
 20
1733.472460489956
 10
3991.982719742576
 20
1733.472756326434
 10
3991.982506005442
 20
1733.473032187906
 10
3991.982107397693
 20
1733.473250814018
 10
3991.981577753321
 20
1733.473382678118
 10
3991.980988603842
 20
1733.473409977046
 10
3991.980419517145
 20
1733.473329015312
 10
3991.979947351501
 20
1733.473150734094
 10
3991.979635875672
 20
1733.472899209944
 10
3991.979527155868
 20
1733.472608410058
  0
LINE
  5
191D
330
1F
100
AcDbEntity
  8
SANINDUSA
100
AcDbLine
 10
3991.981714506168
 20
1733.472108409045
 30
0.0
 11
3991.982291856431
 21
1733.472608410058
 31
0.0
  0
LINE
  5
191E
330
1F
100
AcDbEntity
  8
SANINDUSA
100
AcDbLine
 10
3991.981714506168
 20
1733.473108407346
 30
0.0
 11
3991.982291856431
 21
1733.472608410058
 31
0.0
  0
LINE
  5
191F
330
1F
100
AcDbEntity
  8
SANINDUSA
100
AcDbLine
 10
3991.980559805641
 20
1733.473108407346
 30
0.0
 11
3991.981714506168
 21
1733.473108407346
 31
0.0
  0
LINE
  5
1920
330
1F
100
AcDbEntity
  8
SANINDUSA
100
AcDbLine
 10
3991.980559805641
 20
1733.473108407346
 30
0.0
 11
3991.979982455377
 21
1733.472608410058
 31
0.0
  0
LINE
  5
1921
330
1F
100
AcDbEntity
  8
SANINDUSA
100
AcDbLine
 10
3991.980559805641
 20
1733.472108409045
 30
0.0
 11
3991.979982455377
 21
1733.472608410058
 31
0.0
  0
LINE
  5
1922
330
1F
100
AcDbEntity
  8
SANINDUSA
100
AcDbLine
 10
3991.980559805641
 20
1733.472108409045
 30
0.0
 11
3991.981714506168
 21
1733.472108409045
 31
0.0
  0
LINE
  5
1923
330
1F
100
AcDbEntity
  8
SANINDUSA
100
AcDbLine
 10
3991.980559805641
 20
1733.472108409045
 30
0.0
 11
3991.980559805641
 21
1733.473108407346
 31
0.0
  0
LINE
  5
1924
330
1F
100
AcDbEntity
  8
SANINDUSA
100
AcDbLine
 10
3991.981714506168
 20
1733.472108409045
 30
0.0
 11
3991.981714506168
 21
1733.473108407346
 31
0.0
  0
LWPOLYLINE
  5
1925
330
1F
100
AcDbEntity
  8
SANINDUSA
100
AcDbPolyline
 90
       70
 70
   128
 43
0.0
 10
3992.005137156113
 20
1733.448073800889
 10
3992.005037720664
 20
1733.446183752504
 10
3992.004740237607
 20
1733.444309372691
 10
3992.004247171222
 20
1733.442466181007
 10
3992.003562608152
 20
1733.440669451145
 10
3992.00269222015
 20
1733.438934084263
 10
3992.001643221243
 20
1733.437274452534
 10
3992.000424302532
 20
1733.435704302278
 10
3991.999045565142
 20
1733.434236649659
 10
3991.997518430813
 20
1733.432883661476
 10
3991.995855558081
 20
1733.431656535951
 10
3991.99407072307
 20
1733.430565458027
 10
3991.992178717046
 20
1733.429619450358
 10
3991.99019521696
 20
1733.428826365855
 10
3991.988136658328
 20
1733.428192775932
 10
3991.986020100186
 20
1733.427723918346
 10
3991.98386308027
 20
1733.42742368975
 10
3991.981683472637
 20
1733.427294578639
 10
3991.979499337962
 20
1733.427337642995
 10
3991.977328774868
 20
1733.427552540091
 10
3991.975189769058
 20
1733.427937474337
 10
3991.973100045114
 20
1733.428489271787
 10
3991.971076919115
 20
1733.429203350333
 10
3991.9691371558
 20
1733.430073801664
 10
3991.967296827933
 20
1733.431093398717
 10
3991.965571185923
 20
1733.432253707436
 10
3991.963974527433
 20
1733.43354510167
 10
3991.962520084693
 20
1733.434956882385
 10
3991.961219908088
 20
1733.43647735962
 10
3991.960084773018
 20
1733.438093926993
 10
3991.95912408398
 20
1733.439793188361
 10
3991.958345803782
 20
1733.441561069575
 10
3991.957756377174
 20
1733.443382915345
 10
3991.957360693603
 20
1733.445243630794
 10
3991.957162027596
 20
1733.44712779322
 10
3991.957162027596
 20
1733.449019801107
 10
3991.957360693603
 20
1733.450903970984
 10
3991.957756377174
 20
1733.452764686433
 10
3991.958345803782
 20
1733.454586532203
 10
3991.95912408398
 20
1733.456354409692
 10
3991.960084773018
 20
1733.458053674785
 10
3991.961219908088
 20
1733.459670242158
 10
3991.962520084693
 20
1733.461190715668
 10
3991.963974527433
 20
1733.462602500108
 10
3991.965571185923
 20
1733.463893894342
 10
3991.967296827933
 20
1733.465054199335
 10
3991.9691371558
 20
1733.466073800114
 10
3991.971076919115
 20
1733.466944243994
 10
3991.973100045114
 20
1733.467658326265
 10
3991.975189769058
 20
1733.46821011999
 10
3991.977328774868
 20
1733.468595061687
 10
3991.979499337962
 20
1733.468809955058
 10
3991.981683472637
 20
1733.468853023139
 10
3991.98386308027
 20
1733.468723908302
 10
3991.986020100186
 20
1733.468423679707
 10
3991.988136658328
 20
1733.467954825846
 10
3991.99019521696
 20
1733.467321232197
 10
3991.992178717046
 20
1733.466528147695
 10
3991.99407072307
 20
1733.465582143751
 10
3991.995855558081
 20
1733.464491062102
 10
3991.997518430813
 20
1733.463263940302
 10
3991.999045565142
 20
1733.461910948393
 10
3992.000424302532
 20
1733.460443295774
 10
3992.001643221243
 20
1733.458873149243
 10
3992.00269222015
 20
1733.457213513789
 10
3992.003562608152
 20
1733.455478143183
 10
3992.004247171222
 20
1733.45368142077
 10
3992.004740237607
 20
1733.451838229087
 10
3992.005037720664
 20
1733.449963841823
 10
3992.005137156113
 20
1733.448073800889
  0
LINE
  5
1927
330
1F
100
AcDbEntity
  8
SANINDUSA
100
AcDbLine
 10
3991.975103569566
 20
1733.433269042757
 30
0.0
 11
3991.973957521092
 21
1733.433269045777
 31
0.0
  0
ARC
  5
1928
330
1F
100
AcDbEntity
  8
SANINDUSA
100
AcDbCircle
 10
3991.973936199773
 20
1733.432949073335
 30
0.0
 40
0.0003206790249315
100
AcDbArc
 50
86.18767402787101
 51
175.597970876927
  0
ARC
  5
1929
330
1F
100
AcDbEntity
  8
SANINDUSA
100
AcDbCircle
 10
3991.974902776236
 20
1733.432176616619
 30
0.0
 40
0.000160348326712
100
AcDbArc
 50
266.1909126985471
 51
355.5975157320924
  0
LINE
  5
192A
330
1F
100
AcDbEntity
  8
SANINDUSA
100
AcDbLine
 10
3991.974892124061
 20
1733.432016625734
 30
0.0
 11
3991.97361646674
 21
1733.432016622511
 31
0.0
  0
ARC
  5
192B
330
1F
100
AcDbEntity
  8
SANINDUSA
100
AcDbCircle
 10
3991.974906606674
 20
1733.432405560218
 30
0.0
 40
0.0003206936410069
100
AcDbArc
 50
4.40329093090531
 51
93.80955626068246
  0
LINE
  5
192C
330
1F
100
AcDbEntity
  8
SANINDUSA
100
AcDbLine
 10
3991.974885299503
 20
1733.432725541558
 30
0.0
 11
3991.97395753555
 21
1733.432725541558
 31
0.0
  0
ARC
  5
192D
330
1F
100
AcDbEntity
  8
SANINDUSA
100
AcDbCircle
 10
3991.97394686933
 20
1733.432885523727
 30
0.0
 40
0.0001603336612735
100
AcDbArc
 50
184.3999540197728
 51
273.8144785123232
  0
LINE
  5
192E
330
1F
100
AcDbEntity
  8
SANINDUSA
100
AcDbLine
 10
3991.98297566839
 20
1733.433269042757
 30
0.0
 11
3991.981874042739
 21
1733.433269045777
 31
0.0
  0
ARC
  5
192F
330
1F
100
AcDbEntity
  8
SANINDUSA
100
AcDbCircle
 10
3991.98185282752
 20
1733.432948858587
 30
0.0
 40
0.0003208862523761
100
AcDbArc
 50
86.20916022637516
 51
175.3648521639797
  0
LINE
  5
1930
330
1F
100
AcDbEntity
  8
SANINDUSA
100
AcDbLine
 10
3991.981532990742
 20
1733.432974790798
 30
0.0
 11
3991.981529514072
 21
1733.432171296564
 31
0.0
  0
LINE
  5
1931
330
1F
100
AcDbEntity
  8
SANINDUSA
100
AcDbLine
 10
3991.983139385353
 20
1733.43362941989
 30
0.0
 11
3991.98297566839
 21
1733.43362941989
 31
0.0
  0
LINE
  5
1932
330
1F
100
AcDbEntity
  8
SANINDUSA
100
AcDbLine
 10
3991.98356914462
 20
1733.433269042757
 30
0.0
 11
3991.983405427658
 21
1733.433269042757
 31
0.0
  0
LINE
  5
1933
330
1F
100
AcDbEntity
  8
SANINDUSA
100
AcDbLine
 10
3991.985015329323
 20
1733.433269042757
 30
0.0
 11
3991.984844787629
 21
1733.433269042757
 31
0.0
  0
ARC
  5
1934
330
1F
100
AcDbEntity
  8
SANINDUSA
100
AcDbCircle
 10
3991.984685002879
 20
1733.432179438482
 30
0.0
 40
0.0001602534228596
100
AcDbArc
 50
266.3738867834435
 51
355.6169606393599
  0
LINE
  5
1935
330
1F
100
AcDbEntity
  8
SANINDUSA
100
AcDbLine
 10
3991.984674867476
 20
1733.432019509168
 30
0.0
 11
3991.983740278966
 21
1733.432016627561
 31
0.0
  0
ARC
  5
1936
330
1F
100
AcDbEntity
  8
SANINDUSA
100
AcDbCircle
 10
3991.983729095086
 20
1733.432176666891
 30
0.0
 40
0.0001604272288692
100
AcDbArc
 50
184.4183223061288
 51
273.9974740358503
  0
LINE
  5
1937
330
1F
100
AcDbEntity
  8
SANINDUSA
100
AcDbLine
 10
3991.979401161545
 20
1733.433269042757
 30
0.0
 11
3991.97923743003
 21
1733.433269042757
 31
0.0
  0
ARC
  5
1938
330
1F
100
AcDbEntity
  8
SANINDUSA
100
AcDbCircle
 10
3991.978651654712
 20
1733.432949073207
 30
0.0
 40
0.0003206791309344
100
AcDbArc
 50
4.402050629156509
 51
93.81226575609359
  0
LINE
  5
1939
330
1F
100
AcDbEntity
  8
SANINDUSA
100
AcDbLine
 10
3991.978630333515
 20
1733.433269045777
 30
0.0
 11
3991.977361515281
 21
1733.433269042757
 31
0.0
  0
LWPOLYLINE
  5
193A
330
1F
100
AcDbEntity
  8
SANINDUSA
100
AcDbPolyline
 90
        3
 70
   128
 43
0.0
 10
3991.986292529734
 20
1733.459426611897
 10
3991.986292264308
 20
1733.459450230238
 10
3991.986175279016
 20
1733.459912322697
  0
LINE
  5
193B
330
1F
100
AcDbEntity
  8
SANINDUSA
100
AcDbLine
 10
3991.986175278982
 20
1733.459912324525
 30
0.0
 11
3991.98401526766
 21
1733.464190714788
 31
0.0
  0
ARC
  5
193C
330
1F
100
AcDbEntity
  8
SANINDUSA
100
AcDbCircle
 10
3991.955626054394
 20
1733.449836065983
 30
0.0
 40
0.0318120002490864
100
AcDbArc
 50
26.82286795749365
 51
35.14264871036831
  0
ARC
  5
193D
330
1F
100
AcDbEntity
  8
SANINDUSA
100
AcDbCircle
 10
3991.981115426071
 20
1733.441616544632
 30
0.0
 40
0.0265361307713817
100
AcDbArc
 50
88.8685601267481
 51
108.337963522343
  0
LINE
  5
193E
330
1F
100
AcDbEntity
  8
SANINDUSA
100
AcDbLine
 10
3991.972766589574
 20
1733.466805095639
 30
0.0
 11
3991.971528305553
 21
1733.463021911705
 31
0.0
  0
ARC
  5
193F
330
1F
100
AcDbEntity
  8
SANINDUSA
100
AcDbCircle
 10
3991.97801316566
 20
1733.460890945155
 30
0.0
 40
0.0068260117170268
100
AcDbArc
 50
161.8091452410032
 51
179.9550651937566
  0
LWPOLYLINE
  5
1942
330
1F
100
AcDbEntity
  8
SANINDUSA
100
AcDbPolyline
 90
       17
 70
   128
 43
0.0
 10
3991.986337155918
 20
1733.447973799196
 10
3991.986260765581
 20
1733.447204727915
 10
3991.985982428654
 20
1733.446339022604
 10
3991.985511152888
 20
1733.445538413015
 10
3991.984865703503
 20
1733.444834780184
 10
3991.984071782906
 20
1733.444256145743
 10
3991.983161005075
 20
1733.443825546888
 10
3991.98216963734
 20
1733.443560127405
 10
3991.981137155904
 20
1733.443470467118
 10
3991.980104674468
 20
1733.443560127405
 10
3991.979113306733
 20
1733.443825546888
 10
3991.978202528902
 20
1733.444256145743
 10
3991.977408608305
 20
1733.444834780184
 10
3991.97676315892
 20
1733.445538413015
 10
3991.976291883155
 20
1733.446339022604
 10
3991.976013546227
 20
1733.447204727915
 10
3991.97593715589
 20
1733.447973799196
  0
LINE
  5
1943
330
1F
100
AcDbEntity
  8
SANINDUSA
100
AcDbLine
 10
3991.976931770216
 20
1733.432725545254
 30
0.0
 11
3991.975833450376
 21
1733.432725541558
 31
0.0
  0
ARC
  5
1944
330
1F
100
AcDbEntity
  8
SANINDUSA
100
AcDbCircle
 10
3991.975812143582
 20
1733.432405559432
 30
0.0
 40
0.0003206944084569
100
AcDbArc
 50
86.19049648716766
 51
175.5965789055305
  0
ARC
  5
1945
330
1F
100
AcDbEntity
  8
SANINDUSA
100
AcDbCircle
 10
3991.976782578868
 20
1733.432949073056
 30
0.0
 40
0.0003206792871857
100
AcDbArc
 50
4.402075495442393
 51
93.81227959537437
  0
LINE
  5
1946
330
1F
100
AcDbEntity
  8
SANINDUSA
100
AcDbLine
 10
3991.976761257705
 20
1733.433269045777
 30
0.0
 11
3991.975615179981
 21
1733.433269042757
 31
0.0
  0
ARC
  5
1947
330
1F
100
AcDbEntity
  8
SANINDUSA
100
AcDbCircle
 10
3991.980957357558
 20
1733.432949073048
 30
0.0
 40
0.0003206792861979
100
AcDbArc
 50
4.402076880288603
 51
93.81225643342759
  0
LINE
  5
1948
330
1F
100
AcDbEntity
  8
SANINDUSA
100
AcDbLine
 10
3991.980936036445
 20
1733.433269045777
 30
0.0
 11
3991.979667189182
 21
1733.433269042757
 31
0.0
  0
LINE
  5
1949
330
1F
100
AcDbEntity
  8
SANINDUSA
100
AcDbLine
 10
3991.979401161545
 20
1733.43362941989
 30
0.0
 11
3991.97923743003
 21
1733.43362941989
 31
0.0
  0
ARC
  5
194A
330
1F
100
AcDbEntity
  8
SANINDUSA
100
AcDbCircle
 10
3991.988440644597
 20
1733.432949073335
 30
0.0
 40
0.0003206790249314
100
AcDbArc
 50
4.402029123073039
 51
93.812325972129
  0
LINE
  5
194B
330
1F
100
AcDbEntity
  8
SANINDUSA
100
AcDbLine
 10
3991.988419323286
 20
1733.433269045777
 30
0.0
 11
3991.987273274804
 21
1733.433269042757
 31
0.0
  0
LINE
  5
194C
330
1F
100
AcDbEntity
  8
SANINDUSA
100
AcDbLine
 10
3991.988589836168
 20
1733.432725545254
 30
0.0
 11
3991.987491544874
 21
1733.432725541558
 31
0.0
  0
ARC
  5
194D
330
1F
100
AcDbEntity
  8
SANINDUSA
100
AcDbCircle
 10
3991.987470237697
 20
1733.432405560218
 30
0.0
 40
0.0003206936410069
100
AcDbArc
 50
86.19044373931755
 51
175.5967090690947
  0
ARC
  5
194E
330
1F
100
AcDbEntity
  8
SANINDUSA
100
AcDbCircle
 10
3991.986564889455
 20
1733.432406096741
 30
0.0
 40
0.0003201761933013
100
AcDbArc
 50
3.818231695727728
 51
93.86363110707454
  0
LINE
  5
194F
330
1F
100
AcDbEntity
  8
SANINDUSA
100
AcDbLine
 10
3991.986543315555
 20
1733.432725541558
 30
0.0
 11
3991.98561560113
 21
1733.432725541558
 31
0.0
  0
ARC
  5
1950
330
1F
100
AcDbEntity
  8
SANINDUSA
100
AcDbCircle
 10
3991.985604934573
 20
1733.432885522941
 30
0.0
 40
0.0001603328938669
100
AcDbArc
 50
184.3996936406866
 51
273.814584034887
  0
LINE
  5
1951
330
1F
100
AcDbEntity
  8
SANINDUSA
100
AcDbLine
 10
3991.986761664389
 20
1733.433269042757
 30
0.0
 11
3991.985615586672
 21
1733.433269045777
 31
0.0
  0
ARC
  5
1952
330
1F
100
AcDbEntity
  8
SANINDUSA
100
AcDbCircle
 10
3991.985594265502
 20
1733.432949073056
 30
0.0
 40
0.0003206792871857
100
AcDbArc
 50
86.18772040462564
 51
175.5979245045576
  0
ARC
  5
1953
330
1F
100
AcDbEntity
  8
SANINDUSA
100
AcDbCircle
 10
3991.986560841723
 20
1733.432176616619
 30
0.0
 40
0.000160348326712
100
AcDbArc
 50
266.1909126985471
 51
355.5975157320924
  0
LINE
  5
1954
330
1F
100
AcDbEntity
  8
SANINDUSA
100
AcDbLine
 10
3991.986550189641
 20
1733.432016625734
 30
0.0
 11
3991.985274532228
 21
1733.432016622511
 31
0.0
  0
LWPOLYLINE
  5
1955
330
1F
100
AcDbEntity
  8
SANINDUSA
100
AcDbPolyline
 90
       37
 70
   128
 43
0.0
 10
3992.005137156113
 20
1733.45037380257
 10
3992.005112284212
 20
1733.451319802788
 10
3992.004913618206
 20
1733.453203972665
 10
3992.004517934634
 20
1733.455064688113
 10
3992.003928508027
 20
1733.456886530158
 10
3992.003150227829
 20
1733.458654411373
 10
3992.002189538791
 20
1733.46035367274
 10
3992.001054403721
 20
1733.461970240113
 10
3991.999754227116
 20
1733.463490717349
 10
3991.998299784376
 20
1733.464902501789
 10
3991.996703125886
 20
1733.466193896022
 10
3991.994977483875
 20
1733.467354201016
 10
3991.993137156008
 20
1733.46837379807
 10
3991.991197392694
 20
1733.469244245675
 10
3991.989174266695
 20
1733.469958324221
 10
3991.987084542751
 20
1733.470510121671
 10
3991.98494553694
 20
1733.470895059642
 10
3991.982774973847
 20
1733.471109956738
 10
3991.980590839172
 20
1733.47115302482
 10
3991.978411231539
 20
1733.471023909983
 10
3991.976254211622
 20
1733.470723681388
 10
3991.97413765348
 20
1733.470254827526
 10
3991.972079094848
 20
1733.469621230153
 10
3991.970095594762
 20
1733.46882814565
 10
3991.968203588738
 20
1733.467882145432
 10
3991.966418753727
 20
1733.466791060057
 10
3991.964755880996
 20
1733.465563938257
 10
3991.963228746666
 20
1733.464210946349
 10
3991.961850009276
 20
1733.462743297455
 10
3991.960631090565
 20
1733.461173150924
 10
3991.959582091658
 20
1733.45951351547
 10
3991.958711703657
 20
1733.457778144863
 10
3991.958027140587
 20
1733.455981418726
 10
3991.957534074201
 20
1733.454138230768
 10
3991.957236591144
 20
1733.452263843504
 10
3991.957137155696
 20
1733.45037380257
 10
3991.957137155696
 20
1733.45037380257
  0
ARC
  5
1956
330
1F
100
AcDbEntity
  8
SANINDUSA
100
AcDbCircle
 10
3991.978449654034
 20
1733.456148699692
 30
0.0
 40
0.0009402756229212
100
AcDbArc
 50
266.1888619546183
 51
355.5979497495278
  0
LINE
  5
1957
330
1F
100
AcDbEntity
  8
SANINDUSA
100
AcDbLine
 10
3991.977787155904
 20
1733.455210502538
 30
0.0
 11
3991.978387155904
 21
1733.455210502538
 31
0.0
  0
ARC
  5
1958
330
1F
100
AcDbEntity
  8
SANINDUSA
100
AcDbCircle
 10
3991.977724658208
 20
1733.456148700309
 30
0.0
 40
0.000940276217648
100
AcDbArc
 50
184.4020851763767
 51
273.8111163193579
  0
LINE
  5
1959
330
1F
100
AcDbEntity
  8
SANINDUSA
100
AcDbLine
 10
3991.976787155843
 20
1733.458861802009
 30
0.0
 11
3991.976787155904
 21
1733.456076527942
 31
0.0
  0
LINE
  5
195A
330
1F
100
AcDbEntity
  8
SANINDUSA
100
AcDbLine
 10
3991.976437155972
 20
1733.458861802009
 30
0.0
 11
3991.976787155843
 21
1733.458861802009
 31
0.0
  0
LINE
  5
195B
330
1F
100
AcDbEntity
  8
SANINDUSA
100
AcDbLine
 10
3991.976437155904
 20
1733.456917765482
 30
0.0
 11
3991.976437155972
 21
1733.458861802009
 31
0.0
  0
ARC
  5
195C
330
1F
100
AcDbEntity
  8
SANINDUSA
100
AcDbCircle
 10
3991.975499655749
 20
1733.45698993544
 30
0.0
 40
0.0009402738923436
100
AcDbArc
 50
266.188743428157
 51
355.5980550617954
  0
LINE
  5
195D
330
1F
100
AcDbEntity
  8
SANINDUSA
100
AcDbLine
 10
3991.974837155904
 20
1733.456051740078
 30
0.0
 11
3991.975437155904
 21
1733.456051740078
 31
0.0
  0
ARC
  5
195E
330
1F
100
AcDbEntity
  8
SANINDUSA
100
AcDbCircle
 10
3991.974774656134
 20
1733.456989935647
 30
0.0
 40
0.0009402740869448
100
AcDbArc
 50
184.4019566724298
 51
273.81124482102
  0
LINE
  5
195F
330
1F
100
AcDbEntity
  8
SANINDUSA
100
AcDbLine
 10
3991.973837155732
 20
1733.459340691802
 30
0.0
 11
3991.973837155904
 21
1733.456917765482
 31
0.0
  0
LINE
  5
1960
330
1F
100
AcDbEntity
  8
SANINDUSA
100
AcDbLine
 10
3991.973487155861
 20
1733.459340691802
 30
0.0
 11
3991.973837155732
 21
1733.459340691802
 31
0.0
  0
LINE
  5
1961
330
1F
100
AcDbEntity
  8
SANINDUSA
100
AcDbLine
 10
3991.973487155905
 20
1733.457743252065
 30
0.0
 11
3991.973487155861
 21
1733.459340691802
 31
0.0
  0
ARC
  5
1962
330
1F
100
AcDbEntity
  8
SANINDUSA
100
AcDbCircle
 10
3991.972549661046
 20
1733.457815416274
 30
0.0
 40
0.0009402680213465
100
AcDbArc
 50
266.1883893635546
 51
355.5984091398249
  0
LINE
  5
1963
330
1F
100
AcDbEntity
  8
SANINDUSA
100
AcDbLine
 10
3991.972187155904
 20
1733.456877226661
 30
0.0
 11
3991.972487155904
 21
1733.456877226661
 31
0.0
  0
ARC
  5
1964
330
1F
100
AcDbEntity
  8
SANINDUSA
100
AcDbCircle
 10
3991.972124650919
 20
1733.457815416343
 30
0.0
 40
0.0009402680870656
100
AcDbArc
 50
184.4015948198768
 51
273.8116066926409
  0
LINE
  5
1965
330
1F
100
AcDbEntity
  8
SANINDUSA
100
AcDbLine
 10
3991.971187155904
 20
1733.460891298157
 30
0.0
 11
3991.971187155904
 21
1733.457743252065
 31
0.0
  0
ARC
  5
1966
330
1F
100
AcDbEntity
  8
SANINDUSA
100
AcDbCircle
 10
3991.978013181134
 20
1733.460885943332
 30
0.0
 40
0.0068260271925424
100
AcDbArc
 50
161.8091659919445
 51
179.9550444408727
  0
LINE
  5
1967
330
1F
100
AcDbEntity
  8
SANINDUSA
100
AcDbLine
 10
3991.972766589574
 20
1733.466800095639
 30
0.0
 11
3991.971528305553
 21
1733.463016911705
 31
0.0
  0
ARC
  5
1968
330
1F
100
AcDbEntity
  8
SANINDUSA
100
AcDbCircle
 10
3991.981115413898
 20
1733.441611695656
 30
0.0
 40
0.0265359806783054
100
AcDbArc
 50
88.86852742110594
 51
108.3380432587564
  0
ARC
  5
1969
330
1F
100
AcDbEntity
  8
SANINDUSA
100
AcDbCircle
 10
3991.955626054394
 20
1733.449831066643
 30
0.0
 40
0.0318120002490864
100
AcDbArc
 50
26.82286795749365
 51
35.14264871036831
  0
LINE
  5
196A
330
1F
100
AcDbEntity
  8
SANINDUSA
100
AcDbLine
 10
3991.986175278982
 20
1733.459907324525
 30
0.0
 11
3991.98401526766
 21
1733.464185714788
 31
0.0
  0
LWPOLYLINE
  5
196B
330
1F
100
AcDbEntity
  8
SANINDUSA
100
AcDbPolyline
 90
        9
 70
   128
 43
0.0
 10
3991.983609780552
 20
1733.458935901758
 10
3991.983922052779
 20
1733.458547752586
 10
3991.984382071183
 20
1733.458292640981
 10
3991.984919802402
 20
1733.45820940682
 10
3991.985453381552
 20
1733.458310719815
 10
3991.985901575885
 20
1733.458581153539
 10
3991.986196152284
 20
1733.458979543534
 10
3991.986292264308
 20
1733.459445230899
 10
3991.986175279016
 20
1733.459907323358
  0
LINE
  5
196C
330
1F
100
AcDbEntity
  8
SANINDUSA
100
AcDbLine
 10
3991.982887155958
 20
1733.460367221621
 30
0.0
 11
3991.983609780649
 21
1733.458935900969
 31
0.0
  0
LINE
  5
196D
330
1F
100
AcDbEntity
  8
SANINDUSA
100
AcDbLine
 10
3991.982887155958
 20
1733.46302676597
 30
0.0
 11
3991.982887155958
 21
1733.460367221621
 31
0.0
  0
LINE
  5
196E
330
1F
100
AcDbEntity
  8
SANINDUSA
100
AcDbLine
 10
3991.982537155854
 20
1733.46302676597
 30
0.0
 11
3991.982887155958
 21
1733.46302676597
 31
0.0
  0
LINE
  5
196F
330
1F
100
AcDbEntity
  8
SANINDUSA
100
AcDbLine
 10
3991.982537155904
 20
1733.448834824898
 30
0.0
 11
3991.982537155854
 21
1733.46302676597
 31
0.0
  0
ARC
  5
1970
330
1F
100
AcDbEntity
  8
SANINDUSA
100
AcDbCircle
 10
3991.981137155904
 20
1733.448997440422
 30
0.0
 40
0.0014094124517556
100
AcDbArc
 50
186.6254152707756
 51
353.3745847292244
  0
LINE
  5
1971
330
1F
100
AcDbEntity
  8
SANINDUSA
100
AcDbLine
 10
3991.979737155954
 20
1733.458861802009
 30
0.0
 11
3991.979737155904
 21
1733.448834824898
 31
0.0
  0
LINE
  5
1972
330
1F
100
AcDbEntity
  8
SANINDUSA
100
AcDbLine
 10
3991.979387155851
 20
1733.458861802009
 30
0.0
 11
3991.979737155954
 21
1733.458861802009
 31
0.0
  0
LINE
  5
1973
330
1F
100
AcDbEntity
  8
SANINDUSA
100
AcDbLine
 10
3991.979387155904
 20
1733.456076527942
 30
0.0
 11
3991.979387155851
 21
1733.458861802009
 31
0.0
  0
LINE
  5
1974
330
1F
100
AcDbEntity
  8
SANINDUSA
100
AcDbLine
 10
3991.981639410335
 20
1733.468142502807
 30
0.0
 11
3991.981639410335
 21
1733.468147502807
 31
0.0
  0
LINE
  5
1975
330
1F
100
AcDbEntity
  8
SANINDUSA
100
AcDbLine
 10
3991.972766589574
 20
1733.466800095639
 30
0.0
 11
3991.972766589574
 21
1733.466805095639
 31
0.0
  0
LINE
  5
1976
330
1F
100
AcDbEntity
  8
SANINDUSA
100
AcDbLine
 10
3991.98401526766
 20
1733.464185714788
 30
0.0
 11
3991.98401526766
 21
1733.464190714788
 31
0.0
  0
LINE
  5
1977
330
1F
100
AcDbEntity
  8
SANINDUSA
100
AcDbLine
 10
3991.971528305553
 20
1733.463016911705
 30
0.0
 11
3991.971528305553
 21
1733.463021911705
 31
0.0
  0
LINE
  5
1978
330
1F
100
AcDbEntity
  8
SANINDUSA
100
AcDbLine
 10
3991.986175278982
 20
1733.459907324525
 30
0.0
 11
3991.986175278982
 21
1733.459912324525
 31
0.0
  0
LINE
  5
1979
330
1F
100
AcDbEntity
  8
SANINDUSA
100
AcDbLine
 10
3991.971187155904
 20
1733.460891298157
 30
0.0
 11
3991.971187155904
 21
1733.460896298157
 31
0.0
  0
LINE
  5
197A
330
1F
100
AcDbEntity
  8
SANINDUSA
100
AcDbLine
 10
3991.979387155904
 20
1733.454284702042
 30
0.0
 11
3991.979387155904
 21
1733.454289702043
 31
0.0
  0
LWPOLYLINE
  5
197B
330
1F
100
AcDbEntity
  8
SANINDUSA
100
AcDbPolyline
 90
       36
 70
   128
 43
0.0
 10
3991.979387155851
 20
1733.454284701732
 10
3991.978205700987
 20
1733.453947294739
 10
3991.977104900288
 20
1733.453445401278
 10
3991.976115040364
 20
1733.452792827276
 10
3991.975263355648
 20
1733.45200752863
 10
3991.974573278683
 20
1733.451111112026
 10
3991.974063795875
 20
1733.450128238884
 10
3991.973748925025
 20
1733.449085954812
 10
3991.973637328833
 20
1733.448012929645
 10
3991.973732078331
 20
1733.446938690034
 10
3991.97403056582
 20
1733.445892799881
 10
3991.97452457936
 20
1733.444904018429
 10
3991.975200527231
 20
1733.443999562648
 10
3991.976039811387
 20
1733.443204317478
 10
3991.977019340149
 20
1733.442540150371
 10
3991.978112164303
 20
1733.442025352505
 10
3991.979288215866
 20
1733.441674072531
 10
3991.980515137955
 20
1733.441495988754
 10
3991.981759173853
 20
1733.441495988754
 10
3991.982986095943
 20
1733.441674072531
 10
3991.984162147506
 20
1733.442025352505
 10
3991.985254971659
 20
1733.442540150371
 10
3991.986234500422
 20
1733.443204317478
 10
3991.987073784577
 20
1733.443999562648
 10
3991.987749732448
 20
1733.444904018429
 10
3991.988243745989
 20
1733.445892799881
 10
3991.988542233477
 20
1733.446938690034
 10
3991.988636982976
 20
1733.448012929645
 10
3991.988525386783
 20
1733.449085954812
 10
3991.988210515934
 20
1733.450128238884
 10
3991.987701033126
 20
1733.451111112026
 10
3991.98701095616
 20
1733.45200752863
 10
3991.986159271444
 20
1733.452792827276
 10
3991.98516941152
 20
1733.453445401278
 10
3991.984068610822
 20
1733.453947294739
 10
3991.982887155958
 20
1733.454284701732
  0
LINE
  5
197C
330
1F
100
AcDbEntity
  8
SANINDUSA
100
AcDbLine
 10
3991.982887155904
 20
1733.454284702042
 30
0.0
 11
3991.982887155904
 21
1733.454289702043
 31
0.0
  0
LINE
  5
197D
330
1F
100
AcDbEntity
  8
SANINDUSA
100
AcDbLine
 10
3991.982887155904
 20
1733.454284702042
 30
0.0
 11
3991.982887155904
 21
1733.452209450977
 31
0.0
  0
LINE
  5
197E
330
1F
100
AcDbEntity
  8
SANINDUSA
100
AcDbLine
 10
3991.979387155904
 20
1733.452209450977
 30
0.0
 11
3991.979387155904
 21
1733.454284702042
 31
0.0
  0
LWPOLYLINE
  5
197F
330
1F
100
AcDbEntity
  8
SANINDUSA
100
AcDbPolyline
 90
       29
 70
   128
 43
0.0
 10
3991.982887155958
 20
1733.452209454265
 10
3991.983824569615
 20
1733.451824102786
 10
3991.98465497035
 20
1733.451285232094
 10
3991.985345290857
 20
1733.450614307312
 10
3991.98586804315
 20
1733.449838031319
 10
3991.986202410771
 20
1733.448987324026
 10
3991.986335079069
 20
1733.448096063224
 10
3991.986260765581
 20
1733.447199728576
 10
3991.985982428654
 20
1733.446334023264
 10
3991.985511152888
 20
1733.445533413676
 10
3991.984865703503
 20
1733.444829780844
 10
3991.984071782906
 20
1733.444251138953
 10
3991.983161005075
 20
1733.443820540098
 10
3991.98216963734
 20
1733.443555128065
 10
3991.981137155904
 20
1733.443465467778
 10
3991.980104674468
 20
1733.443555128065
 10
3991.979113306733
 20
1733.443820540098
 10
3991.978202528902
 20
1733.444251138953
 10
3991.977408608305
 20
1733.444829780844
 10
3991.97676315892
 20
1733.445533413676
 10
3991.976291883155
 20
1733.446334023264
 10
3991.976013546227
 20
1733.447199728576
 10
3991.975939232739
 20
1733.448096063224
 10
3991.976071901037
 20
1733.448987324026
 10
3991.976406268659
 20
1733.449838031319
 10
3991.976929020951
 20
1733.450614307312
 10
3991.977619341458
 20
1733.451285232094
 10
3991.978449742193
 20
1733.451824102786
 10
3991.979387155851
 20
1733.452209454265
  0
LINE
  5
1980
330
1F
100
AcDbEntity
  8
SANINDUSA
100
AcDbLine
 10
3991.979401161545
 20
1733.433624420551
 30
0.0
 11
3991.979401161545
 21
1733.43362941989
 31
0.0
  0
LINE
  5
1981
330
1F
100
AcDbEntity
  8
SANINDUSA
100
AcDbLine
 10
3991.979401161545
 20
1733.433624420551
 30
0.0
 11
3991.97923743003
 21
1733.433624420551
 31
0.0
  0
LINE
  5
1982
330
1F
100
AcDbEntity
  8
SANINDUSA
100
AcDbLine
 10
3991.97923743003
 20
1733.433624420551
 30
0.0
 11
3991.97923743003
 21
1733.43362941989
 31
0.0
  0
LINE
  5
1983
330
1F
100
AcDbEntity
  8
SANINDUSA
100
AcDbLine
 10
3991.97923743003
 20
1733.433405827966
 30
0.0
 11
3991.979401161545
 21
1733.433405827966
 31
0.0
  0
LINE
  5
1984
330
1F
100
AcDbEntity
  8
SANINDUSA
100
AcDbLine
 10
3991.97923743003
 20
1733.433624420551
 30
0.0
 11
3991.97923743003
 21
1733.433405827966
 31
0.0
  0
LINE
  5
1985
330
1F
100
AcDbEntity
  8
SANINDUSA
100
AcDbLine
 10
3991.979401161545
 20
1733.433405827966
 30
0.0
 11
3991.979401161545
 21
1733.433624420551
 31
0.0
  0
LINE
  5
1986
330
1F
100
AcDbEntity
  8
SANINDUSA
100
AcDbLine
 10
3991.98297566839
 20
1733.432011623171
 30
0.0
 11
3991.98297566839
 21
1733.43311636546
 31
0.0
  0
LINE
  5
1987
330
1F
100
AcDbEntity
  8
SANINDUSA
100
AcDbLine
 10
3991.98297566839
 20
1733.43311636546
 30
0.0
 11
3991.98187055266
 21
1733.433116364893
 31
0.0
  0
ARC
  5
1988
330
1F
100
AcDbEntity
  8
SANINDUSA
100
AcDbCircle
 10
3991.981859897912
 20
1733.432956373867
 30
0.0
 40
0.0001603459785121
100
AcDbArc
 50
86.18998154201221
 51
175.5956827131164
  0
LINE
  5
1989
330
1F
100
AcDbEntity
  8
SANINDUSA
100
AcDbLine
 10
3991.981700025465
 20
1733.432968684009
 30
0.0
 11
3991.981700025465
 21
1733.432159306617
 31
0.0
  0
ARC
  5
198A
330
1F
100
AcDbEntity
  8
SANINDUSA
100
AcDbCircle
 10
3991.981859897551
 20
1733.432171613725
 30
0.0
 40
0.000160344966977
100
AcDbArc
 50
184.4013030009809
 51
273.8101717923631
  0
LINE
  5
198B
330
1F
100
AcDbEntity
  8
SANINDUSA
100
AcDbLine
 10
3991.98187055266
 20
1733.432011625733
 30
0.0
 11
3991.98297566839
 21
1733.432011623171
 31
0.0
  0
LINE
  5
198C
330
1F
100
AcDbEntity
  8
SANINDUSA
100
AcDbLine
 10
3991.983139385353
 20
1733.431869831172
 30
0.0
 11
3991.983139385353
 21
1733.433624420551
 31
0.0
  0
LINE
  5
198D
330
1F
100
AcDbEntity
  8
SANINDUSA
100
AcDbLine
 10
3991.981870566062
 20
1733.431869830047
 30
0.0
 11
3991.983139385353
 21
1733.431869831172
 31
0.0
  0
ARC
  5
198E
330
1F
100
AcDbEntity
  8
SANINDUSA
100
AcDbCircle
 10
3991.981849145026
 20
1733.432189593255
 30
0.0
 40
0.00032047878522
100
AcDbArc
 50
184.1685833760455
 51
273.8325535921797
  0
LINE
  5
198F
330
1F
100
AcDbEntity
  8
SANINDUSA
100
AcDbLine
 10
3991.981532990742
 20
1733.432969790798
 30
0.0
 11
3991.981529514064
 21
1733.432166298603
 31
0.0
  0
ARC
  5
1990
330
1F
100
AcDbEntity
  8
SANINDUSA
100
AcDbCircle
 10
3991.98185282752
 20
1733.432943859248
 30
0.0
 40
0.0003208862523761
100
AcDbArc
 50
86.20916022637516
 51
175.3648521639797
  0
LINE
  5
1991
330
1F
100
AcDbEntity
  8
SANINDUSA
100
AcDbLine
 10
3991.98297566839
 20
1733.433264043418
 30
0.0
 11
3991.981874042739
 21
1733.433264045777
 31
0.0
  0
LINE
  5
1992
330
1F
100
AcDbEntity
  8
SANINDUSA
100
AcDbLine
 10
3991.98297566839
 20
1733.433624420551
 30
0.0
 11
3991.98297566839
 21
1733.433264043418
 31
0.0
  0
LINE
  5
1993
330
1F
100
AcDbEntity
  8
SANINDUSA
100
AcDbLine
 10
3991.983139385353
 20
1733.433624420551
 30
0.0
 11
3991.98297566839
 21
1733.433624420551
 31
0.0
  0
LINE
  5
1994
330
1F
100
AcDbEntity
  8
SANINDUSA
100
AcDbLine
 10
3991.98297566839
 20
1733.433624420551
 30
0.0
 11
3991.98297566839
 21
1733.43362941989
 31
0.0
  0
LINE
  5
1995
330
1F
100
AcDbEntity
  8
SANINDUSA
100
AcDbLine
 10
3991.983139385353
 20
1733.433624420551
 30
0.0
 11
3991.983139385353
 21
1733.43362941989
 31
0.0
  0
LINE
  5
1996
330
1F
100
AcDbEntity
  8
SANINDUSA
100
AcDbLine
 10
3991.973957521092
 20
1733.433264045777
 30
0.0
 11
3991.973957521092
 21
1733.433269045777
 31
0.0
  0
ARC
  5
1997
330
1F
100
AcDbEntity
  8
SANINDUSA
100
AcDbCircle
 10
3991.973936199773
 20
1733.432944073995
 30
0.0
 40
0.0003206790249315
100
AcDbArc
 50
86.18767402787101
 51
175.597970876927
  0
LINE
  5
1998
330
1F
100
AcDbEntity
  8
SANINDUSA
100
AcDbLine
 10
3991.9736164667
 20
1733.432968684009
 30
0.0
 11
3991.9736164667
 21
1733.432973684009
 31
0.0
  0
LINE
  5
1999
330
1F
100
AcDbEntity
  8
SANINDUSA
100
AcDbLine
 10
3991.981874042739
 20
1733.433264045777
 30
0.0
 11
3991.981874042739
 21
1733.433269045777
 31
0.0
  0
LINE
  5
199A
330
1F
100
AcDbEntity
  8
SANINDUSA
100
AcDbLine
 10
3991.981532990742
 20
1733.432969790798
 30
0.0
 11
3991.981532990742
 21
1733.432974790798
 31
0.0
  0
LINE
  5
199B
330
1F
100
AcDbEntity
  8
SANINDUSA
100
AcDbLine
 10
3991.975103569566
 20
1733.433264043418
 30
0.0
 11
3991.975103569566
 21
1733.433269042757
 31
0.0
  0
LINE
  5
199C
330
1F
100
AcDbEntity
  8
SANINDUSA
100
AcDbLine
 10
3991.975103569566
 20
1733.433264043418
 30
0.0
 11
3991.973957521092
 21
1733.433264045777
 31
0.0
  0
LINE
  5
199D
330
1F
100
AcDbEntity
  8
SANINDUSA
100
AcDbLine
 10
3991.978630333515
 20
1733.433264045777
 30
0.0
 11
3991.978630333515
 21
1733.433269045777
 31
0.0
  0
LINE
  5
199E
330
1F
100
AcDbEntity
  8
SANINDUSA
100
AcDbLine
 10
3991.978630333515
 20
1733.433264045777
 30
0.0
 11
3991.977361515281
 21
1733.433264043418
 31
0.0
  0
LINE
  5
199F
330
1F
100
AcDbEntity
  8
SANINDUSA
100
AcDbLine
 10
3991.977361515281
 20
1733.433264043418
 30
0.0
 11
3991.977361515281
 21
1733.433269042757
 31
0.0
  0
LINE
  5
19A0
330
1F
100
AcDbEntity
  8
SANINDUSA
100
AcDbLine
 10
3991.979401161545
 20
1733.433264043418
 30
0.0
 11
3991.979401161545
 21
1733.433269042757
 31
0.0
  0
LINE
  5
19A1
330
1F
100
AcDbEntity
  8
SANINDUSA
100
AcDbLine
 10
3991.979401161545
 20
1733.433264043418
 30
0.0
 11
3991.97923743003
 21
1733.433264043418
 31
0.0
  0
LINE
  5
19A2
330
1F
100
AcDbEntity
  8
SANINDUSA
100
AcDbLine
 10
3991.97923743003
 20
1733.433264043418
 30
0.0
 11
3991.97923743003
 21
1733.433269042757
 31
0.0
  0
LINE
  5
19A3
330
1F
100
AcDbEntity
  8
SANINDUSA
100
AcDbLine
 10
3991.980936036445
 20
1733.433264045777
 30
0.0
 11
3991.980936036445
 21
1733.433269045777
 31
0.0
  0
LINE
  5
19A4
330
1F
100
AcDbEntity
  8
SANINDUSA
100
AcDbLine
 10
3991.980936036445
 20
1733.433264045777
 30
0.0
 11
3991.979667189182
 21
1733.433264043418
 31
0.0
  0
LINE
  5
19A5
330
1F
100
AcDbEntity
  8
SANINDUSA
100
AcDbLine
 10
3991.979667189182
 20
1733.433264043418
 30
0.0
 11
3991.979667189182
 21
1733.433269042757
 31
0.0
  0
LINE
  5
19A6
330
1F
100
AcDbEntity
  8
SANINDUSA
100
AcDbLine
 10
3991.976761257705
 20
1733.433264045777
 30
0.0
 11
3991.976761257705
 21
1733.433269045777
 31
0.0
  0
LINE
  5
19A7
330
1F
100
AcDbEntity
  8
SANINDUSA
100
AcDbLine
 10
3991.976761257705
 20
1733.433264045777
 30
0.0
 11
3991.975615179981
 21
1733.433264043418
 31
0.0
  0
LINE
  5
19A8
330
1F
100
AcDbEntity
  8
SANINDUSA
100
AcDbLine
 10
3991.975615179981
 20
1733.433264043418
 30
0.0
 11
3991.975615179981
 21
1733.433269042757
 31
0.0
  0
LINE
  5
19A9
330
1F
100
AcDbEntity
  8
SANINDUSA
100
AcDbLine
 10
3991.973787008355
 20
1733.432868222442
 30
0.0
 11
3991.973787008355
 21
1733.432968684009
 31
0.0
  0
ARC
  5
19AA
330
1F
100
AcDbEntity
  8
SANINDUSA
100
AcDbCircle
 10
3991.973946880456
 20
1733.432880529163
 30
0.0
 40
0.0001603451205313
100
AcDbArc
 50
184.4013504054902
 51
273.8102211718171
  0
LINE
  5
19AB
330
1F
100
AcDbEntity
  8
SANINDUSA
100
AcDbLine
 10
3991.974885299503
 20
1733.432720541558
 30
0.0
 11
3991.97395753555
 21
1733.432720541558
 31
0.0
  0
ARC
  5
19AC
330
1F
100
AcDbEntity
  8
SANINDUSA
100
AcDbCircle
 10
3991.974906620753
 20
1733.432400569064
 30
0.0
 40
0.0003206789746834
100
AcDbArc
 50
4.402025764870482
 51
93.81225188994925
  0
LINE
  5
19AD
330
1F
100
AcDbEntity
  8
SANINDUSA
100
AcDbLine
 10
3991.975226353895
 20
1733.432165191814
 30
0.0
 11
3991.975226353895
 21
1733.43242517979
 31
0.0
  0
ARC
  5
19AE
330
1F
100
AcDbEntity
  8
SANINDUSA
100
AcDbCircle
 10
3991.974906621113
 20
1733.432189799534
 30
0.0
 40
0.0003206779634793
100
AcDbArc
 50
266.1876714428632
 51
355.5994813815757
  0
LINE
  5
19AF
330
1F
100
AcDbEntity
  8
SANINDUSA
100
AcDbLine
 10
3991.97361646674
 20
1733.431869831172
 30
0.0
 11
3991.974885299503
 21
1733.431869830047
 31
0.0
  0
LINE
  5
19B0
330
1F
100
AcDbEntity
  8
SANINDUSA
100
AcDbLine
 10
3991.97361646674
 20
1733.432011623171
 30
0.0
 11
3991.97361646674
 21
1733.431869831172
 31
0.0
  0
LINE
  5
19B1
330
1F
100
AcDbEntity
  8
SANINDUSA
100
AcDbLine
 10
3991.974892124061
 20
1733.432011625733
 30
0.0
 11
3991.97361646674
 21
1733.432011623171
 31
0.0
  0
ARC
  5
19B2
330
1F
100
AcDbEntity
  8
SANINDUSA
100
AcDbCircle
 10
3991.974902779189
 20
1733.43217161387
 30
0.0
 40
0.0001603451205313
100
AcDbArc
 50
266.189778828183
 51
355.5986495945098
  0
LINE
  5
19B3
330
1F
100
AcDbEntity
  8
SANINDUSA
100
AcDbLine
 10
3991.975062651257
 20
1733.432425167269
 30
0.0
 11
3991.975062651257
 21
1733.432159306617
 31
0.0
  0
ARC
  5
19B4
330
1F
100
AcDbEntity
  8
SANINDUSA
100
AcDbCircle
 10
3991.974902790314
 20
1733.432412867133
 30
0.0
 40
0.0001603336612735
100
AcDbArc
 50
4.399954019772851
 51
93.81447851232321
  0
LINE
  5
19B5
330
1F
100
AcDbEntity
  8
SANINDUSA
100
AcDbLine
 10
3991.973957521092
 20
1733.432572848152
 30
0.0
 11
3991.974892124061
 21
1733.432572848152
 31
0.0
  0
ARC
  5
19B6
330
1F
100
AcDbEntity
  8
SANINDUSA
100
AcDbCircle
 10
3991.973936206795
 20
1733.432892822515
 30
0.0
 40
0.0003206860288512
100
AcDbArc
 50
184.4019393598524
 51
273.810985232688
  0
LINE
  5
19B7
330
1F
100
AcDbEntity
  8
SANINDUSA
100
AcDbLine
 10
3991.9736164667
 20
1733.432968684009
 30
0.0
 11
3991.9736164667
 21
1733.43286820992
 31
0.0
  0
LINE
  5
19B8
330
1F
100
AcDbEntity
  8
SANINDUSA
100
AcDbLine
 10
3991.97395753555
 20
1733.433116364893
 30
0.0
 11
3991.975103569566
 21
1733.43311636546
 31
0.0
  0
ARC
  5
19B9
330
1F
100
AcDbEntity
  8
SANINDUSA
100
AcDbCircle
 10
3991.973946880817
 20
1733.432956373723
 30
0.0
 40
0.0001603461320862
100
AcDbArc
 50
86.18993216255825
 51
175.5956353215957
  0
LINE
  5
19BA
330
1F
100
AcDbEntity
  8
SANINDUSA
100
AcDbLine
 10
3991.975103569566
 20
1733.43311636546
 30
0.0
 11
3991.975103569566
 21
1733.433264043418
 31
0.0
  0
LINE
  5
19BB
330
1F
100
AcDbEntity
  8
SANINDUSA
100
AcDbLine
 10
3991.97923743003
 20
1733.431869831172
 30
0.0
 11
3991.979401161545
 21
1733.431869831172
 31
0.0
  0
LINE
  5
19BC
330
1F
100
AcDbEntity
  8
SANINDUSA
100
AcDbLine
 10
3991.979401161545
 20
1733.431869831172
 30
0.0
 11
3991.979401161545
 21
1733.433264043418
 31
0.0
  0
LINE
  5
19BD
330
1F
100
AcDbEntity
  8
SANINDUSA
100
AcDbLine
 10
3991.97923743003
 20
1733.433264043418
 30
0.0
 11
3991.97923743003
 21
1733.431869831172
 31
0.0
  0
LINE
  5
19BE
330
1F
100
AcDbEntity
  8
SANINDUSA
100
AcDbLine
 10
3991.979830920696
 20
1733.43311636546
 30
0.0
 11
3991.980936021985
 21
1733.433116364893
 31
0.0
  0
LINE
  5
19BF
330
1F
100
AcDbEntity
  8
SANINDUSA
100
AcDbLine
 10
3991.979830920696
 20
1733.431869831172
 30
0.0
 11
3991.979830920696
 21
1733.43311636546
 31
0.0
  0
LINE
  5
19C0
330
1F
100
AcDbEntity
  8
SANINDUSA
100
AcDbLine
 10
3991.979667189182
 20
1733.431869831172
 30
0.0
 11
3991.979830920696
 21
1733.431869831172
 31
0.0
  0
ARC
  5
19C1
330
1F
100
AcDbEntity
  8
SANINDUSA
100
AcDbCircle
 10
3991.980957357558
 20
1733.432944073709
 30
0.0
 40
0.0003206792861979
100
AcDbArc
 50
4.402076880288603
 51
93.81225643342759
  0
LINE
  5
19C2
330
1F
100
AcDbEntity
  8
SANINDUSA
100
AcDbLine
 10
3991.981277090832
 20
1733.431869831172
 30
0.0
 11
3991.981277090836
 21
1733.432968684009
 31
0.0
  0
LINE
  5
19C3
330
1F
100
AcDbEntity
  8
SANINDUSA
100
AcDbLine
 10
3991.981106549181
 20
1733.431869831172
 30
0.0
 11
3991.981277090832
 21
1733.431869831172
 31
0.0
  0
LINE
  5
19C4
330
1F
100
AcDbEntity
  8
SANINDUSA
100
AcDbLine
 10
3991.981106549181
 20
1733.432968684009
 30
0.0
 11
3991.981106549181
 21
1733.431869831172
 31
0.0
  0
ARC
  5
19C5
330
1F
100
AcDbEntity
  8
SANINDUSA
100
AcDbCircle
 10
3991.980946676791
 20
1733.432956373962
 30
0.0
 40
0.0001603458894704
100
AcDbArc
 50
4.404285797116074
 51
93.81004992350327
  0
LINE
  5
19C6
330
1F
100
AcDbEntity
  8
SANINDUSA
100
AcDbLine
 10
3991.979667189182
 20
1733.433264043418
 30
0.0
 11
3991.979667189182
 21
1733.431869831172
 31
0.0
  0
LINE
  5
19C7
330
1F
100
AcDbEntity
  8
SANINDUSA
100
AcDbLine
 10
3991.976931770216
 20
1733.432011623171
 30
0.0
 11
3991.976931770216
 21
1733.432572845605
 31
0.0
  0
LINE
  5
19C8
330
1F
100
AcDbEntity
  8
SANINDUSA
100
AcDbLine
 10
3991.976931770216
 20
1733.432572845605
 30
0.0
 11
3991.975826654736
 21
1733.432572848152
 31
0.0
  0
ARC
  5
19C9
330
1F
100
AcDbEntity
  8
SANINDUSA
100
AcDbCircle
 10
3991.975815988568
 20
1733.432412867133
 30
0.0
 40
0.0001603336612735
100
AcDbArc
 50
86.1855214876768
 51
175.6000459802271
  0
LINE
  5
19CA
330
1F
100
AcDbEntity
  8
SANINDUSA
100
AcDbLine
 10
3991.97565612754
 20
1733.432425167269
 30
0.0
 11
3991.97565612754
 21
1733.432159306617
 31
0.0
  0
ARC
  5
19CB
330
1F
100
AcDbEntity
  8
SANINDUSA
100
AcDbCircle
 10
3991.975815999694
 20
1733.43217161387
 30
0.0
 40
0.0001603451205313
100
AcDbArc
 50
184.4013504054902
 51
273.8102211718171
  0
LINE
  5
19CC
330
1F
100
AcDbEntity
  8
SANINDUSA
100
AcDbLine
 10
3991.975826654736
 20
1733.432011625733
 30
0.0
 11
3991.976931770216
 21
1733.432011623171
 31
0.0
  0
ARC
  5
19CD
330
1F
100
AcDbEntity
  8
SANINDUSA
100
AcDbCircle
 10
3991.976782578868
 20
1733.432944073716
 30
0.0
 40
0.0003206792871857
100
AcDbArc
 50
4.402075495442393
 51
93.81227959537437
  0
LINE
  5
19CE
330
1F
100
AcDbEntity
  8
SANINDUSA
100
AcDbLine
 10
3991.977102312143
 20
1733.431869831172
 30
0.0
 11
3991.977102312097
 21
1733.432968684009
 31
0.0
  0
LINE
  5
19CF
330
1F
100
AcDbEntity
  8
SANINDUSA
100
AcDbLine
 10
3991.975833450376
 20
1733.431869830047
 30
0.0
 11
3991.977102312143
 21
1733.431869831172
 31
0.0
  0
ARC
  5
19D0
330
1F
100
AcDbEntity
  8
SANINDUSA
100
AcDbCircle
 10
3991.975812129143
 20
1733.432189800319
 30
0.0
 40
0.0003206787308572
100
AcDbArc
 50
184.4006487949781
 51
273.8122758092868
  0
LINE
  5
19D1
330
1F
100
AcDbEntity
  8
SANINDUSA
100
AcDbLine
 10
3991.975492395985
 20
1733.43242517979
 30
0.0
 11
3991.975492395985
 21
1733.432165191814
 31
0.0
  0
ARC
  5
19D2
330
1F
100
AcDbEntity
  8
SANINDUSA
100
AcDbCircle
 10
3991.975812129503
 20
1733.432400568279
 30
0.0
 40
0.0003206797421105
100
AcDbArc
 50
86.18780085790078
 51
175.597844056576
  0
LINE
  5
19D3
330
1F
100
AcDbEntity
  8
SANINDUSA
100
AcDbLine
 10
3991.976931770216
 20
1733.432720538464
 30
0.0
 11
3991.975833450376
 21
1733.432720541558
 31
0.0
  0
LINE
  5
19D4
330
1F
100
AcDbEntity
  8
SANINDUSA
100
AcDbLine
 10
3991.976931770442
 20
1733.432968684009
 30
0.0
 11
3991.976931770216
 21
1733.432720538464
 31
0.0
  0
ARC
  5
19D5
330
1F
100
AcDbEntity
  8
SANINDUSA
100
AcDbCircle
 10
3991.97677189831
 20
1733.432956374509
 30
0.0
 40
0.0001603453646436
100
AcDbArc
 50
4.404104349275569
 51
93.81017330714444
  0
LINE
  5
19D6
330
1F
100
AcDbEntity
  8
SANINDUSA
100
AcDbLine
 10
3991.975615179981
 20
1733.43311636546
 30
0.0
 11
3991.976761243246
 21
1733.433116364893
 31
0.0
  0
LINE
  5
19D7
330
1F
100
AcDbEntity
  8
SANINDUSA
100
AcDbLine
 10
3991.975615179981
 20
1733.433264043418
 30
0.0
 11
3991.975615179981
 21
1733.43311636546
 31
0.0
  0
LINE
  5
19D8
330
1F
100
AcDbEntity
  8
SANINDUSA
100
AcDbLine
 10
3991.977361515281
 20
1733.431869831172
 30
0.0
 11
3991.977532056742
 21
1733.431869831172
 31
0.0
  0
ARC
  5
19D9
330
1F
100
AcDbEntity
  8
SANINDUSA
100
AcDbCircle
 10
3991.978651654712
 20
1733.432944073867
 30
0.0
 40
0.0003206791309344
100
AcDbArc
 50
4.402050629156509
 51
93.81226575609359
  0
LINE
  5
19DA
330
1F
100
AcDbEntity
  8
SANINDUSA
100
AcDbLine
 10
3991.978971387842
 20
1733.431869831172
 30
0.0
 11
3991.978971387906
 21
1733.432968684009
 31
0.0
  0
LINE
  5
19DB
330
1F
100
AcDbEntity
  8
SANINDUSA
100
AcDbLine
 10
3991.978807670879
 20
1733.431869831172
 30
0.0
 11
3991.978971387842
 21
1733.431869831172
 31
0.0
  0
LINE
  5
19DC
330
1F
100
AcDbEntity
  8
SANINDUSA
100
AcDbLine
 10
3991.97880767081
 20
1733.432968684009
 30
0.0
 11
3991.978807670879
 21
1733.431869831172
 31
0.0
  0
ARC
  5
19DD
330
1F
100
AcDbEntity
  8
SANINDUSA
100
AcDbCircle
 10
3991.978647798288
 20
1733.432956373735
 30
0.0
 40
0.0001603461069822
100
AcDbArc
 50
4.404361333190689
 51
93.80999375526201
  0
LINE
  5
19DE
330
1F
100
AcDbEntity
  8
SANINDUSA
100
AcDbLine
 10
3991.977532056742
 20
1733.43311636546
 30
0.0
 11
3991.978637143614
 21
1733.433116364893
 31
0.0
  0
LINE
  5
19DF
330
1F
100
AcDbEntity
  8
SANINDUSA
100
AcDbLine
 10
3991.977532056742
 20
1733.431869831172
 30
0.0
 11
3991.977532056742
 21
1733.43311636546
 31
0.0
  0
LINE
  5
19E0
330
1F
100
AcDbEntity
  8
SANINDUSA
100
AcDbLine
 10
3991.977361515281
 20
1733.433264043418
 30
0.0
 11
3991.977361515281
 21
1733.431869831172
 31
0.0
  0
LINE
  5
19E1
330
1F
100
AcDbEntity
  8
SANINDUSA
100
AcDbLine
 10
3991.984674867476
 20
1733.432014509167
 30
0.0
 11
3991.983740278966
 21
1733.432011627561
 31
0.0
  0
ARC
  5
19E2
330
1F
100
AcDbEntity
  8
SANINDUSA
100
AcDbCircle
 10
3991.984685002879
 20
1733.432174439142
 30
0.0
 40
0.0001602534228596
100
AcDbArc
 50
266.3738867834435
 51
355.6169606393599
  0
LINE
  5
19E3
330
1F
100
AcDbEntity
  8
SANINDUSA
100
AcDbLine
 10
3991.984844787629
 20
1733.433264043418
 30
0.0
 11
3991.984844787552
 21
1733.432162189115
 31
0.0
  0
LINE
  5
19E4
330
1F
100
AcDbEntity
  8
SANINDUSA
100
AcDbLine
 10
3991.985015329323
 20
1733.433264043418
 30
0.0
 11
3991.984844787629
 21
1733.433264043418
 31
0.0
  0
LINE
  5
19E5
330
1F
100
AcDbEntity
  8
SANINDUSA
100
AcDbLine
 10
3991.985015329208
 20
1733.432165191814
 30
0.0
 11
3991.985015329323
 21
1733.433264043418
 31
0.0
  0
ARC
  5
19E6
330
1F
100
AcDbEntity
  8
SANINDUSA
100
AcDbCircle
 10
3991.984695596109
 20
1733.432189800181
 30
0.0
 40
0.0003206786006941
100
AcDbArc
 50
266.1877011596199
 51
355.5993742258432
  0
LINE
  5
19E7
330
1F
100
AcDbEntity
  8
SANINDUSA
100
AcDbLine
 10
3991.983746481945
 20
1733.431869830047
 30
0.0
 11
3991.984674274815
 21
1733.431869830047
 31
0.0
  0
ARC
  5
19E8
330
1F
100
AcDbEntity
  8
SANINDUSA
100
AcDbCircle
 10
3991.983725160426
 20
1733.432189799685
 30
0.0
 40
0.0003206781197241
100
AcDbArc
 50
184.4005434827105
 51
273.8123423972837
  0
LINE
  5
19E9
330
1F
100
AcDbEntity
  8
SANINDUSA
100
AcDbLine
 10
3991.983405427658
 20
1733.433264043418
 30
0.0
 11
3991.983405427554
 21
1733.432165191814
 31
0.0
  0
LINE
  5
19EA
330
1F
100
AcDbEntity
  8
SANINDUSA
100
AcDbLine
 10
3991.98356914462
 20
1733.433264043418
 30
0.0
 11
3991.983405427658
 21
1733.433264043418
 31
0.0
  0
LINE
  5
19EB
330
1F
100
AcDbEntity
  8
SANINDUSA
100
AcDbLine
 10
3991.98356914465
 20
1733.432159307509
 30
0.0
 11
3991.98356914462
 21
1733.433264043418
 31
0.0
  0
ARC
  5
19EC
330
1F
100
AcDbEntity
  8
SANINDUSA
100
AcDbCircle
 10
3991.983729095086
 20
1733.432171667551
 30
0.0
 40
0.0001604272288692
100
AcDbArc
 50
184.4183223061288
 51
273.9974740358503
  0
LINE
  5
19ED
330
1F
100
AcDbEntity
  8
SANINDUSA
100
AcDbLine
 10
3991.985274532228
 20
1733.431869831172
 30
0.0
 11
3991.986540508648
 21
1733.431869830047
 31
0.0
  0
LINE
  5
19EE
330
1F
100
AcDbEntity
  8
SANINDUSA
100
AcDbLine
 10
3991.985274532228
 20
1733.432011623171
 30
0.0
 11
3991.985274532228
 21
1733.431869831172
 31
0.0
  0
LINE
  5
19EF
330
1F
100
AcDbEntity
  8
SANINDUSA
100
AcDbLine
 10
3991.986550189641
 20
1733.432011625733
 30
0.0
 11
3991.985274532228
 21
1733.432011623171
 31
0.0
  0
ARC
  5
19F0
330
1F
100
AcDbEntity
  8
SANINDUSA
100
AcDbCircle
 10
3991.986560844676
 20
1733.43217161387
 30
0.0
 40
0.0001603451205313
100
AcDbArc
 50
266.189778828183
 51
355.5986495945098
  0
LINE
  5
19F1
330
1F
100
AcDbEntity
  8
SANINDUSA
100
AcDbLine
 10
3991.986720716837
 20
1733.432425167269
 30
0.0
 11
3991.986720716837
 21
1733.432159306617
 31
0.0
  0
ARC
  5
19F2
330
1F
100
AcDbEntity
  8
SANINDUSA
100
AcDbCircle
 10
3991.986560855801
 20
1733.432412867133
 30
0.0
 40
0.0001603336612735
100
AcDbArc
 50
4.399954019772851
 51
93.81447851232321
  0
LINE
  5
19F3
330
1F
100
AcDbEntity
  8
SANINDUSA
100
AcDbLine
 10
3991.985615586672
 20
1733.432572848152
 30
0.0
 11
3991.986550189641
 21
1733.432572848152
 31
0.0
  0
ARC
  5
19F4
330
1F
100
AcDbEntity
  8
SANINDUSA
100
AcDbCircle
 10
3991.985594272524
 20
1733.432892822794
 30
0.0
 40
0.0003206862910994
100
AcDbArc
 50
184.401985743211
 51
273.8109388567993
  0
LINE
  5
19F5
330
1F
100
AcDbEntity
  8
SANINDUSA
100
AcDbLine
 10
3991.98527453228
 20
1733.432968684009
 30
0.0
 11
3991.98527453228
 21
1733.43286820992
 31
0.0
  0
ARC
  5
19F6
330
1F
100
AcDbEntity
  8
SANINDUSA
100
AcDbCircle
 10
3991.985594265502
 20
1733.432944073716
 30
0.0
 40
0.0003206792871857
100
AcDbArc
 50
86.18772040462564
 51
175.5979245045576
  0
LINE
  5
19F7
330
1F
100
AcDbEntity
  8
SANINDUSA
100
AcDbLine
 10
3991.986761664389
 20
1733.433264043418
 30
0.0
 11
3991.985615586672
 21
1733.433264045777
 31
0.0
  0
LINE
  5
19F8
330
1F
100
AcDbEntity
  8
SANINDUSA
100
AcDbLine
 10
3991.986761664389
 20
1733.43311636546
 30
0.0
 11
3991.986761664389
 21
1733.433264043418
 31
0.0
  0
LINE
  5
19F9
330
1F
100
AcDbEntity
  8
SANINDUSA
100
AcDbLine
 10
3991.98561560113
 20
1733.433116364893
 30
0.0
 11
3991.986761664389
 21
1733.43311636546
 31
0.0
  0
ARC
  5
19FA
330
1F
100
AcDbEntity
  8
SANINDUSA
100
AcDbCircle
 10
3991.98560494606
 20
1733.432956374509
 30
0.0
 40
0.0001603453646436
100
AcDbArc
 50
86.18982669285555
 51
175.5958956507244
  0
LINE
  5
19FB
330
1F
100
AcDbEntity
  8
SANINDUSA
100
AcDbLine
 10
3991.985445073935
 20
1733.432868222442
 30
0.0
 11
3991.985445073935
 21
1733.432968684009
 31
0.0
  0
ARC
  5
19FC
330
1F
100
AcDbEntity
  8
SANINDUSA
100
AcDbCircle
 10
3991.985604945699
 20
1733.432880528377
 30
0.0
 40
0.0001603443531872
100
AcDbArc
 50
184.4010900763615
 51
273.8103266415198
  0
LINE
  5
19FD
330
1F
100
AcDbEntity
  8
SANINDUSA
100
AcDbLine
 10
3991.986543315555
 20
1733.432720541558
 30
0.0
 11
3991.98561560113
 21
1733.432720541558
 31
0.0
  0
ARC
  5
19FE
330
1F
100
AcDbEntity
  8
SANINDUSA
100
AcDbCircle
 10
3991.986564903411
 20
1733.432401105384
 30
0.0
 40
0.000320161736855
100
AcDbArc
 50
3.816972798687594
 51
93.86630907043139
  0
LINE
  5
19FF
330
1F
100
AcDbEntity
  8
SANINDUSA
100
AcDbLine
 10
3991.986881548133
 20
1733.432162430342
 30
0.0
 11
3991.986884355041
 21
1733.432422418317
 31
0.0
  0
ARC
  5
1A00
330
1F
100
AcDbEntity
  8
SANINDUSA
100
AcDbCircle
 10
3991.986561559821
 20
1733.432190343931
 30
0.0
 40
0.0003212033218095
100
AcDbArc
 50
266.2422573766849
 51
355.0145316696013
  0
LINE
  5
1A01
330
1F
100
AcDbEntity
  8
SANINDUSA
100
AcDbLine
 10
3991.978971387906
 20
1733.432968684009
 30
0.0
 11
3991.978971387906
 21
1733.432973684009
 31
0.0
  0
LINE
  5
1A02
330
1F
100
AcDbEntity
  8
SANINDUSA
100
AcDbLine
 10
3991.985615586672
 20
1733.433264045777
 30
0.0
 11
3991.985615586672
 21
1733.433269045777
 31
0.0
  0
LINE
  5
1A03
330
1F
100
AcDbEntity
  8
SANINDUSA
100
AcDbLine
 10
3991.98527453228
 20
1733.432968684009
 30
0.0
 11
3991.98527453228
 21
1733.432973684009
 31
0.0
  0
LINE
  5
1A04
330
1F
100
AcDbEntity
  8
SANINDUSA
100
AcDbLine
 10
3991.986761664389
 20
1733.433264043418
 30
0.0
 11
3991.986761664389
 21
1733.433269042757
 31
0.0
  0
LINE
  5
1A05
330
1F
100
AcDbEntity
  8
SANINDUSA
100
AcDbLine
 10
3991.987321017678
 20
1733.432425167269
 30
0.0
 11
3991.987321017678
 21
1733.432159306617
 31
0.0
  0
ARC
  5
1A06
330
1F
100
AcDbEntity
  8
SANINDUSA
100
AcDbCircle
 10
3991.987480889864
 20
1733.432171613847
 30
0.0
 40
0.0001603450703239
100
AcDbArc
 50
184.4013437020743
 51
273.8100730074576
  0
LINE
  5
1A07
330
1F
100
AcDbEntity
  8
SANINDUSA
100
AcDbLine
 10
3991.987491544874
 20
1733.432011625733
 30
0.0
 11
3991.988589836168
 21
1733.432011623171
 31
0.0
  0
LINE
  5
1A08
330
1F
100
AcDbEntity
  8
SANINDUSA
100
AcDbLine
 10
3991.988589836168
 20
1733.432011623171
 30
0.0
 11
3991.988589836168
 21
1733.432572845605
 31
0.0
  0
LINE
  5
1A09
330
1F
100
AcDbEntity
  8
SANINDUSA
100
AcDbLine
 10
3991.988589836168
 20
1733.432572845605
 30
0.0
 11
3991.987491544874
 21
1733.432572848152
 31
0.0
  0
ARC
  5
1A0A
330
1F
100
AcDbEntity
  8
SANINDUSA
100
AcDbCircle
 10
3991.987480878739
 20
1733.432412867156
 30
0.0
 40
0.000160333610986
100
AcDbArc
 50
86.18566962690534
 51
175.6000526946331
  0
ARC
  5
1A0B
330
1F
100
AcDbEntity
  8
SANINDUSA
100
AcDbCircle
 10
3991.987470223256
 20
1733.432189799534
 30
0.0
 40
0.0003206779634793
100
AcDbArc
 50
184.4005186184243
 51
273.8123285571368
  0
LINE
  5
1A0C
330
1F
100
AcDbEntity
  8
SANINDUSA
100
AcDbLine
 10
3991.987150490483
 20
1733.43242517979
 30
0.0
 11
3991.987150490483
 21
1733.432165191814
 31
0.0
  0
ARC
  5
1A0D
330
1F
100
AcDbEntity
  8
SANINDUSA
100
AcDbCircle
 10
3991.987470223617
 20
1733.432400569064
 30
0.0
 40
0.0003206789746834
100
AcDbArc
 50
86.18774811005074
 51
175.5979742351295
  0
LINE
  5
1A0E
330
1F
100
AcDbEntity
  8
SANINDUSA
100
AcDbLine
 10
3991.988589836168
 20
1733.432720538464
 30
0.0
 11
3991.987491544874
 21
1733.432720541558
 31
0.0
  0
LINE
  5
1A0F
330
1F
100
AcDbEntity
  8
SANINDUSA
100
AcDbLine
 10
3991.988589836023
 20
1733.432968684009
 30
0.0
 11
3991.988589836168
 21
1733.432720538464
 31
0.0
  0
ARC
  5
1A10
330
1F
100
AcDbEntity
  8
SANINDUSA
100
AcDbCircle
 10
3991.988429963553
 20
1733.432956373723
 30
0.0
 40
0.0001603461320862
100
AcDbArc
 50
4.404364678404279
 51
93.81006783744176
  0
LINE
  5
1A11
330
1F
100
AcDbEntity
  8
SANINDUSA
100
AcDbLine
 10
3991.987273274804
 20
1733.43311636546
 30
0.0
 11
3991.988419308827
 21
1733.433116364893
 31
0.0
  0
LINE
  5
1A12
330
1F
100
AcDbEntity
  8
SANINDUSA
100
AcDbLine
 10
3991.988419323286
 20
1733.433264045777
 30
0.0
 11
3991.987273274804
 21
1733.433264043418
 31
0.0
  0
ARC
  5
1A13
330
1F
100
AcDbEntity
  8
SANINDUSA
100
AcDbCircle
 10
3991.988440644597
 20
1733.432944073995
 30
0.0
 40
0.0003206790249314
100
AcDbArc
 50
4.402029123073039
 51
93.812325972129
  0
LINE
  5
1A14
330
1F
100
AcDbEntity
  8
SANINDUSA
100
AcDbLine
 10
3991.98876037763
 20
1733.431869831172
 30
0.0
 11
3991.988760377677
 21
1733.432968684009
 31
0.0
  0
LINE
  5
1A15
330
1F
100
AcDbEntity
  8
SANINDUSA
100
AcDbLine
 10
3991.987491544874
 20
1733.431869830047
 30
0.0
 11
3991.98876037763
 21
1733.431869831172
 31
0.0
  0
LINE
  5
1A16
330
1F
100
AcDbEntity
  8
SANINDUSA
100
AcDbLine
 10
3991.987273274804
 20
1733.433264043418
 30
0.0
 11
3991.987273274804
 21
1733.43311636546
 31
0.0
  0
LINE
  5
1A17
330
1F
100
AcDbEntity
  8
SANINDUSA
100
AcDbLine
 10
3991.977102312097
 20
1733.432968684009
 30
0.0
 11
3991.977102312097
 21
1733.432973684009
 31
0.0
  0
LINE
  5
1A18
330
1F
100
AcDbEntity
  8
SANINDUSA
100
AcDbLine
 10
3991.981277090836
 20
1733.432968684009
 30
0.0
 11
3991.981277090836
 21
1733.432973684009
 31
0.0
  0
LINE
  5
1A19
330
1F
100
AcDbEntity
  8
SANINDUSA
100
AcDbLine
 10
3991.988419323286
 20
1733.433264045777
 30
0.0
 11
3991.988419323286
 21
1733.433269045777
 31
0.0
  0
LINE
  5
1A1A
330
1F
100
AcDbEntity
  8
SANINDUSA
100
AcDbLine
 10
3991.987273274804
 20
1733.433264043418
 30
0.0
 11
3991.987273274804
 21
1733.433269042757
 31
0.0
  0
LINE
  5
1A1B
330
1F
100
AcDbEntity
  8
SANINDUSA
100
AcDbLine
 10
3991.985015329323
 20
1733.433264043418
 30
0.0
 11
3991.985015329323
 21
1733.433269042757
 31
0.0
  0
LINE
  5
1A1C
330
1F
100
AcDbEntity
  8
SANINDUSA
100
AcDbLine
 10
3991.984844787629
 20
1733.433264043418
 30
0.0
 11
3991.984844787629
 21
1733.433269042757
 31
0.0
  0
LINE
  5
1A1D
330
1F
100
AcDbEntity
  8
SANINDUSA
100
AcDbLine
 10
3991.983405427658
 20
1733.433264043418
 30
0.0
 11
3991.983405427658
 21
1733.433269042757
 31
0.0
  0
LINE
  5
1A1E
330
1F
100
AcDbEntity
  8
SANINDUSA
100
AcDbLine
 10
3991.98356914462
 20
1733.433264043418
 30
0.0
 11
3991.98356914462
 21
1733.433269042757
 31
0.0
  0
LINE
  5
1A1F
330
1F
100
AcDbEntity
  8
SANINDUSA
100
AcDbLine
 10
3991.988760377677
 20
1733.432968684009
 30
0.0
 11
3991.988760377677
 21
1733.432973684009
 31
0.0
  0
LINE
  5
1A20
330
1F
100
AcDbEntity
  8
SANINDUSA
100
AcDbLine
 10
3991.98187055266
 20
1733.432016625734
 30
0.0
 11
3991.98297566839
 21
1733.432016622511
 31
0.0
  0
ARC
  5
1A21
330
1F
100
AcDbEntity
  8
SANINDUSA
100
AcDbCircle
 10
3991.981859900504
 20
1733.432176616475
 30
0.0
 40
0.0001603481731352
100
AcDbArc
 50
184.4024368633981
 51
273.8090379219989
  0
LINE
  5
1A22
330
1F
100
AcDbEntity
  8
SANINDUSA
100
AcDbLine
 10
3991.981529514064
 20
1733.432166298603
 30
0.0
 11
3991.981529514072
 21
1733.432171296564
 31
0.0
  0
LINE
  5
1A23
330
1F
100
AcDbEntity
  8
SANINDUSA
100
AcDbLine
 10
3991.97395753555
 20
1733.432720541558
 30
0.0
 11
3991.97395753555
 21
1733.432725541558
 31
0.0
  0
LINE
  5
1A24
330
1F
100
AcDbEntity
  8
SANINDUSA
100
AcDbLine
 10
3991.98561560113
 20
1733.432720541558
 30
0.0
 11
3991.98561560113
 21
1733.432725541558
 31
0.0
  0
LINE
  5
1A25
330
1F
100
AcDbEntity
  8
SANINDUSA
100
AcDbLine
 10
3991.975833450376
 20
1733.432720541558
 30
0.0
 11
3991.975833450376
 21
1733.432725541558
 31
0.0
  0
LINE
  5
1A26
330
1F
100
AcDbEntity
  8
SANINDUSA
100
AcDbLine
 10
3991.986543315555
 20
1733.432720541558
 30
0.0
 11
3991.986543315555
 21
1733.432725541558
 31
0.0
  0
LINE
  5
1A27
330
1F
100
AcDbEntity
  8
SANINDUSA
100
AcDbLine
 10
3991.974885299503
 20
1733.432720541558
 30
0.0
 11
3991.974885299503
 21
1733.432725541558
 31
0.0
  0
LINE
  5
1A28
330
1F
100
AcDbEntity
  8
SANINDUSA
100
AcDbLine
 10
3991.975492395985
 20
1733.43242517979
 30
0.0
 11
3991.975492395985
 21
1733.43243017979
 31
0.0
  0
LINE
  5
1A29
330
1F
100
AcDbEntity
  8
SANINDUSA
100
AcDbLine
 10
3991.987491544874
 20
1733.432720541558
 30
0.0
 11
3991.987491544874
 21
1733.432725541558
 31
0.0
  0
LINE
  5
1A2A
330
1F
100
AcDbEntity
  8
SANINDUSA
100
AcDbLine
 10
3991.987150490483
 20
1733.43242517979
 30
0.0
 11
3991.987150490483
 21
1733.43243017979
 31
0.0
  0
LINE
  5
1A2B
330
1F
100
AcDbEntity
  8
SANINDUSA
100
AcDbLine
 10
3991.975226353895
 20
1733.43242517979
 30
0.0
 11
3991.975226353895
 21
1733.43243017979
 31
0.0
  0
LINE
  5
1A2C
330
1F
100
AcDbEntity
  8
SANINDUSA
100
AcDbLine
 10
3991.975826654736
 20
1733.432016625734
 30
0.0
 11
3991.976931770216
 21
1733.432016622511
 31
0.0
  0
ARC
  5
1A2D
330
1F
100
AcDbEntity
  8
SANINDUSA
100
AcDbCircle
 10
3991.975816002648
 20
1733.432176616619
 30
0.0
 40
0.000160348326712
100
AcDbArc
 50
184.4024842679076
 51
273.8090873014528
  0
LINE
  5
1A2E
330
1F
100
AcDbEntity
  8
SANINDUSA
100
AcDbLine
 10
3991.987491544874
 20
1733.432016625734
 30
0.0
 11
3991.988589836168
 21
1733.432016622511
 31
0.0
  0
ARC
  5
1A2F
330
1F
100
AcDbEntity
  8
SANINDUSA
100
AcDbCircle
 10
3991.987480892817
 20
1733.432176616596
 30
0.0
 40
0.0001603482765138
100
AcDbArc
 50
184.4024775644916
 51
273.8089391630911
  0
LINE
  5
1A30
330
1F
100
AcDbEntity
  8
SANINDUSA
100
AcDbLine
 10
3991.984674867476
 20
1733.432014509167
 30
0.0
 11
3991.984674867476
 21
1733.432019509168
 31
0.0
  0
LINE
  5
1A31
330
1F
100
AcDbEntity
  8
SANINDUSA
100
AcDbLine
 10
3991.983740278966
 20
1733.432011627561
 30
0.0
 11
3991.983740278966
 21
1733.432016627561
 31
0.0
  0
LINE
  5
1A32
330
1F
100
AcDbEntity
  8
SANINDUSA
100
AcDbLine
 10
3991.986550189641
 20
1733.432011625733
 30
0.0
 11
3991.986550189641
 21
1733.432016625734
 31
0.0
  0
LINE
  5
1A33
330
1F
100
AcDbEntity
  8
SANINDUSA
100
AcDbLine
 10
3991.974892124061
 20
1733.432011625733
 30
0.0
 11
3991.974892124061
 21
1733.432016625734
 31
0.0
  0
LINE
  5
1A34
330
1F
100
AcDbEntity
  8
SANINDUSA
100
AcDbLine
 10
3991.975826654736
 20
1733.432011625733
 30
0.0
 11
3991.975826654736
 21
1733.432016625734
 31
0.0
  0
LINE
  5
1A35
330
1F
100
AcDbEntity
  8
SANINDUSA
100
AcDbLine
 10
3991.98187055266
 20
1733.432011625733
 30
0.0
 11
3991.98187055266
 21
1733.432016625734
 31
0.0
  0
LINE
  5
1A36
330
1F
100
AcDbEntity
  8
SANINDUSA
100
AcDbLine
 10
3991.987491544874
 20
1733.432011625733
 30
0.0
 11
3991.987491544874
 21
1733.432016625734
 31
0.0
  0
LINE
  5
1A37
330
1F
100
AcDbEntity
  8
SANINDUSA
100
AcDbLine
 10
3991.97361646674
 20
1733.432011623171
 30
0.0
 11
3991.97361646674
 21
1733.432016622511
 31
0.0
  0
LINE
  5
1A38
330
1F
100
AcDbEntity
  8
SANINDUSA
100
AcDbLine
 10
3991.985274532228
 20
1733.432011623171
 30
0.0
 11
3991.985274532228
 21
1733.432016622511
 31
0.0
  0
LWPOLYLINE
  5
1A39
330
1F
100
AcDbEntity
  8
SANINDUSA
100
AcDbPolyline
 90
       20
 70
   128
 43
0.0
 10
3991.972016645013
 20
1733.408186640826
 10
3991.973249613656
 20
1733.407391440359
 10
3991.974606973002
 20
1733.406717341629
 10
3991.976067317533
 20
1733.406174984065
 10
3991.97760761634
 20
1733.405772920933
 10
3991.979203578085
 20
1733.405517500129
 10
3991.980830033659
 20
1733.405412737516
 10
3991.982461332693
 20
1733.405460287121
 10
3991.98407174868
 20
1733.405659403888
 10
3991.985635884455
 20
1733.40600694367
 10
3991.987129072542
 20
1733.406497430292
 10
3991.98852776445
 20
1733.40712313005
 10
3991.989809901803
 20
1733.407874170926
 10
3991.990955265588
 20
1733.408738699046
 10
3991.991945791407
 20
1733.409703102198
 10
3991.992765858187
 20
1733.410752151397
 10
3991.993402533582
 20
1733.411869313804
 10
3991.993845777004
 20
1733.413036961344
 10
3991.994088597945
 20
1733.414236691085
 10
3991.994137156172
 20
1733.415070917693
  0
ARC
  5
1A3A
330
1F
100
AcDbEntity
  8
SANINDUSA
100
AcDbCircle
 10
3991.976854336853
 20
1733.415448061012
 30
0.0
 40
0.0087253358364898
100
AcDbArc
 50
182.4773206551942
 51
236.3277166888485
  0
ELLIPSE
  5
1A3B
330
1F
100
AcDbEntity
  8
SANINDUSA
100
AcDbEllipse
 10
3991.981137155904
 20
1733.515664398417
 30
0.0
 11
0.0
 21
0.027712812921102
 31
0.0000000000000002
210
0.0
220
-0.0000000000000072
230
0.9999999999999998
 40
0.8660254037844406
 41
0.0
 42
1.570796326794895
  0
ELLIPSE
  5
1A3C
330
1F
100
AcDbEntity
  8
SANINDUSA
100
AcDbEllipse
 10
3991.981137155904
 20
1733.515664398417
 30
0.0
 11
0.0
 21
0.027712812921102
 31
0.0000000000000002
210
0.0
220
-0.0000000000000072
230
0.9999999999999998
 40
0.8660254037844406
 41
4.712388980384702
 42
6.283185307179586
  0
LWPOLYLINE
  5
1A3D
330
1F
100
AcDbEntity
  8
SANINDUSA
100
AcDbPolyline
 90
       19
 70
   128
 43
0.0
 10
3991.981137155904
 20
1733.471258409557
 10
3991.978954719263
 20
1733.471172295746
 10
3991.976790367044
 20
1733.470914665845
 10
3991.974662033259
 20
1733.47048765817
 10
3991.97258735483
 20
1733.469894811747
 10
3991.970583523041
 20
1733.469141032782
 10
3991.968667141511
 20
1733.468232572314
 10
3991.96685409022
 20
1733.467176959154
 10
3991.965159393265
 20
1733.465982936558
 10
3991.963597092195
 20
1733.464660398898
 10
3991.962180135189
 20
1733.463220309702
 10
3991.960920260637
 20
1733.46167459735
 10
3991.959827910527
 20
1733.460036073116
 10
3991.958912135451
 20
1733.458318311957
 10
3991.958180523827
 20
1733.456535548208
 10
3991.957639138563
 20
1733.454702552643
 10
3991.957292463048
 20
1733.452834520725
 10
3991.957143375067
 20
1733.450946923581
 10
3991.957137155696
 20
1733.450473796812
  0
LWPOLYLINE
  5
1A3E
330
1F
100
AcDbEntity
  8
SANINDUSA
100
AcDbPolyline
 90
       19
 70
   128
 43
0.0
 10
3992.005137156113
 20
1733.450473796812
 10
3992.00513093674
 20
1733.450946923581
 10
3992.00498184876
 20
1733.452834520725
 10
3992.004635173245
 20
1733.454702552643
 10
3992.004093787982
 20
1733.456535548208
 10
3992.003362176357
 20
1733.458318311957
 10
3992.002446401282
 20
1733.460036073116
 10
3992.001354051171
 20
1733.46167459735
 10
3992.000094176619
 20
1733.463220309702
 10
3991.998677219613
 20
1733.464660398898
 10
3991.997114918543
 20
1733.465982936558
 10
3991.995420221588
 20
1733.467176959154
 10
3991.993607170297
 20
1733.468232572314
 10
3991.991690788767
 20
1733.469141032782
 10
3991.989686956978
 20
1733.469894811747
 10
3991.987612278549
 20
1733.47048765817
 10
3991.985483944765
 20
1733.470914665845
 10
3991.983319592545
 20
1733.471172295746
 10
3991.981137155904
 20
1733.471258409557
  0
LWPOLYLINE
  5
1A3F
330
1F
100
AcDbEntity
  8
SANINDUSA
100
AcDbPolyline
 90
       20
 70
   128
 43
0.0
 10
3991.981137155904
 20
1733.471783410993
 10
3991.980591726431
 20
1733.471824418989
 10
3991.980107799172
 20
1733.471944511173
 10
3991.979739116388
 20
1733.472134940562
 10
3991.979527750635
 20
1733.472379748014
 10
3991.979498036787
 20
1733.472654469547
 10
3991.979652471957
 20
1733.472928535429
 10
3991.979973706999
 20
1733.47316896939
 10
3991.980426675116
 20
1733.473343901572
 10
3991.980959998822
 20
1733.473428074506
 10
3991.981512283994
 20
1733.473409265515
 10
3991.982021804841
 20
1733.4732906858
 10
3991.982432555058
 20
1733.473089099166
 10
3991.982697932864
 20
1733.472832028058
 10
3991.982787114917
 20
1733.472553417322
 10
3991.982690625474
 20
1733.472286779669
 10
3991.982419807114
 20
1733.472059738127
 10
3991.98200413835
 20
1733.471892908451
 10
3991.981490141217
 20
1733.471800260481
 10
3991.981137155904
 20
1733.471783410993
  0
ARC
  5
1A40
330
1F
100
AcDbEntity
  8
SANINDUSA
100
AcDbCircle
 10
3992.207605301913
 20
1733.54327337207
 30
0.0
 40
0.0002
100
AcDbArc
 50
149.9999999972802
 51
239.9999999972802
  0
ARC
  5
1A41
330
1F
100
AcDbEntity
  8
SANINDUSA
100
AcDbCircle
 10
3992.251128111133
 20
1733.523457088927
 30
0.0
 40
0.0002000000000001
100
AcDbArc
 50
329.9999999972802
 51
59.99999999728022
  0
ARC
  5
1A42
330
1F
100
AcDbEntity
  8
SANINDUSA
100
AcDbCircle
 10
3992.209905301912
 20
1733.547257088927
 30
0.0
 40
0.0002
100
AcDbArc
 50
59.99999999728022
 51
149.9999999972802
  0
LINE
  5
1A43
330
1F
100
AcDbEntity
  8
SANINDUSA
100
AcDbLine
 10
3992.24889054841
 20
1733.519206383413
 30
0.0
 11
3992.251301316213
 21
1733.523357088927
 31
0.0
  0
LINE
  5
1A44
330
1F
100
AcDbEntity
  8
SANINDUSA
100
AcDbLine
 10
3992.209732096832
 20
1733.547357088927
 30
0.0
 11
3992.207432096832
 21
1733.54337337207
 31
0.0
  0
LINE
  5
1A45
330
1F
100
AcDbEntity
  8
SANINDUSA
100
AcDbLine
 10
3992.210443314615
 20
1733.547188954262
 30
0.0
 11
3992.210438314291
 21
1733.547180299795
 31
0.0
  0
LINE
  5
1A46
330
1F
100
AcDbEntity
  8
SANINDUSA
100
AcDbLine
 10
3992.237111899468
 20
1733.531780292428
 30
0.0
 11
3992.237116897051
 21
1733.531788954262
 31
0.0
  0
LINE
  5
1A47
330
1F
100
AcDbEntity
  8
SANINDUSA
100
AcDbLine
 10
3992.27318046805
 20
1733.461917024116
 30
0.0
 11
3992.238235819551
 21
1733.500726987756
 31
0.0
  0
LINE
  5
1A48
330
1F
100
AcDbEntity
  8
SANINDUSA
100
AcDbLine
 10
3992.224566813024
 20
1733.477051568365
 30
0.0
 11
3992.253858702588
 21
1733.444519628351
 31
0.0
  0
LINE
  5
1A49
330
1F
100
AcDbEntity
  8
SANINDUSA
100
AcDbLine
 10
3992.238235819551
 20
1733.500726987756
 30
0.0
 11
3992.248901316214
 21
1733.519200166989
 31
0.0
  0
LINE
  5
1A4A
330
1F
100
AcDbEntity
  8
SANINDUSA
100
AcDbLine
 10
3992.190638919758
 20
1733.418286737668
 30
0.0
 11
3992.224566813024
 21
1733.477051568365
 31
0.0
  0
LINE
  5
1A4B
330
1F
100
AcDbEntity
  8
SANINDUSA
100
AcDbLine
 10
3992.205167266938
 20
1733.539450575745
 30
0.0
 11
3992.135213294464
 21
1733.418286737668
 31
0.0
  0
LINE
  5
1A4C
330
1F
100
AcDbEntity
  8
SANINDUSA
100
AcDbLine
 10
3992.207332096832
 20
1733.543200166989
 30
0.0
 11
3992.206807095023
 21
1733.542290841377
 31
0.0
  0
LWPOLYLINE
  5
1A4D
330
1F
100
AcDbEntity
  8
SANINDUSA
100
AcDbPolyline
 90
        6
 70
   128
 43
0.0
 10
3992.205982095959
 20
1733.540861894525
 10
3992.206272895845
 20
1733.541365583575
 10
3992.206524419996
 20
1733.541801233924
 10
3992.206702704939
 20
1733.542110030687
 10
3992.206783662947
 20
1733.542250250614
 10
3992.206807095023
 20
1733.542290841377
  0
LWPOLYLINE
  5
1A4E
330
1F
100
AcDbEntity
  8
SANINDUSA
100
AcDbPolyline
 90
        6
 70
   128
 43
0.0
 10
3992.205177097979
 20
1733.539467592872
 10
3992.205180528971
 20
1733.539473538435
 10
3992.205261490705
 20
1733.539613773263
 10
3992.205439771923
 20
1733.539922570026
 10
3992.205691296073
 20
1733.540358220375
 10
3992.205982095959
 20
1733.540861894525
  0
LWPOLYLINE
  5
1A4F
330
1F
100
AcDbEntity
  8
SANINDUSA
100
AcDbPolyline
 90
       35
 70
   128
 43
0.0
 10
3992.210005301448
 20
1733.547430296576
 10
3992.210093225749
 20
1733.54737952832
 10
3992.210356249871
 20
1733.547227670587
 10
3992.210792127462
 20
1733.546976019776
 10
3992.211397144409
 20
1733.546626706755
 10
3992.212166133734
 20
1733.546182741559
 10
3992.213092538925
 20
1733.545647879279
 10
3992.214168451192
 20
1733.545026694572
 10
3992.215384695145
 20
1733.544324507153
 10
3992.216730892124
 20
1733.543547277487
 10
3992.218195560786
 20
1733.54270165149
 10
3992.219766199055
 20
1733.541794841326
 10
3992.221429414513
 20
1733.540834580696
 10
3992.223171006354
 20
1733.53982906524
 10
3992.224976125571
 20
1733.538786885477
 10
3992.226829368087
 20
1733.537716915047
 10
3992.228714923771
 20
1733.536628288365
 10
3992.230616706821
 20
1733.535530296302
 10
3992.23251848987
 20
1733.53443230424
 10
3992.234404045554
 20
1733.533343677557
 10
3992.236257288071
 20
1733.532273707128
 10
3992.238062407287
 20
1733.531231519914
 10
3992.239804002853
 20
1733.530226004458
 10
3992.241467210862
 20
1733.529265751279
 10
3992.243037852856
 20
1733.528358941114
 10
3992.244502517792
 20
1733.527513315118
 10
3992.245848718496
 20
1733.526736085451
 10
3992.247064966174
 20
1733.526033890581
 10
3992.248140874716
 20
1733.525412713325
 10
3992.249067279907
 20
1733.524877851046
 10
3992.249836269232
 20
1733.524433870948
 10
3992.250441286179
 20
1733.524084565378
 10
3992.250877160045
 20
1733.523832914567
 10
3992.251140187891
 20
1733.523681056834
 10
3992.251228112193
 20
1733.523630296028
  0
LINE
  5
1A50
330
1F
100
AcDbEntity
  8
SANINDUSA
100
AcDbLine
 10
3992.220847253952
 20
1733.541182237085
 30
0.0
 11
3992.220842252883
 21
1733.541173582113
 31
0.0
  0
LWPOLYLINE
  5
1A51
330
1F
100
AcDbEntity
  8
SANINDUSA
100
AcDbPolyline
 90
        9
 70
   128
 43
0.0
 10
3992.220847252222
 20
1733.541182239688
 10
3992.221016205313
 20
1733.541084696687
 10
3992.221178668948
 20
1733.540990893877
 10
3992.221328392091
 20
1733.540904452241
 10
3992.221459626617
 20
1733.540828679836
 10
3992.221567328485
 20
1733.54076649729
 10
3992.221647358897
 20
1733.540720303691
 10
3992.221696640762
 20
1733.540691842473
 10
3992.221713277908
 20
1733.540682231224
  0
LINE
  5
1A52
330
1F
100
AcDbEntity
  8
SANINDUSA
100
AcDbLine
 10
3992.221713279356
 20
1733.540682237085
 30
0.0
 11
3992.221708278569
 21
1733.540673573649
 31
0.0
  0
LINE
  5
1A53
330
1F
100
AcDbEntity
  8
SANINDUSA
100
AcDbLine
 10
3992.21769920786
 20
1733.542999762344
 30
0.0
 11
3992.217694207492
 21
1733.542991106546
 31
0.0
  0
LINE
  5
1A54
330
1F
100
AcDbEntity
  8
SANINDUSA
100
AcDbLine
 10
3992.21769920786
 20
1733.542999762344
 30
0.0
 11
3992.220847253952
 21
1733.541182237085
 31
0.0
  0
LINE
  5
1A55
330
1F
100
AcDbEntity
  8
SANINDUSA
100
AcDbLine
 10
3992.215573594311
 20
1733.544226985898
 30
0.0
 11
3992.2155685941
 21
1733.544218321479
 31
0.0
  0
LWPOLYLINE
  5
1A56
330
1F
100
AcDbEntity
  8
SANINDUSA
100
AcDbPolyline
 90
        9
 70
   128
 43
0.0
 10
3992.21557359344
 20
1733.544226979053
 10
3992.215833719285
 20
1733.544076805151
 10
3992.21609606913
 20
1733.543925334847
 10
3992.216360330047
 20
1733.543772761858
 10
3992.21662618539
 20
1733.543619279897
 10
3992.216893318506
 20
1733.543465037978
 10
3992.217161412748
 20
1733.543310259617
 10
3992.217430151465
 20
1733.543155108726
 10
3992.217699206832
 20
1733.542999764121
  0
LINE
  5
1A57
330
1F
100
AcDbEntity
  8
SANINDUSA
100
AcDbLine
 10
3992.211790410378
 20
1733.54641120816
 30
0.0
 11
3992.211785409065
 21
1733.546402548588
 31
0.0
  0
LINE
  5
1A58
330
1F
100
AcDbEntity
  8
SANINDUSA
100
AcDbLine
 10
3992.211790410378
 20
1733.54641120816
 30
0.0
 11
3992.215573594311
 21
1733.544226985898
 31
0.0
  0
LWPOLYLINE
  5
1A59
330
1F
100
AcDbEntity
  8
SANINDUSA
100
AcDbPolyline
 90
        9
 70
   128
 43
0.0
 10
3992.210443313631
 20
1733.54718895737
 10
3992.210450708332
 20
1733.547184680736
 10
3992.210501100334
 20
1733.54715559367
 10
3992.210599064293
 20
1733.547099028862
 10
3992.21074436179
 20
1733.547015150225
 10
3992.210936657551
 20
1733.546904121674
 10
3992.211175489636
 20
1733.546766226328
 10
3992.211460299256
 20
1733.546601792014
 10
3992.21179041213
 20
1733.546411206162
  0
LINE
  5
1A5A
330
1F
100
AcDbEntity
  8
SANINDUSA
100
AcDbLine
 10
3992.245621822007
 20
1733.526878633549
 30
0.0
 11
3992.245616819175
 21
1733.526869972384
 31
0.0
  0
LINE
  5
1A5B
330
1F
100
AcDbEntity
  8
SANINDUSA
100
AcDbLine
 10
3992.245722296097
 20
1733.526820624806
 30
0.0
 11
3992.245717297706
 21
1733.526811962164
 31
0.0
  0
LINE
  5
1A5C
330
1F
100
AcDbEntity
  8
SANINDUSA
100
AcDbLine
 10
3992.245621822007
 20
1733.526878633549
 30
0.0
 11
3992.245722296097
 21
1733.526820624806
 31
0.0
  0
LINE
  5
1A5D
330
1F
100
AcDbEntity
  8
SANINDUSA
100
AcDbLine
 10
3992.245326460241
 20
1733.527049160745
 30
0.0
 11
3992.245321463259
 21
1733.527040501273
 31
0.0
  0
LWPOLYLINE
  5
1A5E
330
1F
100
AcDbEntity
  8
SANINDUSA
100
AcDbPolyline
 90
        9
 70
   128
 43
0.0
 10
3992.245326462599
 20
1733.527049158848
 10
3992.245332132491
 20
1733.527045880592
 10
3992.245348941001
 20
1733.527036179936
 10
3992.245376239928
 20
1733.527020421959
 10
3992.245412971291
 20
1733.526999217606
 10
3992.245457726928
 20
1733.526973371542
 10
3992.245508793207
 20
1733.526943889594
 10
3992.245564203175
 20
1733.526911904252
 10
3992.245621818515
 20
1733.526878629959
  0
LINE
  5
1A5F
330
1F
100
AcDbEntity
  8
SANINDUSA
100
AcDbLine
 10
3992.246017657865
 20
1733.52665009761
 30
0.0
 11
3992.246012661072
 21
1733.526641440725
 31
0.0
  0
LWPOLYLINE
  5
1A60
330
1F
100
AcDbEntity
  8
SANINDUSA
100
AcDbPolyline
 90
        9
 70
   128
 43
0.0
 10
3992.245722297045
 20
1733.526820627189
 10
3992.245779919835
 20
1733.526787352896
 10
3992.245835329804
 20
1733.526755367554
 10
3992.245886388632
 20
1733.526725885606
 10
3992.24593115172
 20
1733.526700046993
 10
3992.245967883082
 20
1733.52667883519
 10
3992.24599517456
 20
1733.526663077212
 10
3992.246011983069
 20
1733.526653376556
 10
3992.246017660411
 20
1733.526650098301
  0
LINE
  5
1A61
330
1F
100
AcDbEntity
  8
SANINDUSA
100
AcDbLine
 10
3992.246578880283
 20
1733.526326075696
 30
0.0
 11
3992.246573883506
 21
1733.526317414975
 31
0.0
  0
LINE
  5
1A62
330
1F
100
AcDbEntity
  8
SANINDUSA
100
AcDbLine
 10
3992.246720674845
 20
1733.526244213021
 30
0.0
 11
3992.246715675506
 21
1733.526235547996
 31
0.0
  0
LINE
  5
1A63
330
1F
100
AcDbEntity
  8
SANINDUSA
100
AcDbLine
 10
3992.246578880283
 20
1733.526326075696
 30
0.0
 11
3992.246720674845
 21
1733.526244213021
 31
0.0
  0
LINE
  5
1A64
330
1F
100
AcDbEntity
  8
SANINDUSA
100
AcDbLine
 10
3992.224305803975
 20
1733.539185442299
 30
0.0
 11
3992.224300804945
 21
1733.53917678181
 31
0.0
  0
LWPOLYLINE
  5
1A65
330
1F
100
AcDbEntity
  8
SANINDUSA
100
AcDbPolyline
 90
       19
 70
   128
 43
0.0
 10
3992.224305804285
 20
1733.539185439384
 10
3992.224643211278
 20
1733.538990643955
 10
3992.225145104738
 20
1733.538700875974
 10
3992.225797678742
 20
1733.538324107564
 10
3992.226582977386
 20
1733.537870717383
 10
3992.227479393991
 20
1733.537353170252
 10
3992.228462267133
 20
1733.536785711682
 10
3992.229504551204
 20
1733.536183943188
 10
3992.230577576371
 20
1733.535564434863
 10
3992.231651815983
 20
1733.534944218731
 10
3992.232697706135
 20
1733.534340371526
 10
3992.233686487587
 20
1733.53376950059
 10
3992.234590943369
 20
1733.533247311747
 10
3992.235386188539
 20
1733.532788177169
 10
3992.236050355645
 20
1733.532404725588
 10
3992.236565153512
 20
1733.532107499576
 10
3992.236916433486
 20
1733.531904694772
 10
3992.237094517263
 20
1733.53180187676
 10
3992.237116898807
 20
1733.531788957453
  0
LINE
  5
1A66
330
1F
100
AcDbEntity
  8
SANINDUSA
100
AcDbLine
 10
3992.222538765939
 20
1733.540205642184
 30
0.0
 11
3992.222533765647
 21
1733.54019697491
 31
0.0
  0
LWPOLYLINE
  5
1A67
330
1F
100
AcDbEntity
  8
SANINDUSA
100
AcDbPolyline
 90
        9
 70
   128
 43
0.0
 10
3992.221713277908
 20
1733.540682231224
 10
3992.221841692391
 20
1733.540608097947
 10
3992.222004152301
 20
1733.540514295137
 10
3992.222153879168
 20
1733.540427853501
 10
3992.222285113694
 20
1733.540352095998
 10
3992.222392815563
 20
1733.540289913452
 10
3992.222472842249
 20
1733.540243704951
 10
3992.222522124114
 20
1733.540215243733
 10
3992.222538764985
 20
1733.540205647386
  0
LINE
  5
1A68
330
1F
100
AcDbEntity
  8
SANINDUSA
100
AcDbLine
 10
3992.2464311994
 20
1733.526411339294
 30
0.0
 11
3992.246426198097
 21
1733.52640267942
 31
0.0
  0
LWPOLYLINE
  5
1A69
330
1F
100
AcDbEntity
  8
SANINDUSA
100
AcDbPolyline
 90
        9
 70
   128
 43
0.0
 10
3992.246431197436
 20
1733.526411336995
 10
3992.246460008832
 20
1733.526394707299
 10
3992.246487717542
 20
1733.526378710902
 10
3992.24651324323
 20
1733.526363966203
 10
3992.246535624775
 20
1733.526351046896
 10
3992.246553990456
 20
1733.52634044472
 10
3992.246567639919
 20
1733.526332569456
 10
3992.246576044175
 20
1733.526327711678
 10
3992.246578882845
 20
1733.52632607255
  0
LINE
  5
1A6A
330
1F
100
AcDbEntity
  8
SANINDUSA
100
AcDbLine
 10
3992.246165338748
 20
1733.526564834012
 30
0.0
 11
3992.24616033903
 21
1733.526556176281
 31
0.0
  0
LWPOLYLINE
  5
1A6B
330
1F
100
AcDbEntity
  8
SANINDUSA
100
AcDbPolyline
 90
        9
 70
   128
 43
0.0
 10
3992.246017660411
 20
1733.526650098301
 10
3992.246020499083
 20
1733.526648459173
 10
3992.246028895887
 20
1733.526643608845
 10
3992.246042545351
 20
1733.52663572613
 10
3992.246060911032
 20
1733.526625123954
 10
3992.246083292576
 20
1733.526612204648
 10
3992.246108825716
 20
1733.526597459948
 10
3992.246136526974
 20
1733.526581471003
 10
3992.246165338369
 20
1733.526564833856
  0
LINE
  5
1A6C
330
1F
100
AcDbEntity
  8
SANINDUSA
100
AcDbLine
 10
3992.246165338748
 20
1733.526564834012
 30
0.0
 11
3992.2464311994
 21
1733.526411339294
 31
0.0
  0
LINE
  5
1A6D
330
1F
100
AcDbEntity
  8
SANINDUSA
100
AcDbLine
 10
3992.223380003478
 20
1733.539719953464
 30
0.0
 11
3992.223375003251
 21
1733.539711286462
 31
0.0
  0
LWPOLYLINE
  5
1A6E
330
1F
100
AcDbEntity
  8
SANINDUSA
100
AcDbPolyline
 90
        9
 70
   128
 43
0.0
 10
3992.222538764985
 20
1733.540205647386
 10
3992.222682929995
 20
1733.540122409499
 10
3992.222845389905
 20
1733.540028606689
 10
3992.222995116772
 20
1733.539942165053
 10
3992.223126347574
 20
1733.539866392648
 10
3992.223234053167
 20
1733.539804225004
 10
3992.223314079853
 20
1733.539758016503
 10
3992.223363365443
 20
1733.539729555285
 10
3992.22338000259
 20
1733.539719958938
  0
LINE
  5
1A6F
330
1F
100
AcDbEntity
  8
SANINDUSA
100
AcDbLine
 10
3992.244966085466
 20
1733.527257223762
 30
0.0
 11
3992.244961086127
 21
1733.527248566187
 31
0.0
  0
LINE
  5
1A70
330
1F
100
AcDbEntity
  8
SANINDUSA
100
AcDbLine
 10
3992.245184678051
 20
1733.527131018377
 30
0.0
 11
3992.245179678711
 21
1733.527122360802
 31
0.0
  0
LINE
  5
1A71
330
1F
100
AcDbEntity
  8
SANINDUSA
100
AcDbLine
 10
3992.244966085466
 20
1733.527257223762
 30
0.0
 11
3992.245184678051
 21
1733.527131018377
 31
0.0
  0
LINE
  5
1A72
330
1F
100
AcDbEntity
  8
SANINDUSA
100
AcDbLine
 10
3992.223380003478
 20
1733.539719953464
 30
0.0
 11
3992.224305803975
 21
1733.539185442299
 31
0.0
  0
LINE
  5
1A73
330
1F
100
AcDbEntity
  8
SANINDUSA
100
AcDbLine
 10
3992.245184678051
 20
1733.527131018377
 30
0.0
 11
3992.245326460241
 21
1733.527049160745
 31
0.0
  0
LINE
  5
1A74
330
1F
100
AcDbEntity
  8
SANINDUSA
100
AcDbLine
 10
3992.135213294464
 20
1733.418286737668
 30
0.0
 11
3992.190638919758
 21
1733.418286737668
 31
0.0
  0
LWPOLYLINE
  5
1A75
330
1F
100
AcDbEntity
  8
SANINDUSA
100
AcDbPolyline
 90
       36
 70
   128
 43
0.0
 10
3992.20733209646
 20
1733.543200169838
 10
3992.20741821027
 20
1733.543150444663
 10
3992.207675840172
 20
1733.543001701272
 10
3992.208102847847
 20
1733.542755176461
 10
3992.20869569427
 20
1733.542412896788
 10
3992.209449473234
 20
1733.541977693475
 10
3992.210357933703
 20
1733.541453202403
 10
3992.211413546863
 20
1733.54084374491
 10
3992.212607569459
 20
1733.54015437249
 10
3992.213930107119
 20
1733.539390807188
 10
3992.215370196315
 20
1733.538559367097
 10
3992.216915908667
 20
1733.537666951454
 10
3992.218554432901
 20
1733.536720943785
 10
3992.22027219406
 20
1733.535729197002
 10
3992.222054957809
 20
1733.534699921644
 10
3992.223887953373
 20
1733.533641641176
 10
3992.225755985293
 20
1733.532563132382
 10
3992.227643582436
 20
1733.531473328507
 10
3992.229535098585
 20
1733.530381259656
 10
3992.231414857718
 20
1733.529295978284
 10
3992.233267295571
 20
1733.528226477242
 10
3992.235077049049
 20
1733.52718161527
 10
3992.236829127583
 20
1733.526170049942
 10
3992.23850900999
 20
1733.525200170612
 10
3992.240102778586
 20
1733.524280001557
 10
3992.241597230943
 20
1733.523417179621
 10
3992.242979976746
 20
1733.52261884991
 10
3992.244239564451
 20
1733.52189162854
 10
3992.245365548344
 20
1733.521241543031
 10
3992.246348607751
 20
1733.520673972702
 10
3992.247180584284
 20
1733.520193633771
 10
3992.247854593607
 20
1733.519804489947
 10
3992.248365055235
 20
1733.519509774781
 10
3992.248707729789
 20
1733.519311932063
 10
3992.248879778596
 20
1733.519212600923
 10
3992.248901318225
 20
1733.519200165904
  0
LWPOLYLINE
  5
1A76
330
1F
100
AcDbEntity
  8
SANINDUSA
100
AcDbPolyline
 90
       22
 70
   128
 43
0.0
 10
3992.22457048616
 20
1733.477085274792
 10
3992.22456778905
 20
1733.477060583568
 10
3992.224590967806
 20
1733.477271427548
 10
3992.224647547516
 20
1733.47776487205
 10
3992.224737081143
 20
1733.478491534627
 10
3992.224865834625
 20
1733.479439829624
 10
3992.225129845949
 20
1733.481114511526
 10
3992.225514281006
 20
1733.483103570676
 10
3992.226037140401
 20
1733.485258584059
 10
3992.226757127258
 20
1733.487578657604
 10
3992.227549794527
 20
1733.489586231447
 10
3992.228560123058
 20
1733.49161562059
 10
3992.229740667554
 20
1733.493495528734
 10
3992.231134060236
 20
1733.495265749431
 10
3992.232352446231
 20
1733.496539523042
 10
3992.233607027145
 20
1733.497658413983
 10
3992.234791848274
 20
1733.498578150905
 10
3992.235888156506
 20
1733.499335591829
 10
3992.236872884842
 20
1733.499953140652
 10
3992.237632836612
 20
1733.500395153797
 10
3992.238078813466
 20
1733.50064208839
 10
3992.238235819551
 20
1733.500726987756
  0
LINE
  5
1A7E
330
1F
100
AcDbEntity
  8
SANINDUSA
100
AcDbLine
 10
3992.253858702588
 20
1733.444519628351
 30
0.0
 11
3992.27318046805
 21
1733.461917024116
 31
0.0
  0
ENDSEC
  0
SECTION
  2
OBJECTS
  0
DICTIONARY
  5
C
330
0
100
AcDbDictionary
281
     1
  3
ACAD_2007HEADERVARS_RT
350
1B40
  3
ACAD_COLOR
350
EE6
  3
ACAD_GROUP
350
D
  3
ACAD_LAYOUT
350
1A
  3
ACAD_MATERIAL
350
EE5
  3
ACAD_MLEADERSTYLE
350
10A5
  3
ACAD_MLINESTYLE
350
17
  3
ACAD_PLOTSETTINGS
350
19
  3
ACAD_PLOTSTYLENAME
350
E
  3
ACAD_SCALELIST
350
1093
  3
ACAD_TABLESTYLE
350
EE7
  3
ACAD_VISUALSTYLE
350
1082
  3
ACDB_RECOMPOSE_DATA
350
1B3E
  3
ACDBHEADERROUNDTRIPXREC
350
1B5F
  3
AcDbVariableDictionary
350
3D
  3
AEC_PROPERTY_SET_DEFS
350
15BC
  3
ASE_INDEX_DICTIONARY
350
1066
  3
DWGPROPS
350
1B5E
  0
DICTIONARY
  5
1B42
330
8
100
AcDbDictionary
280
     1
281
     1
  3
ACAD_XREC_ROUNDTRIP
360
1B43
  0
DICTIONARY
  5
1051
330
2
100
AcDbDictionary
280
     1
281
     1
  3
ACAD_LAYERFILTERS
360
1065
  3
ACAD_LAYERSTATES
360
10ED
  3
ACLYDICTIONARY
360
1064
  0
DICTIONARY
  5
1AFC
330
10
100
AcDbDictionary
280
     1
281
     1
  3
ADSK_XREC_LAYER_RECONCILED
360
1AFD
  0
DICTIONARY
  5
1AFE
330
2F
100
AcDbDictionary
280
     1
281
     1
  3
ADSK_XREC_LAYER_RECONCILED
360
1AFF
  0
DICTIONARY
  5
1B00
330
30
100
AcDbDictionary
280
     1
281
     1
  3
ADSK_XREC_LAYER_RECONCILED
360
1B01
  0
DICTIONARY
  5
1B02
330
31
100
AcDbDictionary
280
     1
281
     1
  3
ADSK_XREC_LAYER_RECONCILED
360
1B03
  0
DICTIONARY
  5
1B04
330
32
100
AcDbDictionary
280
     1
281
     1
  3
ADSK_XREC_LAYER_RECONCILED
360
1B05
  0
DICTIONARY
  5
1B06
330
33
100
AcDbDictionary
280
     1
281
     1
  3
ADSK_XREC_LAYER_RECONCILED
360
1B07
  0
DICTIONARY
  5
1B08
330
34
100
AcDbDictionary
280
     1
281
     1
  3
ADSK_XREC_LAYER_RECONCILED
360
1B09
  0
DICTIONARY
  5
1B0A
330
35
100
AcDbDictionary
280
     1
281
     1
  3
ADSK_XREC_LAYER_RECONCILED
360
1B0B
  0
DICTIONARY
  5
1B0C
330
36
100
AcDbDictionary
280
     1
281
     1
  3
ADSK_XREC_LAYER_RECONCILED
360
1B0D
  0
DICTIONARY
  5
1B0E
330
37
100
AcDbDictionary
280
     1
281
     1
  3
ADSK_XREC_LAYER_RECONCILED
360
1B0F
  0
DICTIONARY
  5
1B10
330
5D6
100
AcDbDictionary
280
     1
281
     1
  3
ADSK_XREC_LAYER_RECONCILED
360
1B11
  0
DICTIONARY
  5
1B12
330
8AF
100
AcDbDictionary
280
     1
281
     1
  3
ADSK_XREC_LAYER_RECONCILED
360
1B13
  0
DICTIONARY
  5
1B14
330
8F8
100
AcDbDictionary
280
     1
281
     1
  3
ADSK_XREC_LAYER_RECONCILED
360
1B15
  0
DICTIONARY
  5
1B16
330
91D
100
AcDbDictionary
280
     1
281
     1
  3
ADSK_XREC_LAYER_RECONCILED
360
1B17
  0
DICTIONARY
  5
1B18
330
C7B
100
AcDbDictionary
280
     1
281
     1
  3
ADSK_XREC_LAYER_RECONCILED
360
1B19
  0
DICTIONARY
  5
1B1A
330
1060
100
AcDbDictionary
280
     1
281
     1
  3
ADSK_XREC_LAYER_RECONCILED
360
1B1B
  0
DICTIONARY
  5
1B3A
330
1F
100
AcDbDictionary
280
     1
281
     1
  3
ACAD_SORTENTS
360
1B3B
  0
DICTIONARY
  5
1B40
102
{ACAD_REACTORS
330
C
102
}
330
C
100
AcDbDictionary
281
     1
  3
DIMJOGANG
350
1B41
  0
DICTIONARY
  5
EE6
102
{ACAD_REACTORS
330
C
102
}
330
C
100
AcDbDictionary
281
     1
  0
DICTIONARY
  5
D
102
{ACAD_REACTORS
330
C
102
}
330
C
100
AcDbDictionary
281
     1
  0
DICTIONARY
  5
1A
102
{ACAD_REACTORS
330
C
102
}
330
C
100
AcDbDictionary
281
     1
  3
Layout1
350
1E
  3
Layout2
350
26
  3
Model
350
22
  0
DICTIONARY
  5
EE5
102
{ACAD_REACTORS
330
C
102
}
330
C
100
AcDbDictionary
281
     1
  3
ByBlock
350
1072
  3
ByLayer
350
106A
  3
Global
350
107A
  0
DICTIONARY
  5
10A5
102
{ACAD_REACTORS
330
C
102
}
330
C
100
AcDbDictionary
281
     1
  3
Standard
350
10A6
  0
DICTIONARY
  5
17
102
{ACAD_REACTORS
330
C
102
}
330
C
100
AcDbDictionary
281
     1
  3
Standard
350
18
  0
DICTIONARY
  5
19
102
{ACAD_REACTORS
330
C
102
}
330
C
100
AcDbDictionary
281
     1
  0
ACDBDICTIONARYWDFLT
  5
E
102
{ACAD_REACTORS
330
C
102
}
330
C
100
AcDbDictionary
281
     1
  3
Normal
350
F
100
AcDbDictionaryWithDefault
340
F
  0
DICTIONARY
  5
1093
102
{ACAD_REACTORS
330
C
102
}
330
C
100
AcDbDictionary
281
     1
  3
A0
350
1094
  3
A1
350
1095
  3
A2
350
1096
  3
A3
350
1097
  3
A4
350
1098
  3
A5
350
1099
  3
A6
350
109A
  3
A7
350
109B
  3
A8
350
109C
  3
A9
350
109D
  3
B0
350
109E
  3
B1
350
109F
  3
B2
350
10A0
  3
B3
350
10A1
  3
B4
350
10A2
  3
B5
350
10A3
  3
B6
350
10A4
  0
DICTIONARY
  5
EE7
102
{ACAD_REACTORS
330
C
102
}
330
C
100
AcDbDictionary
281
     1
  3
Standard
350
EE8
  0
DICTIONARY
  5
1082
102
{ACAD_REACTORS
330
C
102
}
330
C
100
AcDbDictionary
281
     1
  3
2dWireframe
350
1088
  3
3D Hidden
350
108A
  3
3dWireframe
350
1089
  3
Basic
350
1087
  3
Brighten
350
108E
  3
ColorChange
350
1092
  3
Conceptual
350
108B
  3
Dim
350
108D
  3
Facepattern
350
1091
  3
Flat
350
1083
  3
FlatWithEdges
350
1084
  3
Gouraud
350
1085
  3
GouraudWithEdges
350
1086
  3
Linepattern
350
1090
  3
Realistic
350
108C
  3
Thicken
350
108F
  0
XRECORD
  5
1B3E
102
{ACAD_REACTORS
330
C
102
}
330
C
100
AcDbXrecord
280
     1
 90
        1
330
EE8
  0
DICTIONARY
  5
1B5F
102
{ACAD_REACTORS
330
C
102
}
330
C
100
AcDbDictionary
281
     1
  0
DICTIONARY
  5
3D
102
{ACAD_REACTORS
330
C
102
}
330
C
100
AcDbDictionary
281
     1
  3
CANNOSCALE
350
1B4F
  3
CMLEADERSTYLE
350
1B4E
  3
CTABLESTYLE
350
1049
  3
DIMASSOC
350
3F
  3
HIDETEXT
350
3E
  3
INDEXCTL
350
1B51
  3
PROJECTNAME
350
1B5C
  3
SORTENTS
350
1B50
  0
DICTIONARY
  5
15BC
102
{ACAD_REACTORS
330
C
102
}
330
C
100
AcDbDictionary
281
     1
  0
DICTIONARY
  5
1066
102
{ACAD_REACTORS
330
C
102
}
330
C
100
AcDbDictionary
281
     1
  3
ASEBlockHierarchyIndexRecord
350
1067
1001
DCO15
1040
1602247867.484
  0
XRECORD
  5
1B5E
102
{ACAD_REACTORS
330
C
102
}
330
C
100
AcDbXrecord
280
     1
  1
DWGPROPS COOKIE
  2

  3

  4

  6

  7

  8
Julio
  9

300
=
301
=
302
=
303
=
304
=
305
=
306
=
307
=
308
=
309
=
 40
0.003015462962963
 41
2454783.65409794
 42
2454925.734737049
  1

 90
        0
  0
XRECORD
  5
1B43
102
{ACAD_REACTORS
330
1B42
102
}
330
1B42
100
AcDbXrecord
280
     1
102
VTR_0.000_0.000_1.000_1.000_VISUALSTYLE
340
1088
102
VTR_0.000_0.000_1.000_1.000_GRIDDISPLAY
 70
     3
102
VTR_0.000_0.000_1.000_1.000_GRIDMAJOR
 70
     5
102
VTR_0.000_0.000_1.000_1.000_DEFAULTLIGHTING
280
     1
102
VTR_0.000_0.000_1.000_1.000_DEFAULTLIGHTINGTYPE
 70
     1
102
VTR_0.000_0.000_1.000_1.000_BRIGHTNESS
141
0.0
102
VTR_0.000_0.000_1.000_1.000_CONTRAST
142
0.0
  0
DICTIONARY
  5
1065
102
{ACAD_REACTORS
330
1051
102
}
330
1051
100
AcDbDictionary
281
     1
  0
DICTIONARY
  5
10ED
102
{ACAD_REACTORS
330
1051
102
}
330
1051
100
AcDbDictionary
281
     1
  0
DICTIONARY
  5
1064
102
{ACAD_REACTORS
330
1051
102
}
330
1051
100
AcDbDictionary
281
     1
1001
ACAD
1000
<All
  0
XRECORD
  5
1AFD
102
{ACAD_REACTORS
330
1AFC
102
}
330
1AFC
100
AcDbXrecord
280
     1
290
     1
  0
XRECORD
  5
1AFF
102
{ACAD_REACTORS
330
1AFE
102
}
330
1AFE
100
AcDbXrecord
280
     1
290
     1
  0
XRECORD
  5
1B01
102
{ACAD_REACTORS
330
1B00
102
}
330
1B00
100
AcDbXrecord
280
     1
290
     1
  0
XRECORD
  5
1B03
102
{ACAD_REACTORS
330
1B02
102
}
330
1B02
100
AcDbXrecord
280
     1
290
     1
  0
XRECORD
  5
1B05
102
{ACAD_REACTORS
330
1B04
102
}
330
1B04
100
AcDbXrecord
280
     1
290
     1
  0
XRECORD
  5
1B07
102
{ACAD_REACTORS
330
1B06
102
}
330
1B06
100
AcDbXrecord
280
     1
290
     1
  0
XRECORD
  5
1B09
102
{ACAD_REACTORS
330
1B08
102
}
330
1B08
100
AcDbXrecord
280
     1
290
     1
  0
XRECORD
  5
1B0B
102
{ACAD_REACTORS
330
1B0A
102
}
330
1B0A
100
AcDbXrecord
280
     1
290
     1
  0
XRECORD
  5
1B0D
102
{ACAD_REACTORS
330
1B0C
102
}
330
1B0C
100
AcDbXrecord
280
     1
290
     1
  0
XRECORD
  5
1B0F
102
{ACAD_REACTORS
330
1B0E
102
}
330
1B0E
100
AcDbXrecord
280
     1
290
     1
  0
XRECORD
  5
1B11
102
{ACAD_REACTORS
330
1B10
102
}
330
1B10
100
AcDbXrecord
280
     1
290
     1
  0
XRECORD
  5
1B13
102
{ACAD_REACTORS
330
1B12
102
}
330
1B12
100
AcDbXrecord
280
     1
290
     1
  0
XRECORD
  5
1B15
102
{ACAD_REACTORS
330
1B14
102
}
330
1B14
100
AcDbXrecord
280
     1
290
     1
  0
XRECORD
  5
1B17
102
{ACAD_REACTORS
330
1B16
102
}
330
1B16
100
AcDbXrecord
280
     1
290
     1
  0
XRECORD
  5
1B19
102
{ACAD_REACTORS
330
1B18
102
}
330
1B18
100
AcDbXrecord
280
     1
290
     1
  0
XRECORD
  5
1B1B
102
{ACAD_REACTORS
330
1B1A
102
}
330
1B1A
100
AcDbXrecord
280
     1
290
     1
  0
SORTENTSTABLE
  5
1B3B
102
{ACAD_REACTORS
330
1B3A
102
}
330
1B3A
100
AcDbSortentsTable
330
1F
331
19F8
  5
19F9
331
19B9
  5
19BA
331
1A76
  5
1A77
331
19C1
  5
19C2
331
1A00
  5
1A01
331
1A37
  5
1A38
331
1A3F
  5
1A40
331
1A7E
  5
1B39
331
19C9
  5
19CA
331
1A08
  5
1A09
331
1A10
  5
1A11
331
1A47
  5
1A48
331
19D1
  5
19D2
331
1A4F
  5
1A50
331
15DC
  5
15DC
331
15E4
  5
15E4
331
1703
  5
1704
331
168D
  5
168E
331
16CC
  5
16CD
331
1980
  5
1981
331
1617
  5
1618
331
15EC
  5
15EC
331
1656
  5
1657
331
1912
  5
1913
331
170B
  5
170C
331
1949
  5
194A
331
165E
  5
165F
331
1695
  5
1696
331
15F4
  5
15F4
331
161F
  5
1620
331
16D4
  5
16D5
331
1988
  5
1989
331
1990
  5
1991
331
191A
  5
191B
331
1713
  5
1714
331
1951
  5
1952
331
1666
  5
1667
331
169D
  5
169E
331
1627
  5
1628
331
16DC
  5
16DD
331
1998
  5
1999
331
1922
  5
1923
331
16E4
  5
16E5
331
171B
  5
171C
331
162F
  5
1630
331
166E
  5
166F
331
16A5
  5
16A6
331
1959
  5
195A
331
1A18
  5
1A19
331
19D9
  5
19DA
331
19E1
  5
19E2
331
1A20
  5
1A21
331
1A57
  5
1A58
331
1A5F
  5
1A60
331
19E9
  5
19EA
331
1A28
  5
1A29
331
1A67
  5
1A68
331
19F1
  5
19F2
331
1A6F
  5
1A70
331
15FC
  5
15FC
331
1604
  5
1604
331
15C5
  5
15C5
331
1961
  5
1962
331
19A0
  5
19A1
331
192A
  5
192B
331
16AD
  5
16AE
331
16EC
  5
16ED
331
1723
  5
1724
331
1637
  5
1638
331
15CD
  5
15CD
331
160C
  5
160C
331
1676
  5
1677
331
1932
  5
1933
331
16F4
  5
16F5
331
172B
  5
172C
331
167E
  5
167F
331
16B5
  5
16B6
331
1969
  5
196A
331
15D5
  5
15D5
331
163F
  5
1640
331
19A8
  5
19A9
331
193A
  5
193B
331
16FC
  5
16FD
331
1733
  5
1734
331
1686
  5
1687
331
16BD
  5
16BE
331
1971
  5
1972
331
1647
  5
1648
331
19B0
  5
19B1
331
173B
  5
173C
331
164F
  5
1650
331
16C5
  5
16C6
331
1979
  5
197A
331
1A30
  5
1A31
331
19BA
  5
19BB
331
19F9
  5
19FA
331
1A01
  5
1A02
331
1A38
  5
1A39
331
19C2
  5
19C3
331
1A09
  5
1A0A
331
1A40
  5
1A41
331
19CA
  5
19CB
331
19D2
  5
19D3
331
1A11
  5
1A12
331
1A48
  5
1A49
331
15DD
  5
15DD
331
15E5
  5
15E5
331
1981
  5
1982
331
16CD
  5
16CE
331
1704
  5
1705
331
1657
  5
1658
331
168E
  5
168F
331
1942
  5
1943
331
15ED
  5
15ED
331
1618
  5
1619
331
1989
  5
198A
331
1913
  5
1914
331
16D5
  5
16D6
331
170C
  5
170D
331
15F5
  5
15F5
331
1620
  5
1621
331
165F
  5
1660
331
1696
  5
1697
331
194A
  5
194B
331
1952
  5
1953
331
1991
  5
1992
331
1714
  5
1715
331
169E
  5
169F
331
16DD
  5
16DE
331
1628
  5
1629
331
1667
  5
1668
331
191B
  5
191C
331
1923
  5
1924
331
171C
  5
171D
331
195A
  5
195B
331
166F
  5
1670
331
16A6
  5
16A7
331
16E5
  5
16E6
331
1999
  5
199A
331
1A50
  5
1A51
331
19DA
  5
19DB
331
1A19
  5
1A1A
331
1A21
  5
1A22
331
1A58
  5
1A59
331
19E2
  5
19E3
331
1A29
  5
1A2A
331
1A60
  5
1A61
331
19EA
  5
19EB
331
19F2
  5
19F3
331
1A68
  5
1A69
331
15FD
  5
15FD
331
1630
  5
1631
331
15C6
  5
15C6
331
1605
  5
1605
331
19A1
  5
19A2
331
192B
  5
192C
331
16ED
  5
16EE
331
1724
  5
1725
331
1677
  5
1678
331
16AE
  5
16AF
331
1962
  5
1963
331
160D
  5
160D
331
15CE
  5
15CE
331
1638
  5
1639
331
19A9
  5
19AA
331
1933
  5
1934
331
16F5
  5
16F6
331
172C
  5
172D
331
1640
  5
1641
331
167F
  5
1680
331
15D6
  5
15D6
331
16B6
  5
16B7
331
196A
  5
196B
331
1972
  5
1973
331
19B1
  5
19B2
331
193B
  5
193C
331
16BE
  5
16BF
331
16FD
  5
16FE
331
1648
  5
1649
331
1687
  5
1688
331
1734
  5
1735
331
173C
  5
173D
331
16C6
  5
16C7
331
197A
  5
197B
331
1A70
  5
1A71
331
19BB
  5
19BC
331
19FA
  5
19FB
331
1A31
  5
1A32
331
19C3
  5
19C4
331
1A02
  5
1A03
331
1A39
  5
1A3A
331
1A41
  5
1A42
331
19CB
  5
19CC
331
1A0A
  5
1A0B
331
1A12
  5
1A13
331
1A49
  5
1A4A
331
19D3
  5
19D4
331
15DE
  5
15DE
331
1611
  5
1612
331
15E6
  5
15E6
331
1650
  5
1651
331
1705
  5
1706
331
1943
  5
1944
331
168F
  5
1690
331
16CE
  5
16CF
331
1982
  5
1983
331
15EE
  5
15EE
331
1619
  5
161A
331
1658
  5
1659
331
1914
  5
1915
331
170D
  5
170E
331
194B
  5
194C
331
1660
  5
1661
331
1697
  5
1698
331
15F6
  5
15F6
331
1621
  5
1622
331
16D6
  5
16D7
331
198A
  5
198B
331
1992
  5
1993
331
191C
  5
191D
331
16DE
  5
16DF
331
1715
  5
1716
331
1668
  5
1669
331
169F
  5
16A0
331
1953
  5
1954
331
1629
  5
162A
331
199A
  5
199B
331
1924
  5
1925
331
16E6
  5
16E7
331
171D
  5
171E
331
16A7
  5
16A8
331
195B
  5
195C
331
1A1A
  5
1A1B
331
1A51
  5
1A52
331
19DB
  5
19DC
331
19E3
  5
19E4
331
1A22
  5
1A23
331
1A59
  5
1A5A
331
1A61
  5
1A62
331
19EB
  5
19EC
331
1A2A
  5
1A2B
331
1A69
  5
1A6A
331
19F3
  5
19F4
331
15FE
  5
15FE
331
1631
  5
1632
331
1606
  5
1606
331
1670
  5
1671
331
15C7
  5
15C7
331
1963
  5
1964
331
19A2
  5
19A3
331
1725
  5
1726
331
192C
  5
192D
331
1678
  5
1679
331
16AF
  5
16B0
331
1639
  5
163A
331
15CF
  5
15CF
331
160E
  5
160E
331
16EE
  5
16EF
331
1934
  5
1935
331
16F6
  5
16F7
331
172D
  5
172E
331
1680
  5
1681
331
16B7
  5
16B8
331
196B
  5
196C
331
15D7
  5
15D7
331
1641
  5
1642
331
19AA
  5
19AB
331
19B2
  5
19B3
331
193C
  5
193D
331
16FE
  5
16FF
331
1735
  5
1736
331
16BF
  5
16C0
331
1973
  5
1974
331
1649
  5
164A
331
173D
  5
173E
331
16C7
  5
16C8
331
197B
  5
197C
331
1A32
  5
1A33
331
1A71
  5
1A72
331
19BC
  5
19BD
331
19FB
  5
19FC
331
1A03
  5
1A04
331
1A3A
  5
1A3B
331
19C4
  5
19C5
331
19CC
  5
19CD
331
1A0B
  5
1A0C
331
1A42
  5
1A43
331
19D4
  5
19D5
331
1A13
  5
1A14
331
1A4A
  5
1A4B
331
15DF
  5
15DF
331
1651
  5
1652
331
1688
  5
1689
331
1612
  5
1613
331
15E7
  5
15E7
331
1983
  5
1984
331
16CF
  5
16D0
331
1706
  5
1707
331
15EF
  5
15EF
331
161A
  5
161B
331
1659
  5
165A
331
1690
  5
1691
331
1944
  5
1945
331
194C
  5
194D
331
198B
  5
198C
331
1915
  5
1916
331
16D7
  5
16D8
331
170E
  5
170F
331
15F7
  5
15F7
331
1622
  5
1623
331
1661
  5
1662
331
1698
  5
1699
331
1954
  5
1955
331
1993
  5
1994
331
1716
  5
1717
331
16A0
  5
16A1
331
16DF
  5
16E0
331
162A
  5
162B
331
1669
  5
166A
331
191D
  5
191E
331
1925
  5
1926
331
171E
  5
171F
331
195C
  5
195D
331
16E7
  5
16E8
331
199B
  5
199C
331
1A52
  5
1A53
331
19DC
  5
19DD
331
1A1B
  5
1A1C
331
1A23
  5
1A24
331
1A5A
  5
1A5B
331
19E4
  5
19E5
331
1A2B
  5
1A2C
331
1A62
  5
1A63
331
19EC
  5
19ED
331
19F4
  5
19F5
331
1A6A
  5
1A6B
331
15FF
  5
15FF
331
1671
  5
1672
331
16A8
  5
16A9
331
1632
  5
1633
331
15C8
  5
15C8
331
1607
  5
1607
331
19A3
  5
19A4
331
192D
  5
192E
331
16EF
  5
16F0
331
1726
  5
1727
331
1679
  5
167A
331
16B0
  5
16B1
331
1964
  5
1965
331
15D0
  5
15D0
331
163A
  5
163B
331
19AB
  5
19AC
331
1935
  5
1936
331
16F7
  5
16F8
331
172E
  5
172F
331
1642
  5
1643
331
1681
  5
1682
331
16B8
  5
16B9
331
196C
  5
196D
331
1974
  5
1975
331
19B3
  5
19B4
331
1736
  5
1737
331
193D
  5
193E
331
16C0
  5
16C1
331
16FF
  5
1700
331
173E
  5
173F
331
197C
  5
197D
331
1A72
  5
1A73
331
19BD
  5
19BE
331
19FC
  5
19FD
331
1A33
  5
1A34
331
1A3B
  5
1A3C
331
19C5
  5
19C6
331
1A04
  5
1A05
331
1A43
  5
1A44
331
19CD
  5
19CE
331
1A0C
  5
1A0D
331
1A14
  5
1A15
331
1A4B
  5
1A4C
331
19D5
  5
19D6
331
15D8
  5
15D8
331
15E0
  5
15E0
331
1689
  5
168A
331
16C8
  5
16C9
331
1613
  5
1614
331
15E8
  5
15E8
331
1652
  5
1653
331
1707
  5
1708
331
1945
  5
1946
331
1691
  5
1692
331
16D0
  5
16D1
331
1984
  5
1985
331
15F0
  5
15F0
331
161B
  5
161C
331
165A
  5
165B
331
1916
  5
1917
331
170F
  5
1710
331
194D
  5
194E
331
1662
  5
1663
331
1699
  5
169A
331
1623
  5
1624
331
16D8
  5
16D9
331
198C
  5
198D
331
1994
  5
1995
331
191E
  5
191F
331
16E0
  5
16E1
331
1717
  5
1718
331
162B
  5
162C
331
166A
  5
166B
331
16A1
  5
16A2
331
1955
  5
1956
331
195D
  5
195E
331
199C
  5
199D
331
171F
  5
1720
331
19DD
  5
19DE
331
1A1C
  5
1A1D
331
1A53
  5
1A54
331
19E5
  5
19E6
331
1A24
  5
1A25
331
1A5B
  5
1A5C
331
1A63
  5
1A64
331
19ED
  5
19EE
331
1A2C
  5
1A2D
331
1A6B
  5
1A6C
331
19F5
  5
19F6
331
15F8
  5
15F8
331
1600
  5
1600
331
15C1
  5
15C1
331
16E8
  5
16E9
331
1633
  5
1634
331
1608
  5
1608
331
1672
  5
1673
331
15C9
  5
15C9
331
16A9
  5
16AA
331
1965
  5
1966
331
19A4
  5
19A5
331
1727
  5
1728
331
192E
  5
192F
331
167A
  5
167B
331
16B1
  5
16B2
331
15D1
  5
15D1
331
163B
  5
163C
331
16F0
  5
16F1
331
1936
  5
1937
331
16F8
  5
16F9
331
172F
  5
1730
331
1682
  5
1683
331
16B9
  5
16BA
331
196D
  5
196E
331
1643
  5
1644
331
19AC
  5
19AD
331
19B4
  5
19B5
331
193E
  5
193F
331
1737
  5
1738
331
16C1
  5
16C2
331
1975
  5
1976
331
164B
  5
164C
331
173F
  5
1740
331
197D
  5
197E
331
1A34
  5
1A35
331
1A73
  5
1A74
331
19BE
  5
19BF
331
19FD
  5
19FE
331
1A05
  5
1A06
331
1A3C
  5
1A3D
331
19C6
  5
19C7
331
19CE
  5
19CF
331
1A0D
  5
1A0E
331
1A44
  5
1A45
331
1A4C
  5
1A4D
331
19D6
  5
19D7
331
1A15
  5
1A16
331
15D9
  5
15D9
331
15E1
  5
15E1
331
1700
  5
1701
331
1653
  5
1654
331
168A
  5
168B
331
1614
  5
1615
331
15E9
  5
15E9
331
16C9
  5
16CA
331
1985
  5
1986
331
16D1
  5
16D2
331
1708
  5
1709
331
15F1
  5
15F1
331
161C
  5
161D
331
165B
  5
165C
331
1692
  5
1693
331
1946
  5
1947
331
194E
  5
194F
331
198D
  5
198E
331
1917
  5
1918
331
169A
  5
169B
331
16D9
  5
16DA
331
1624
  5
1625
331
1663
  5
1664
331
1710
  5
1711
331
1956
  5
1957
331
1995
  5
1996
331
1718
  5
1719
331
16A2
  5
16A3
331
16E1
  5
16E2
331
162C
  5
162D
331
166B
  5
166C
331
191F
  5
1920
331
1927
  5
1928
331
195E
  5
195F
331
199D
  5
199E
331
1A54
  5
1A55
331
19DE
  5
19DF
331
1A1D
  5
1A1E
331
1A25
  5
1A26
331
1A5C
  5
1A5D
331
19E6
  5
19E7
331
19EE
  5
19EF
331
1A2D
  5
1A2E
331
1A64
  5
1A65
331
19F6
  5
19F7
331
1A6C
  5
1A6D
331
15F9
  5
15F9
331
15C2
  5
15C2
331
1601
  5
1601
331
16E9
  5
16EA
331
1720
  5
1721
331
1673
  5
1674
331
16AA
  5
16AB
331
1609
  5
1609
331
15CA
  5
15CA
331
1634
  5
1635
331
19A5
  5
19A6
331
192F
  5
1930
331
16F1
  5
16F2
331
1728
  5
1729
331
163C
  5
163D
331
167B
  5
167C
331
15D2
  5
15D2
331
16B2
  5
16B3
331
1966
  5
1967
331
196E
  5
196F
331
19AD
  5
19AE
331
1937
  5
1938
331
16F9
  5
16FA
331
1730
  5
1731
331
1644
  5
1645
331
1683
  5
1684
331
16BA
  5
16BB
331
1976
  5
1977
331
19B5
  5
19B6
331
1738
  5
1739
331
16C2
  5
16C3
331
164C
  5
164D
331
193F
  5
1940
331
197E
  5
197F
331
1A74
  5
1A75
331
19BF
  5
19C0
331
19FE
  5
19FF
331
1A35
  5
1A36
331
1A3D
  5
1A3E
331
19C7
  5
19C8
331
1A06
  5
1A07
331
1A45
  5
1A46
331
19CF
  5
19D0
331
1A0E
  5
1A0F
331
1A16
  5
1A17
331
1A4D
  5
1A4E
331
19D7
  5
19D8
331
15DA
  5
15DA
331
15E2
  5
15E2
331
1740
  5
1741
331
168B
  5
168C
331
16CA
  5
16CB
331
1615
  5
1616
331
15EA
  5
15EA
331
1654
  5
1655
331
1701
  5
1702
331
1910
  5
1911
331
1709
  5
170A
331
1947
  5
1948
331
1693
  5
1694
331
16D2
  5
16D3
331
1986
  5
1987
331
15F2
  5
15F2
331
161D
  5
161E
331
165C
  5
165D
331
1918
  5
1919
331
1711
  5
1712
331
194F
  5
1950
331
1664
  5
1665
331
169B
  5
169C
331
1625
  5
1626
331
16DA
  5
16DB
331
198E
  5
198F
331
1996
  5
1997
331
1920
  5
1921
331
16E2
  5
16E3
331
1719
  5
171A
331
162D
  5
162E
331
166C
  5
166D
331
16A3
  5
16A4
331
1957
  5
1958
331
195F
  5
1960
331
199E
  5
199F
331
19DF
  5
19E0
331
1A1E
  5
1A1F
331
1A55
  5
1A56
331
1A5D
  5
1A5E
331
19E7
  5
19E8
331
1A26
  5
1A27
331
1A65
  5
1A66
331
19EF
  5
19F0
331
1A2E
  5
1A2F
331
1A6D
  5
1A6E
331
19F7
  5
19F8
331
15FA
  5
15FA
331
1602
  5
1602
331
15C3
  5
15C3
331
1928
  5
1929
331
16AB
  5
16AC
331
16EA
  5
16EB
331
1721
  5
1722
331
1635
  5
1636
331
160A
  5
160A
331
1674
  5
1675
331
15CB
  5
15CB
331
1967
  5
1968
331
19A6
  5
19A7
331
16F2
  5
16F3
331
1729
  5
172A
331
167C
  5
167D
331
16B3
  5
16B4
331
15D3
  5
15D3
331
163D
  5
163E
331
1930
  5
1931
331
1938
  5
1939
331
16FA
  5
16FB
331
1731
  5
1732
331
1684
  5
1685
331
16BB
  5
16BC
331
196F
  5
1970
331
1645
  5
1646
331
19AE
  5
19AF
331
19B6
  5
19B7
331
1739
  5
173A
331
164D
  5
164E
331
16C3
  5
16C4
331
1977
  5
1978
331
197F
  5
1980
331
19B8
  5
19B9
331
19FF
  5
1A00
331
1A36
  5
1A37
331
19C0
  5
19C1
331
1A75
  5
1A76
331
1A07
  5
1A08
331
1A3E
  5
1A3F
331
19C8
  5
19C9
331
19D0
  5
19D1
331
1A0F
  5
1A10
331
1A46
  5
1A47
331
1A4E
  5
1A4F
331
1A17
  5
1A18
331
15DB
  5
15DB
331
15E3
  5
15E3
331
1702
  5
1703
331
1741
  5
1910
331
1655
  5
1656
331
168C
  5
168D
331
1616
  5
1617
331
15EB
  5
15EB
331
16CB
  5
16CC
331
1987
  5
1988
331
1911
  5
1912
331
16D3
  5
16D4
331
170A
  5
170B
331
15F3
  5
15F3
331
161E
  5
161F
331
165D
  5
165E
331
1694
  5
1695
331
1948
  5
1949
331
1950
  5
1951
331
198F
  5
1990
331
1919
  5
191A
331
169C
  5
169D
331
16DB
  5
16DC
331
1626
  5
1627
331
1665
  5
1666
331
1712
  5
1713
331
1921
  5
1922
331
171A
  5
171B
331
1958
  5
1959
331
16A4
  5
16A5
331
16E3
  5
16E4
331
1997
  5
1998
331
162E
  5
162F
331
166D
  5
166E
331
199F
  5
19A0
331
19D8
  5
19D9
331
1A56
  5
1A57
331
19E0
  5
19E1
331
1A1F
  5
1A20
331
1A27
  5
1A28
331
1A5E
  5
1A5F
331
19E8
  5
19E9
331
19F0
  5
19F1
331
1A2F
  5
1A30
331
1A66
  5
1A67
331
1A6E
  5
1A6F
331
15FB
  5
15FB
331
15C4
  5
15C4
331
1603
  5
1603
331
1929
  5
192A
331
16EB
  5
16EC
331
1722
  5
1723
331
1675
  5
1676
331
16AC
  5
16AD
331
1960
  5
1961
331
160B
  5
160B
331
15CC
  5
15CC
331
1636
  5
1637
331
19A7
  5
19A8
331
1931
  5
1932
331
16F3
  5
16F4
331
172A
  5
172B
331
163E
  5
163F
331
167D
  5
167E
331
15D4
  5
15D4
331
16B4
  5
16B5
331
1968
  5
1969
331
1970
  5
1971
331
19AF
  5
19B0
331
1939
  5
193A
331
16BC
  5
16BD
331
16FB
  5
16FC
331
1646
  5
1647
331
1685
  5
1686
331
1732
  5
1733
331
173A
  5
173B
331
16C4
  5
16C5
331
1978
  5
1979
331
164E
  5
164F
331
19B7
  5
19B8
  0
XRECORD
  5
1B41
102
{ACAD_REACTORS
330
1B40
102
}
330
1B40
100
AcDbXrecord
280
     1
 40
1.570796326794896
  0
LAYOUT
  5
1E
102
{ACAD_XDICTIONARY
360
1B60
102
}
102
{ACAD_REACTORS
330
1A
102
}
330
1A
100
AcDbPlotSettings
  1

  2
Ploter HP500
  4

  6

 40
0.0
 41
0.0
 42
0.0
 43
0.0
 44
0.0
 45
0.0
 46
0.0
 47
0.0
 48
0.0
 49
0.0
140
0.0
141
0.0
142
1.0
143
1.0
 70
   688
 72
     0
 73
     0
 74
     5
  7
sanindusa.ctb
 75
    16
147
1.0
148
0.0
149
0.0
100
AcDbLayout
  1
Layout1
 70
     1
 71
     1
 10
0.0
 20
0.0
 11
420.0
 21
297.0
 12
0.0
 22
0.0
 32
0.0
 14
1.000000000000000E+20
 24
1.000000000000000E+20
 34
1.000000000000000E+20
 15
-1.000000000000000E+20
 25
-1.000000000000000E+20
 35
-1.000000000000000E+20
146
0.0
 13
0.0
 23
0.0
 33
0.0
 16
1.0
 26
0.0
 36
0.0
 17
0.0
 27
1.0
 37
0.0
 76
     0
330
1B
  0
LAYOUT
  5
26
102
{ACAD_XDICTIONARY
360
1B64
102
}
102
{ACAD_REACTORS
330
1A
102
}
330
1A
100
AcDbPlotSettings
  1

  2
Ploter HP500
  4

  6

 40
0.0
 41
0.0
 42
0.0
 43
0.0
 44
0.0
 45
0.0
 46
0.0
 47
0.0
 48
0.0
 49
0.0
140
0.0
141
0.0
142
1.0
143
1.0
 70
   688
 72
     0
 73
     0
 74
     5
  7
sanindusa.ctb
 75
    16
147
1.0
148
0.0
149
0.0
100
AcDbLayout
  1
Layout2
 70
     1
 71
     2
 10
0.0
 20
0.0
 11
12.0
 21
9.0
 12
0.0
 22
0.0
 32
0.0
 14
0.0
 24
0.0
 34
0.0
 15
0.0
 25
0.0
 35
0.0
146
0.0
 13
0.0
 23
0.0
 33
0.0
 16
1.0
 26
0.0
 36
0.0
 17
0.0
 27
1.0
 37
0.0
 76
     0
330
23
  0
LAYOUT
  5
22
102
{ACAD_XDICTIONARY
360
1B62
102
}
102
{ACAD_REACTORS
330
1A
102
}
330
1A
100
AcDbPlotSettings
  1

  2
Ploter HP500
  4
User268
  6

 40
4.995333194732666
 41
16.97565841674804
 42
4.995330810546875
 43
16.97567749023437
 44
209.9733276367187
 45
296.9259948730469
 46
0.0
 47
0.0
 48
0.0
 49
0.0
140
0.0
141
0.0
142
1.0
143
1.0
 70
 11952
 72
     1
 73
     1
 74
     0
  7
sanindusa.ctb
 75
     0
147
1.0
148
-427.5957866592534
149
7.362384574453926
100
AcDbLayout
  1
Model
 70
     1
 71
     0
 10
0.0
 20
0.0
 11
12.0
 21
9.0
 12
0.0
 22
0.0
 32
0.0
 14
0.0
 24
0.0
 34
0.0
 15
0.0
 25
0.0
 35
0.0
146
0.0
 13
0.0
 23
0.0
 33
0.0
 16
1.0
 26
0.0
 36
0.0
 17
0.0
 27
1.0
 37
0.0
 76
     0
330
1F
331
1068
  0
MATERIAL
  5
1072
102
{ACAD_XDICTIONARY
360
1073
102
}
102
{ACAD_REACTORS
330
EE5
102
}
330
EE5
100
AcDbMaterial
  1
ByBlock
 72
     0
 73
     2
 43
0.0008202099737533
 43
0.0
 43
0.0
 43
0.0
 43
0.0
 43
0.0008202099737533
 43
0.0
 43
0.0
 43
0.0
 43
0.0
 43
1.0
 43
0.0
 43
0.0
 43
0.0
 43
0.0
 43
1.0
 77
     0
 78
     2
 47
0.0008202099737533
 47
0.0
 47
0.0
 47
0.0
 47
0.0
 47
0.0008202099737533
 47
0.0
 47
0.0
 47
0.0
 47
0.0
 47
1.0
 47
0.0
 47
0.0
 47
0.0
 47
0.0
 47
1.0
171
     0
172
     2
 49
0.0008202099737533
 49
0.0
 49
0.0
 49
0.0
 49
0.0
 49
0.0008202099737533
 49
0.0
 49
0.0
 49
0.0
 49
0.0
 49
1.0
 49
0.0
 49
0.0
 49
0.0
 49
0.0
 49
1.0
175
     0
176
     2
142
0.0008202099737533
142
0.0
142
0.0
142
0.0
142
0.0
142
0.0008202099737533
142
0.0
142
0.0
142
0.0
142
0.0
142
1.0
142
0.0
142
0.0
142
0.0
142
0.0
142
1.0
179
     0
270
     2
144
0.0008202099737533
144
0.0
144
0.0
144
0.0
144
0.0
144
0.0008202099737533
144
0.0
144
0.0
144
0.0
144
0.0
144
1.0
144
0.0
144
0.0
144
0.0
144
0.0
144
1.0
274
     2
147
0.0008202099737533
147
0.0
147
0.0
147
0.0
147
0.0
147
0.0008202099737533
147
0.0
147
0.0
147
0.0
147
0.0
147
1.0
147
0.0
147
0.0
147
0.0
147
0.0
147
1.0
  0
MATERIAL
  5
106A
102
{ACAD_XDICTIONARY
360
106B
102
}
102
{ACAD_REACTORS
330
EE5
102
}
330
EE5
100
AcDbMaterial
  1
ByLayer
 72
     0
 73
     2
 43
0.0008202099737533
 43
0.0
 43
0.0
 43
0.0
 43
0.0
 43
0.0008202099737533
 43
0.0
 43
0.0
 43
0.0
 43
0.0
 43
1.0
 43
0.0
 43
0.0
 43
0.0
 43
0.0
 43
1.0
 77
     0
 78
     2
 47
0.0008202099737533
 47
0.0
 47
0.0
 47
0.0
 47
0.0
 47
0.0008202099737533
 47
0.0
 47
0.0
 47
0.0
 47
0.0
 47
1.0
 47
0.0
 47
0.0
 47
0.0
 47
0.0
 47
1.0
171
     0
172
     2
 49
0.0008202099737533
 49
0.0
 49
0.0
 49
0.0
 49
0.0
 49
0.0008202099737533
 49
0.0
 49
0.0
 49
0.0
 49
0.0
 49
1.0
 49
0.0
 49
0.0
 49
0.0
 49
0.0
 49
1.0
175
     0
176
     2
142
0.0008202099737533
142
0.0
142
0.0
142
0.0
142
0.0
142
0.0008202099737533
142
0.0
142
0.0
142
0.0
142
0.0
142
1.0
142
0.0
142
0.0
142
0.0
142
0.0
142
1.0
179
     0
270
     2
144
0.0008202099737533
144
0.0
144
0.0
144
0.0
144
0.0
144
0.0008202099737533
144
0.0
144
0.0
144
0.0
144
0.0
144
1.0
144
0.0
144
0.0
144
0.0
144
0.0
144
1.0
274
     2
147
0.0008202099737533
147
0.0
147
0.0
147
0.0
147
0.0
147
0.0008202099737533
147
0.0
147
0.0
147
0.0
147
0.0
147
1.0
147
0.0
147
0.0
147
0.0
147
0.0
147
1.0
  0
MATERIAL
  5
107A
102
{ACAD_XDICTIONARY
360
107B
102
}
102
{ACAD_REACTORS
330
EE5
102
}
330
EE5
100
AcDbMaterial
  1
Global
 72
     0
 73
     2
 43
0.0008202099737533
 43
0.0
 43
0.0
 43
0.0
 43
0.0
 43
0.0008202099737533
 43
0.0
 43
0.0
 43
0.0
 43
0.0
 43
1.0
 43
0.0
 43
0.0
 43
0.0
 43
0.0
 43
1.0
 77
     0
 78
     2
 47
0.0008202099737533
 47
0.0
 47
0.0
 47
0.0
 47
0.0
 47
0.0008202099737533
 47
0.0
 47
0.0
 47
0.0
 47
0.0
 47
1.0
 47
0.0
 47
0.0
 47
0.0
 47
0.0
 47
1.0
171
     0
172
     2
 49
0.0008202099737533
 49
0.0
 49
0.0
 49
0.0
 49
0.0
 49
0.0008202099737533
 49
0.0
 49
0.0
 49
0.0
 49
0.0
 49
1.0
 49
0.0
 49
0.0
 49
0.0
 49
0.0
 49
1.0
175
     0
176
     2
142
0.0008202099737533
142
0.0
142
0.0
142
0.0
142
0.0
142
0.0008202099737533
142
0.0
142
0.0
142
0.0
142
0.0
142
1.0
142
0.0
142
0.0
142
0.0
142
0.0
142
1.0
179
     0
270
     2
144
0.0008202099737533
144
0.0
144
0.0
144
0.0
144
0.0
144
0.0008202099737533
144
0.0
144
0.0
144
0.0
144
0.0
144
1.0
144
0.0
144
0.0
144
0.0
144
0.0
144
1.0
274
     2
147
0.0008202099737533
147
0.0
147
0.0
147
0.0
147
0.0
147
0.0008202099737533
147
0.0
147
0.0
147
0.0
147
0.0
147
1.0
147
0.0
147
0.0
147
0.0
147
0.0
147
1.0
  0
ACAD_PROXY_OBJECT
  5
10A6
102
{ACAD_REACTORS
330
10A5
102
}
330
10A5
100
AcDbProxyObject
 90
      499
 91
      509
 95
   983063
 70
     0
 93
      618
310
40901902A4063FBFFFFFE000000000000002040AD7A3703D0AD73F4254DD185B99185C99000000000000000104090141901A00000000000004100000000000000041025764000000000000300FC0
340
14
340
0
340
11
340
0
 94
        0
1001
ACAD_MLEADERVER
1070
     2
1001
ACAD
1000
AcRTDxfName
1000
MLEADERSTYLE
  0
MLINESTYLE
  5
18
102
{ACAD_REACTORS
330
17
102
}
330
17
100
AcDbMlineStyle
  2
STANDARD
 70
     0
  3

 62
   256
 51
90.0
 52
90.0
 71
     2
 49
0.5
 62
   256
  6
BYLAYER
 49
-0.5
 62
   256
  6
BYLAYER
  0
ACDBPLACEHOLDER
  5
F
102
{ACAD_REACTORS
330
E
102
}
330
E
  0
ACAD_PROXY_OBJECT
  5
1094
102
{ACAD_REACTORS
330
1093
102
}
330
1093
100
AcDbProxyObject
 90
      499
 91
      508
 95
   983063
 70
     0
 93
       49
310
904313A3100598
 94
        0
1001
ACAD
1000
AcRTDxfName
1000
SCALE
  0
ACAD_PROXY_OBJECT
  5
1095
102
{ACAD_REACTORS
330
1093
102
}
330
1093
100
AcDbProxyObject
 90
      499
 91
      508
 95
   983063
 70
     0
 93
      113
310
904313A32004000000000000004004
 94
        0
1001
ACAD
1000
AcRTDxfName
1000
SCALE
  0
ACAD_PROXY_OBJECT
  5
1096
102
{ACAD_REACTORS
330
1093
102
}
330
1093
100
AcDbProxyObject
 90
      499
 91
      508
 95
   983063
 70
     0
 93
      113
310
904313A34004000000000000104074
 94
        0
1001
ACAD
1000
AcRTDxfName
1000
SCALE
  0
ACAD_PROXY_OBJECT
  5
1097
102
{ACAD_REACTORS
330
1093
102
}
330
1093
100
AcDbProxyObject
 90
      499
 91
      508
 95
   983063
 70
     0
 93
      113
310
904313A35004000000000000144004
 94
        0
1001
ACAD
1000
AcRTDxfName
1000
SCALE
  0
ACAD_PROXY_OBJECT
  5
1098
102
{ACAD_REACTORS
330
1093
102
}
330
1093
100
AcDbProxyObject
 90
      499
 91
      508
 95
   983063
 70
     0
 93
      113
310
904313A38004000000000000204074
 94
        0
1001
ACAD
1000
AcRTDxfName
1000
SCALE
  0
ACAD_PROXY_OBJECT
  5
1099
102
{ACAD_REACTORS
330
1093
102
}
330
1093
100
AcDbProxyObject
 90
      499
 91
      508
 95
   983063
 70
     0
 93
      121
310
905313A3130004000000000000244009
 94
        0
1001
ACAD
1000
AcRTDxfName
1000
SCALE
  0
ACAD_PROXY_OBJECT
  5
109A
102
{ACAD_REACTORS
330
1093
102
}
330
1093
100
AcDbProxyObject
 90
      499
 91
      508
 95
   983063
 70
     0
 93
      121
310
905313A3136004000000000000304009
 94
        0
1001
ACAD
1000
AcRTDxfName
1000
SCALE
  0
ACAD_PROXY_OBJECT
  5
109B
102
{ACAD_REACTORS
330
1093
102
}
330
1093
100
AcDbProxyObject
 90
      499
 91
      508
 95
   983063
 70
     0
 93
      121
310
905313A3230004000000000000344009
 94
        0
1001
ACAD
1000
AcRTDxfName
1000
SCALE
  0
ACAD_PROXY_OBJECT
  5
109C
102
{ACAD_REACTORS
330
1093
102
}
330
1093
100
AcDbProxyObject
 90
      499
 91
      508
 95
   983063
 70
     0
 93
      121
310
905313A33300040000000000003E4009
 94
        0
1001
ACAD
1000
AcRTDxfName
1000
SCALE
  0
ACAD_PROXY_OBJECT
  5
109D
102
{ACAD_REACTORS
330
1093
102
}
330
1093
100
AcDbProxyObject
 90
      499
 91
      508
 95
   983063
 70
     0
 93
      121
310
905313A3430004000000000000444009
 94
        0
1001
ACAD
1000
AcRTDxfName
1000
SCALE
  0
ACAD_PROXY_OBJECT
  5
109E
102
{ACAD_REACTORS
330
1093
102
}
330
1093
100
AcDbProxyObject
 90
      499
 91
      508
 95
   983063
 70
     0
 93
      121
310
905313A3530004000000000000494009
 94
        0
1001
ACAD
1000
AcRTDxfName
1000
SCALE
  0
ACAD_PROXY_OBJECT
  5
109F
102
{ACAD_REACTORS
330
1093
102
}
330
1093
100
AcDbProxyObject
 90
      499
 91
      508
 95
   983063
 70
     0
 93
      129
310
906313A313030004000000000000594002
 94
        0
1001
ACAD
1000
AcRTDxfName
1000
SCALE
  0
ACAD_PROXY_OBJECT
  5
10A0
102
{ACAD_REACTORS
330
1093
102
}
330
1093
100
AcDbProxyObject
 90
      499
 91
      508
 95
   983063
 70
     0
 93
      113
310
904323A31000000000000000010140
 94
        0
1001
ACAD
1000
AcRTDxfName
1000
SCALE
  0
ACAD_PROXY_OBJECT
  5
10A1
102
{ACAD_REACTORS
330
1093
102
}
330
1093
100
AcDbProxyObject
 90
      499
 91
      508
 95
   983063
 70
     0
 93
      113
310
904343A31000000000000000410159
 94
        0
1001
ACAD
1000
AcRTDxfName
1000
SCALE
  0
ACAD_PROXY_OBJECT
  5
10A2
102
{ACAD_REACTORS
330
1093
102
}
330
1093
100
AcDbProxyObject
 90
      499
 91
      508
 95
   983063
 70
     0
 93
      113
310
904383A31000000000000000810140
 94
        0
1001
ACAD
1000
AcRTDxfName
1000
SCALE
  0
ACAD_PROXY_OBJECT
  5
10A3
102
{ACAD_REACTORS
330
1093
102
}
330
1093
100
AcDbProxyObject
 90
      499
 91
      508
 95
   983063
 70
     0
 93
      121
310
90531303A31000000000000000910140
 94
        0
1001
ACAD
1000
AcRTDxfName
1000
SCALE
  0
ACAD_PROXY_OBJECT
  5
10A4
102
{ACAD_REACTORS
330
1093
102
}
330
1093
100
AcDbProxyObject
 90
      499
 91
      508
 95
   983063
 70
     0
 93
      129
310
9063130303A31000000000000001650102
 94
        0
1001
ACAD
1000
AcRTDxfName
1000
SCALE
  0
TABLESTYLE
  5
EE8
102
{ACAD_XDICTIONARY
360
1B3C
102
}
102
{ACAD_REACTORS
330
EE7
102
}
330
EE7
100
AcDbTableStyle
  3
Standard
 70
     0
 71
     0
 40
1.5
 41
1.5
280
     0
281
     0
  7
Standard
140
4.5
170
     2
 62
     0
 63
     7
283
     0
274
    -2
284
     1
 64
     0
275
    -2
285
     1
 65
     0
276
    -2
286
     1
 66
     0
277
    -2
287
     1
 67
     0
278
    -2
288
     1
 68
     0
279
    -2
289
     1
 69
     0
  7
Standard
140
6.0
170
     5
 62
     0
 63
     7
283
     0
274
    -2
284
     1
 64
     0
275
    -2
285
     1
 65
     0
276
    -2
286
     1
 66
     0
277
    -2
287
     1
 67
     0
278
    -2
288
     1
 68
     0
279
    -2
289
     1
 69
     0
  7
Standard
140
4.5
170
     5
 62
     0
 63
     7
283
     0
274
    -2
284
     1
 64
     0
275
    -2
285
     1
 65
     0
276
    -2
286
     1
 66
     0
277
    -2
287
     1
 67
     0
278
    -2
288
     1
 68
     0
279
    -2
289
     1
 69
     0
  0
ACAD_PROXY_OBJECT
  5
1088
102
{ACAD_REACTORS
330
1082
102
}
330
1082
100
AcDbProxyObject
 90
      499
 91
      507
 95
   983063
 70
     0
 93
      444
310
430C9915DA5C99599C985B59401049028333333333333E3BF0000000000000FB0107901411070040501600405405064090741402480A0340
 94
        0
1001
ACAD
1000
AcDbSavedByObjectVersion
1070
     0
1000
AcRTDxfName
1000
VISUALSTYLE
  0
ACAD_PROXY_OBJECT
  5
108A
102
{ACAD_REACTORS
330
1082
102
}
330
1082
100
AcDbProxyObject
 90
      499
 91
      507
 95
   983063
 70
     0
 93
      508
310
428CD108121A5919195B8010640502408333333333333E3BF0000000000000FB01079024090700405020000000000001110200405405064090740C02480A0346
 94
        0
1001
ACAD
1000
AcDbSavedByObjectVersion
1070
     0
1000
AcRTDxfName
1000
VISUALSTYLE
  0
ACAD_PROXY_OBJECT
  5
1089
102
{ACAD_REACTORS
330
1082
102
}
330
1082
100
AcDbProxyObject
 90
      499
 91
      507
 95
   983063
 70
     0
 93
      444
310
430CD915DA5C99599C985B59401059028333333333333E3BF0000000000000FB0107901411070040501600405405064090741402480A0345
 94
        0
1001
ACAD
1000
AcDbSavedByObjectVersion
1070
     0
1000
AcRTDxfName
1000
VISUALSTYLE
  0
ACAD_PROXY_OBJECT
  5
1087
102
{ACAD_REACTORS
330
1082
102
}
330
1082
100
AcDbProxyObject
 90
      499
 91
      507
 95
   983063
 70
     0
 93
      396
310
4190985CDA58C0107406404333333333333E3BF0000000000000FB0107A41107004050150841D405064090741402480A0358
 94
        0
1001
ACAD
1000
AcDbSavedByObjectVersion
1070
     0
1000
AcRTDxfName
1000
VISUALSTYLE
  0
ACAD_PROXY_OBJECT
  5
108E
102
{ACAD_REACTORS
330
1082
102
}
330
1082
100
AcDbProxyObject
 90
      499
 91
      507
 95
   983063
 70
     0
 93
      436
310
42509C9A59DA1D195B8010C409028333333333333E3BF0000000000000FB010790141107004050150841D405064090741402480A029956
 94
        0
1001
ACAD
1000
AcDbSavedByObjectVersion
1070
     0
1000
AcRTDxfName
1000
VISUALSTYLE
  0
ACAD_PROXY_OBJECT
  5
1092
102
{ACAD_REACTORS
330
1082
102
}
330
1082
100
AcDbProxyObject
 90
      499
 91
      507
 95
   983063
 70
     0
 93
      460
310
4310DBDB1BDC90DA185B99D9401104090240C333333333333E3BF0000000000000FB0108901411070040501508421405064090741402480A0354
 94
        0
1001
ACAD
1000
AcDbSavedByObjectVersion
1070
     0
1000
AcRTDxfName
1000
VISUALSTYLE
  0
ACAD_PROXY_OBJECT
  5
108B
102
{ACAD_REACTORS
330
1082
102
}
330
1082
100
AcDbProxyObject
 90
      499
 91
      507
 95
   983063
 70
     0
 93
      508
310
42D0DBDB98D95C1D1D585B0010940D028333333333333E3BF0000000000000FB0107902409070040501000000000000111010841D405064090740C02480A0345
 94
        0
1001
ACAD
1000
AcDbSavedByObjectVersion
1070
     0
1000
AcRTDxfName
1000
VISUALSTYLE
  0
ACAD_PROXY_OBJECT
  5
108D
102
{ACAD_REACTORS
330
1082
102
}
330
1082
100
AcDbProxyObject
 90
      499
 91
      507
 95
   983063
 70
     0
 93
      420
310
41111A5B4010B409028333333333333E3BF0000000000000FB010790141107004050150841D405064090741402480A02677FFFFFD4
 94
        0
1001
ACAD
1000
AcDbSavedByObjectVersion
1070
     0
1000
AcRTDxfName
1000
VISUALSTYLE
  0
ACAD_PROXY_OBJECT
  5
1091
102
{ACAD_REACTORS
330
1082
102
}
330
1082
100
AcDbProxyObject
 90
      499
 91
      507
 95
   983063
 70
     0
 93
      452
310
43119858D95C185D1D195C9B8010F409028333333333333E3BF0000000000000FB010790141107004050150841D405064090741402480A0350
 94
        0
1001
ACAD
1000
AcDbSavedByObjectVersion
1070
     0
1000
AcRTDxfName
1000
VISUALSTYLE
  0
ACAD_PROXY_OBJECT
  5
1083
102
{ACAD_REACTORS
330
1082
102
}
330
1082
100
AcDbProxyObject
 90
      499
 91
      507
 95
   983063
 70
     0
 93
      396
310
41519B185D00240901404333333333333E3BF0000000000000F9010740A41107004050150841D405064090741402480A1B55
 94
        0
1001
ACAD
1000
AcDbSavedByObjectVersion
1070
     0
1000
AcRTDxfName
1000
VISUALSTYLE
  0
ACAD_PROXY_OBJECT
  5
1084
102
{ACAD_REACTORS
330
1082
102
}
330
1082
100
AcDbProxyObject
 90
      499
 91
      507
 95
   983063
 70
     0
 93
      484
310
43919B185D15DA5D1A115919D95CC010140901404333333333333E3BF0000000000000F9010740901411070040501600405405064090741402480A1B50
 94
        0
1001
ACAD
1000
AcDbSavedByObjectVersion
1070
     0
1000
AcRTDxfName
1000
VISUALSTYLE
  0
ACAD_PROXY_OBJECT
  5
1085
102
{ACAD_REACTORS
330
1082
102
}
330
1082
100
AcDbProxyObject
 90
      499
 91
      507
 95
   983063
 70
     0
 93
      420
310
4211DBDD5C985D590010240902404333333333333E3BF0000000000000F9010740A411070040501641D405064090741402480A1B54
 94
        0
1001
ACAD
1000
AcDbSavedByObjectVersion
1070
     0
1000
AcRTDxfName
1000
VISUALSTYLE
  0
ACAD_PROXY_OBJECT
  5
1086
102
{ACAD_REACTORS
330
1082
102
}
330
1082
100
AcDbProxyObject
 90
      499
 91
      507
 95
   983063
 70
     0
 93
      508
310
4451DBDD5C985D5915DA5D1A115919D95CC010340902404333333333333E3BF0000000000000F9010740901411070040501600405405064090741402480A1B56
 94
        0
1001
ACAD
1000
AcDbSavedByObjectVersion
1070
     0
1000
AcRTDxfName
1000
VISUALSTYLE
  0
ACAD_PROXY_OBJECT
  5
1090
102
{ACAD_REACTORS
330
1082
102
}
330
1082
100
AcDbProxyObject
 90
      499
 91
      507
 95
   983063
 70
     0
 93
      452
310
43131A5B995C185D1D195C9B8010E409028333333333333E3BF0000000000000FB010790141107004050750841D405064090741402483A0350
 94
        0
1001
ACAD
1000
AcDbSavedByObjectVersion
1070
     0
1000
AcRTDxfName
1000
VISUALSTYLE
  0
ACAD_PROXY_OBJECT
  5
108C
102
{ACAD_REACTORS
330
1082
102
}
330
1082
100
AcDbProxyObject
 90
      499
 91
      507
 95
   983063
 70
     0
 93
      428
310
429499585B1A5CDD1A58C0108409028333333333333E3BF0000000000000FB01079019070040501508421405064090741402480A1B45
 94
        0
1001
ACAD
1000
AcDbSavedByObjectVersion
1070
     0
1000
AcRTDxfName
1000
VISUALSTYLE
  0
ACAD_PROXY_OBJECT
  5
108F
102
{ACAD_REACTORS
330
1082
102
}
330
1082
100
AcDbProxyObject
 90
      499
 91
      507
 95
   983063
 70
     0
 93
      420
310
42151A1A58DAD95B8010D409028333333333333E3BF0000000000000FB010790141107004050150C41D405064090741402480A0354
 94
        0
1001
ACAD
1000
AcDbSavedByObjectVersion
1070
     0
1000
AcRTDxfName
1000
VISUALSTYLE
  0
DICTIONARYVAR
  5
1B4F
102
{ACAD_REACTORS
330
3D
102
}
330
3D
100
DictionaryVariables
280
     0
  1
1:1
  0
DICTIONARYVAR
  5
1B4E
102
{ACAD_REACTORS
330
3D
102
}
330
3D
100
DictionaryVariables
280
     0
  1
STANDARD
  0
DICTIONARYVAR
  5
1049
102
{ACAD_REACTORS
330
3D
102
}
330
3D
100
DictionaryVariables
280
     0
  1
STANDARD
  0
DICTIONARYVAR
  5
3F
102
{ACAD_REACTORS
330
3D
102
}
330
3D
100
DictionaryVariables
280
     0
  1
2
  0
DICTIONARYVAR
  5
3E
102
{ACAD_REACTORS
330
3D
102
}
330
3D
100
DictionaryVariables
280
     0
  1
1
  0
DICTIONARYVAR
  5
1B51
102
{ACAD_REACTORS
330
3D
102
}
330
3D
100
DictionaryVariables
280
     0
  1
0
  0
DICTIONARYVAR
  5
1B5C
102
{ACAD_REACTORS
330
3D
102
}
330
3D
100
DictionaryVariables
280
     0
  1

  0
DICTIONARYVAR
  5
1B50
102
{ACAD_REACTORS
330
3D
102
}
330
3D
100
DictionaryVariables
280
     0
  1
127
  0
XRECORD
  5
1067
102
{ACAD_REACTORS
330
1066
102
}
330
1066
100
AcDbXrecord
280
     1
  0
DICTIONARY
  5
1B60
330
1E
100
AcDbDictionary
280
     1
281
     1
  3
ACAD_XREC_ROUNDTRIP
360
1B61
  0
DICTIONARY
  5
1B64
330
26
100
AcDbDictionary
280
     1
281
     1
  3
ACAD_XREC_ROUNDTRIP
360
1B65
  0
DICTIONARY
  5
1B62
330
22
100
AcDbDictionary
280
     1
281
     1
  3
ACAD_XREC_ROUNDTRIP
360
1B63
  0
DICTIONARY
  5
1073
330
1072
100
AcDbDictionary
280
     1
281
     1
  3
ACAD_XREC_ROUNDTRIP
360
1B4C
  3
BUMPTILE
360
1075
  3
DIFFUSETILE
360
1074
  3
OPACITYTILE
360
1078
  3
REFLECTIONTILE
360
1077
  3
REFRACTIONTILE
360
1079
  3
SPECULARTILE
360
1076
  0
DICTIONARY
  5
106B
330
106A
100
AcDbDictionary
280
     1
281
     1
  3
ACAD_XREC_ROUNDTRIP
360
1B4B
  3
BUMPTILE
360
106D
  3
DIFFUSETILE
360
106C
  3
OPACITYTILE
360
1070
  3
REFLECTIONTILE
360
106F
  3
REFRACTIONTILE
360
1071
  3
SPECULARTILE
360
106E
  0
DICTIONARY
  5
107B
330
107A
100
AcDbDictionary
280
     1
281
     1
  3
ACAD_XREC_ROUNDTRIP
360
1B4D
  3
BUMPTILE
360
107D
  3
DIFFUSETILE
360
107C
  3
OPACITYTILE
360
1080
  3
REFLECTIONTILE
360
107F
  3
REFRACTIONTILE
360
1081
  3
SPECULARTILE
360
107E
  0
DICTIONARY
  5
1B3C
330
EE8
100
AcDbDictionary
280
     1
281
     1
  3
ACAD_ROUNDTRIP_2008_TABLESTYLE_CELLSTYLEMAP
360
1B3D
  3
ACAD_XREC_ROUNDTRIP
360
1B4A
  0
XRECORD
  5
1B61
102
{ACAD_REACTORS
330
1B60
102
}
330
1B60
100
AcDbXrecord
280
     1
102
SHADEPLOT
 70
     0
102
SHADEPLOTRESLEVEL
 70
     2
102
SHADEPLOTCUSTOMDPI
 70
   300
  0
XRECORD
  5
1B65
102
{ACAD_REACTORS
330
1B64
102
}
330
1B64
100
AcDbXrecord
280
     1
102
SHADEPLOT
 70
     0
102
SHADEPLOTRESLEVEL
 70
     2
102
SHADEPLOTCUSTOMDPI
 70
   300
  0
XRECORD
  5
1B63
102
{ACAD_REACTORS
330
1B62
102
}
330
1B62
100
AcDbXrecord
280
     1
102
SHADEPLOT
 70
     0
102
SHADEPLOTRESLEVEL
 70
     2
102
SHADEPLOTCUSTOMDPI
 70
   300
  0
XRECORD
  5
1B4C
102
{ACAD_REACTORS
330
1073
102
}
330
1073
100
AcDbXrecord
280
     1
102
MATERIAL
148
0.0
149
0.0
149
0.0
 93
        0
 94
      127
282
     0
 72
     0
 77
     0
171
     0
175
     0
179
     0
273
     0
  0
XRECORD
  5
1075
102
{ACAD_REACTORS
330
1073
102
}
330
1073
100
AcDbXrecord
280
     1
270
     1
271
     1
  0
XRECORD
  5
1074
102
{ACAD_REACTORS
330
1073
102
}
330
1073
100
AcDbXrecord
280
     1
270
     1
271
     1
  0
XRECORD
  5
1078
102
{ACAD_REACTORS
330
1073
102
}
330
1073
100
AcDbXrecord
280
     1
270
     1
271
     1
  0
XRECORD
  5
1077
102
{ACAD_REACTORS
330
1073
102
}
330
1073
100
AcDbXrecord
280
     1
270
     1
271
     1
  0
XRECORD
  5
1079
102
{ACAD_REACTORS
330
1073
102
}
330
1073
100
AcDbXrecord
280
     1
270
     1
271
     1
  0
XRECORD
  5
1076
102
{ACAD_REACTORS
330
1073
102
}
330
1073
100
AcDbXrecord
280
     1
270
     1
271
     1
  0
XRECORD
  5
1B4B
102
{ACAD_REACTORS
330
106B
102
}
330
106B
100
AcDbXrecord
280
     1
102
MATERIAL
148
0.0
149
0.0
149
0.0
 93
        0
 94
      127
282
     0
 72
     0
 77
     0
171
     0
175
     0
179
     0
273
     0
  0
XRECORD
  5
106D
102
{ACAD_REACTORS
330
106B
102
}
330
106B
100
AcDbXrecord
280
     1
270
     1
271
     1
  0
XRECORD
  5
106C
102
{ACAD_REACTORS
330
106B
102
}
330
106B
100
AcDbXrecord
280
     1
270
     1
271
     1
  0
XRECORD
  5
1070
102
{ACAD_REACTORS
330
106B
102
}
330
106B
100
AcDbXrecord
280
     1
270
     1
271
     1
  0
XRECORD
  5
106F
102
{ACAD_REACTORS
330
106B
102
}
330
106B
100
AcDbXrecord
280
     1
270
     1
271
     1
  0
XRECORD
  5
1071
102
{ACAD_REACTORS
330
106B
102
}
330
106B
100
AcDbXrecord
280
     1
270
     1
271
     1
  0
XRECORD
  5
106E
102
{ACAD_REACTORS
330
106B
102
}
330
106B
100
AcDbXrecord
280
     1
270
     1
271
     1
  0
XRECORD
  5
1B4D
102
{ACAD_REACTORS
330
107B
102
}
330
107B
100
AcDbXrecord
280
     1
102
MATERIAL
148
0.0
149
0.0
149
0.0
 93
        0
 94
      127
282
     0
 72
     0
 77
     0
171
     0
175
     0
179
     0
273
     0
  0
XRECORD
  5
107D
102
{ACAD_REACTORS
330
107B
102
}
330
107B
100
AcDbXrecord
280
     1
270
     1
271
     1
  0
XRECORD
  5
107C
102
{ACAD_REACTORS
330
107B
102
}
330
107B
100
AcDbXrecord
280
     1
270
     1
271
     1
  0
XRECORD
  5
1080
102
{ACAD_REACTORS
330
107B
102
}
330
107B
100
AcDbXrecord
280
     1
270
     1
271
     1
  0
XRECORD
  5
107F
102
{ACAD_REACTORS
330
107B
102
}
330
107B
100
AcDbXrecord
280
     1
270
     1
271
     1
  0
XRECORD
  5
1081
102
{ACAD_REACTORS
330
107B
102
}
330
107B
100
AcDbXrecord
280
     1
270
     1
271
     1
  0
XRECORD
  5
107E
102
{ACAD_REACTORS
330
107B
102
}
330
107B
100
AcDbXrecord
280
     1
270
     1
271
     1
  0
ACAD_PROXY_OBJECT
  5
1B3D
102
{ACAD_REACTORS
330
1B3C
102
}
330
1B3C
100
AcDbProxyObject
 90
      499
 91
      513
 95
   983063
 70
     0
 93
     5232
310
40D054060020000020000003200101A412A5058000000C10000000000000006101010000000000003E0FC000000000000F83F0000000000003E0FC000000000000F83F02B5E8DC0F42B1CFC0AD7A3703D0AC73F419019018000000C1003FBFFFFFE02B5E8DC0F42A9CFD029018000000C1003FBFFFFFE02B5E8DC0F42A9CFD
310
049018000000C1003FBFFFFFE02B5E8DC0F42A9CFD089018000000C1003FBFFFFFE02B5E8DC0F42A9CFD109018000000C1003FBFFFFFE02B5E8DC0F42A9CFD209018000000C1003FBFFFFFE02B5E8DC0F42A9CFD01405075F5449544C450041501A8000000C800406904A94160000003040000000000000012404040000000
310
00000F83F0000000000003E0FC000000000000F83F0000000000003E0FC0AD7A3703D0AC73F02B5E8DC0F42B1CFD0640640600000030400FEFFFFFF80AD7A3703D0AA73F40A40600000030400FEFFFFFF80AD7A3703D0AA73F41240600000030400FEFFFFFF80AD7A3703D0AA73F42240600000030400FEFFFFFF80AD7A370
310
3D0AA73F44240600000030400FEFFFFFF80AD7A3703D0AA73F48240600000030400FEFFFFFF80AD7A3703D0AA73F409014217D2115051115480105406A0000003200101A412A5028000000C10000000000000004901010000000000003E0FC000000000000F83F0000000000003E0FC000000000000F83F02B5E8DC0F42B1C
310
FC0AD7A3703D0AC73F419019018000000C1003FBFFFFFE02B5E8DC0F42A9CFD029018000000C1003FBFFFFFE02B5E8DC0F42A9CFD049018000000C1003FBFFFFFE02B5E8DC0F42A9CFD089018000000C1003FBFFFFFE02B5E8DC0F42A9CFD109018000000C1003FBFFFFFE02B5E8DC0F42A9CFD209018000000C1003FBFFFF
310
FE02B5E8DC0F42A9CFD03409065F444154410000
340
11
340
0
340
0
340
0
340
0
340
0
340
0
340
11
340
0
340
0
340
0
340
0
340
0
340
0
340
11
340
0
340
0
340
0
340
0
340
0
340
0
 94
        0
1001
ACAD
1000
AcRTDxfName
1000
CELLSTYLEMAP
  0
XRECORD
  5
1B4A
102
{ACAD_REACTORS
330
1B3C
102
}
330
1B3C
100
AcDbXrecord
280
     1
102
ACAD_ROUNDTRIP_PRE2007_TABLESTYLE
 90
        4
 91
        0
  1

 92
        4
 93
        0
  2

 94
        4
 95
        0
  3

  0
ENDSEC
  0
EOF
