  0
SECTION
  2
HEADER
  9
$ACADVER
  1
AC1015
  9
$ACADMAINTVER
 70
    20
  9
$DWGCODEPAGE
  3
ANSI_1252
  9
$INSBASE
 10
0.0
 20
0.0
 30
0.0
  9
$EXTMIN
 10
676.474430939537
 20
935.0320428058367
 30
0.0
  9
$EXTMAX
 10
678.6771816092121
 20
935.4670428058366
 30
0.0
  9
$LIMMIN
 10
0.0
 20
0.0
  9
$LIMMAX
 10
420.0
 20
297.0
  9
$ORTHOMODE
 70
     1
  9
$REGENMODE
 70
     1
  9
$FILLMODE
 70
     1
  9
$QTEXTMODE
 70
     0
  9
$MIRRTEXT
 70
     1
  9
$LTSCALE
 40
1.0
  9
$ATTMODE
 70
     1
  9
$TEXTSIZE
 40
2.5
  9
$TRACEWID
 40
1.0
  9
$TEXTSTYLE
  7
SANINDUSA
  9
$CLAYER
  8
0
  9
$CELTYPE
  6
ByLayer
  9
$CECOLOR
 62
   256
  9
$CELTSCALE
 40
1.0
  9
$DISPSILH
 70
     0
  9
$DIMSCALE
 40
1.0
  9
$DIMASZ
 40
2.0
  9
$DIMEXO
 40
1.0
  9
$DIMDLI
 40
1.0
  9
$DIMRND
 40
0.0
  9
$DIMDLE
 40
0.0
  9
$DIMEXE
 40
1.0
  9
$DIMTP
 40
0.0
  9
$DIMTM
 40
0.0
  9
$DIMTXT
 40
2.0
  9
$DIMCEN
 40
0.0
  9
$DIMTSZ
 40
0.0
  9
$DIMTOL
 70
     0
  9
$DIMLIM
 70
     0
  9
$DIMTIH
 70
     0
  9
$DIMTOH
 70
     0
  9
$DIMSE1
 70
     0
  9
$DIMSE2
 70
     0
  9
$DIMTAD
 70
     1
  9
$DIMZIN
 70
     8
  9
$DIMBLK
  1

  9
$DIMASO
 70
     1
  9
$DIMSHO
 70
     1
  9
$DIMPOST
  1

  9
$DIMAPOST
  1

  9
$DIMALT
 70
     0
  9
$DIMALTD
 70
     3
  9
$DIMALTF
 40
0.03937007874016
  9
$DIMLFAC
 40
1.0
  9
$DIMTOFL
 70
     1
  9
$DIMTVP
 40
0.0
  9
$DIMTIX
 70
     0
  9
$DIMSOXD
 70
     0
  9
$DIMSAH
 70
     0
  9
$DIMBLK1
  1

  9
$DIMBLK2
  1

  9
$DIMSTYLE
  2
SANINDUSA
  9
$DIMCLRD
 70
   256
  9
$DIMCLRE
 70
   256
  9
$DIMCLRT
 70
   256
  9
$DIMTFAC
 40
1.0
  9
$DIMGAP
 40
1.0
  9
$DIMJUST
 70
     0
  9
$DIMSD1
 70
     0
  9
$DIMSD2
 70
     0
  9
$DIMTOLJ
 70
     0
  9
$DIMTZIN
 70
     8
  9
$DIMALTZ
 70
     0
  9
$DIMALTTZ
 70
     0
  9
$DIMUPT
 70
     0
  9
$DIMDEC
 70
     1
  9
$DIMTDEC
 70
     1
  9
$DIMALTU
 70
     2
  9
$DIMALTTD
 70
     3
  9
$DIMTXSTY
  7
SANINDUSA
  9
$DIMAUNIT
 70
     0
  9
$DIMADEC
 70
     1
  9
$DIMALTRND
 40
0.0
  9
$DIMAZIN
 70
     0
  9
$DIMDSEP
 70
    44
  9
$DIMATFIT
 70
     3
  9
$DIMFRAC
 70
     0
  9
$DIMLDRBLK
  1

  9
$DIMLUNIT
 70
     2
  9
$DIMLWD
 70
    -1
  9
$DIMLWE
 70
    -1
  9
$DIMTMOVE
 70
     0
  9
$LUNITS
 70
     2
  9
$LUPREC
 70
     4
  9
$SKETCHINC
 40
1.0
  9
$FILLETRAD
 40
3.0
  9
$AUNITS
 70
     0
  9
$AUPREC
 70
     0
  9
$MENU
  1
.
  9
$ELEVATION
 40
0.0
  9
$PELEVATION
 40
0.0
  9
$THICKNESS
 40
0.0
  9
$LIMCHECK
 70
     0
  9
$CHAMFERA
 40
10.0
  9
$CHAMFERB
 40
10.0
  9
$CHAMFERC
 40
20.0
  9
$CHAMFERD
 40
0.0
  9
$SKPOLY
 70
     0
  9
$TDCREATE
 40
2453570.414467222
  9
$TDUCREATE
 40
2453570.372800556
  9
$TDUPDATE
 40
2453927.479502315
  9
$TDUUPDATE
 40
2453927.437835648
  9
$TDINDWG
 40
0.0030899190
  9
$TDUSRTIMER
 40
0.0030899190
  9
$USRTIMER
 70
     1
  9
$ANGBASE
 50
0.0
  9
$ANGDIR
 70
     0
  9
$PDMODE
 70
     0
  9
$PDSIZE
 40
0.0
  9
$PLINEWID
 40
0.0
  9
$SPLFRAME
 70
     0
  9
$SPLINETYPE
 70
     6
  9
$SPLINESEGS
 70
     8
  9
$HANDSEED
  5
F74
  9
$SURFTAB1
 70
     6
  9
$SURFTAB2
 70
     6
  9
$SURFTYPE
 70
     6
  9
$SURFU
 70
     6
  9
$SURFV
 70
     6
  9
$UCSBASE
  2

  9
$UCSNAME
  2

  9
$UCSORG
 10
0.0
 20
0.0
 30
0.0
  9
$UCSXDIR
 10
1.0
 20
0.0
 30
0.0
  9
$UCSYDIR
 10
0.0
 20
1.0
 30
0.0
  9
$UCSORTHOREF
  2

  9
$UCSORTHOVIEW
 70
     0
  9
$UCSORGTOP
 10
0.0
 20
0.0
 30
0.0
  9
$UCSORGBOTTOM
 10
0.0
 20
0.0
 30
0.0
  9
$UCSORGLEFT
 10
0.0
 20
0.0
 30
0.0
  9
$UCSORGRIGHT
 10
0.0
 20
0.0
 30
0.0
  9
$UCSORGFRONT
 10
0.0
 20
0.0
 30
0.0
  9
$UCSORGBACK
 10
0.0
 20
0.0
 30
0.0
  9
$PUCSBASE
  2

  9
$PUCSNAME
  2

  9
$PUCSORG
 10
0.0
 20
0.0
 30
0.0
  9
$PUCSXDIR
 10
1.0
 20
0.0
 30
0.0
  9
$PUCSYDIR
 10
0.0
 20
1.0
 30
0.0
  9
$PUCSORTHOREF
  2

  9
$PUCSORTHOVIEW
 70
     0
  9
$PUCSORGTOP
 10
0.0
 20
0.0
 30
0.0
  9
$PUCSORGBOTTOM
 10
0.0
 20
0.0
 30
0.0
  9
$PUCSORGLEFT
 10
0.0
 20
0.0
 30
0.0
  9
$PUCSORGRIGHT
 10
0.0
 20
0.0
 30
0.0
  9
$PUCSORGFRONT
 10
0.0
 20
0.0
 30
0.0
  9
$PUCSORGBACK
 10
0.0
 20
0.0
 30
0.0
  9
$USERI1
 70
     0
  9
$USERI2
 70
     0
  9
$USERI3
 70
     0
  9
$USERI4
 70
     0
  9
$USERI5
 70
     0
  9
$USERR1
 40
0.0
  9
$USERR2
 40
0.0
  9
$USERR3
 40
0.0
  9
$USERR4
 40
0.0
  9
$USERR5
 40
0.0
  9
$WORLDVIEW
 70
     1
  9
$SHADEDGE
 70
     3
  9
$SHADEDIF
 70
    70
  9
$TILEMODE
 70
     1
  9
$MAXACTVP
 70
    64
  9
$PINSBASE
 10
0.0
 20
0.0
 30
0.0
  9
$PLIMCHECK
 70
     0
  9
$PEXTMIN
 10
1.000000000000000E+20
 20
1.000000000000000E+20
 30
1.000000000000000E+20
  9
$PEXTMAX
 10
-1.000000000000000E+20
 20
-1.000000000000000E+20
 30
-1.000000000000000E+20
  9
$PLIMMIN
 10
0.0
 20
0.0
  9
$PLIMMAX
 10
420.0
 20
297.0
  9
$UNITMODE
 70
     0
  9
$VISRETAIN
 70
     1
  9
$PLINEGEN
 70
     0
  9
$PSLTSCALE
 70
     1
  9
$TREEDEPTH
 70
  3020
  9
$CMLSTYLE
  2
Standard
  9
$CMLJUST
 70
     0
  9
$CMLSCALE
 40
20.0
  9
$PROXYGRAPHICS
 70
     1
  9
$MEASUREMENT
 70
     1
  9
$CELWEIGHT
370
    -1
  9
$ENDCAPS
280
     0
  9
$JOINSTYLE
280
     0
  9
$LWDISPLAY
290
     0
  9
$INSUNITS
 70
     4
  9
$HYPERLINKBASE
  1

  9
$STYLESHEET
  1
monochrome.ctb
  9
$XEDIT
290
     1
  9
$CEPSNTYPE
380
     0
  9
$PSTYLEMODE
290
     1
  9
$FINGERPRINTGUID
  2
{BF61920A-50FD-4700-9821-20F65C122C88}
  9
$VERSIONGUID
  2
{603A9025-331B-43A0-8ABC-DB46FF1AFAD7}
  9
$EXTNAMES
290
     1
  9
$PSVPSCALE
 40
0.0
  9
$OLESTARTUP
290
     0
  0
ENDSEC
  0
SECTION
  2
CLASSES
  0
CLASS
  1
ACDBDICTIONARYWDFLT
  2
AcDbDictionaryWithDefault
  3
ObjectDBX Classes
 90
        0
280
     0
281
     0
  0
CLASS
  1
ACDBPLACEHOLDER
  2
AcDbPlaceHolder
  3
ObjectDBX Classes
 90
        0
280
     0
281
     0
  0
CLASS
  1
LAYOUT
  2
AcDbLayout
  3
ObjectDBX Classes
 90
        0
280
     0
281
     0
  0
CLASS
  1
DICTIONARYVAR
  2
AcDbDictionaryVar
  3
ObjectDBX Classes
 90
        0
280
     0
281
     0
  0
CLASS
  1
DIMASSOC
  2
AcDbDimAssoc
  3
"AcDbDimAssoc|Product Desc:     AcDim ARX App For Dimension|Company:          Autodesk, Inc.|WEB Address:      www.autodesk.com"
 90
    32768
280
     0
281
     0
  0
CLASS
  1
TABLESTYLE
  2
AcDbTableStyle
  3
ObjectDBX Classes
 90
     2047
280
     0
281
     0
  0
CLASS
  1
SORTENTSTABLE
  2
AcDbSortentsTable
  3
ObjectDBX Classes
 90
    32768
280
     0
281
     0
  0
ENDSEC
  0
SECTION
  2
TABLES
  0
TABLE
  2
VPORT
  5
8
330
0
100
AcDbSymbolTable
 70
     2
  0
VPORT
  5
F6C
330
8
100
AcDbSymbolTableRecord
100
AcDbViewportTableRecord
  2
*Active
 70
     0
 10
0.0
 20
0.0
 11
1.0
 21
1.0
 12
677.5758062743745
 22
935.2495428058366
 13
0.0
 23
0.0
 14
10.0
 24
10.0
 15
10.0
 25
10.0
 16
0.0
 26
0.0
 36
1.0
 17
0.0
 27
0.0
 37
0.0
 40
1.387203117240301
 41
1.593939393939393
 42
50.0
 43
0.0
 44
0.0
 50
0.0
 51
0.0
 71
     0
 72
   100
 73
     1
 74
     2
 75
     0
 76
     0
 77
     0
 78
     0
281
     0
 65
     1
110
0.0
120
0.0
130
0.0
111
1.0
121
0.0
131
0.0
112
0.0
122
1.0
132
0.0
 79
     0
146
0.0
  0
ENDTAB
  0
TABLE
  2
LTYPE
  5
5
330
0
100
AcDbSymbolTable
 70
     3
  0
LTYPE
  5
14
330
5
100
AcDbSymbolTableRecord
100
AcDbLinetypeTableRecord
  2
ByBlock
 70
     0
  3

 72
    65
 73
     0
 40
0.0
  0
LTYPE
  5
15
330
5
100
AcDbSymbolTableRecord
100
AcDbLinetypeTableRecord
  2
ByLayer
 70
     0
  3

 72
    65
 73
     0
 40
0.0
  0
LTYPE
  5
16
330
5
100
AcDbSymbolTableRecord
100
AcDbLinetypeTableRecord
  2
Continuous
 70
     0
  3
Solid line
 72
    65
 73
     0
 40
0.0
  0
LTYPE
  5
2D
330
5
100
AcDbSymbolTableRecord
100
AcDbLinetypeTableRecord
  2
DASHDOT
 70
     0
  3
Dash dot __ . __ . __ . __ . __ . __ . __ . __
 72
    65
 73
     4
 40
25.4
 49
12.7
 74
     0
 49
-6.349999999999999
 74
     0
 49
0.0
 74
     0
 49
-6.349999999999999
 74
     0
  0
LTYPE
  5
2E
330
5
100
AcDbSymbolTableRecord
100
AcDbLinetypeTableRecord
  2
HIDDEN
 70
     0
  3
Hidden __ __ __ __ __ __ __ __ __ __ __ __ __ _
 72
    65
 73
     2
 40
9.524999999999998
 49
6.349999999999999
 74
     0
 49
-3.174999999999999
 74
     0
  0
ENDTAB
  0
TABLE
  2
LAYER
  5
2
330
0
100
AcDbSymbolTable
 70
    16
  0
LAYER
  5
10
330
2
100
AcDbSymbolTableRecord
100
AcDbLayerTableRecord
  2
0
 70
     0
 62
     7
  6
Continuous
370
    -3
390
F
  0
LAYER
  5
2F
330
2
100
AcDbSymbolTableRecord
100
AcDbLayerTableRecord
  2
1
 70
     0
 62
     1
  6
Continuous
370
    -3
390
F
  0
LAYER
  5
30
330
2
100
AcDbSymbolTableRecord
100
AcDbLayerTableRecord
  2
2
 70
     0
 62
     2
  6
Continuous
370
    -3
390
F
  0
LAYER
  5
31
330
2
100
AcDbSymbolTableRecord
100
AcDbLayerTableRecord
  2
3
 70
     0
 62
     3
  6
Continuous
370
    -3
390
F
  0
LAYER
  5
32
330
2
100
AcDbSymbolTableRecord
100
AcDbLayerTableRecord
  2
4
 70
     0
 62
     4
  6
Continuous
370
    -3
390
F
  0
LAYER
  5
33
330
2
100
AcDbSymbolTableRecord
100
AcDbLayerTableRecord
  2
5
 70
     0
 62
     5
  6
Continuous
370
    -3
390
F
  0
LAYER
  5
34
330
2
100
AcDbSymbolTableRecord
100
AcDbLayerTableRecord
  2
6
 70
     0
 62
     6
  6
Continuous
370
    -3
390
F
  0
LAYER
  5
35
330
2
100
AcDbSymbolTableRecord
100
AcDbLayerTableRecord
  2
7
 70
     0
 62
     7
  6
Continuous
370
    -3
390
F
  0
LAYER
  5
36
330
2
100
AcDbSymbolTableRecord
100
AcDbLayerTableRecord
  2
cen
 70
     0
 62
     7
  6
DASHDOT
370
    -3
390
F
  0
LAYER
  5
37
330
2
100
AcDbSymbolTableRecord
100
AcDbLayerTableRecord
  2
hid
 70
     0
 62
     7
  6
HIDDEN
370
    -3
390
F
  0
LAYER
  5
5D6
330
2
100
AcDbSymbolTableRecord
100
AcDbLayerTableRecord
  2
hatch
 70
     0
 62
     9
  6
Continuous
370
    -3
390
F
  0
LAYER
  5
8AF
330
2
100
AcDbSymbolTableRecord
100
AcDbLayerTableRecord
  2
9
 70
     0
 62
     9
  6
Continuous
370
    -3
390
F
  0
LAYER
  5
8F8
330
2
100
AcDbSymbolTableRecord
100
AcDbLayerTableRecord
  2
leg fin
 70
     0
 62
     9
  6
Continuous
370
    -3
390
F
  0
LAYER
  5
91D
330
2
100
AcDbSymbolTableRecord
100
AcDbLayerTableRecord
  2
cotas
 70
     0
 62
     1
  6
Continuous
370
    -3
390
F
  0
LAYER
  5
92F
330
2
100
AcDbSymbolTableRecord
100
AcDbLayerTableRecord
  2
Defpoints
 70
     0
 62
     7
  6
Continuous
290
     0
370
    -3
390
F
  0
LAYER
  5
BA5
330
2
100
AcDbSymbolTableRecord
100
AcDbLayerTableRecord
  2
SANINDUSA
 70
     0
 62
     3
  6
Continuous
370
    -3
390
F
  0
ENDTAB
  0
TABLE
  2
STYLE
  5
3
330
0
100
AcDbSymbolTable
 70
     3
  0
STYLE
  5
11
330
3
100
AcDbSymbolTableRecord
100
AcDbTextStyleTableRecord
  2
Standard
 70
     0
 40
0.0
 41
1.0
 50
0.0
 71
     0
 42
2.5
  3
Avgardn.ttf
  4

1001
ACAD
1000
AvantGarde Bk BT
1071
       34
  0
STYLE
  5
2C
330
3
100
AcDbSymbolTableRecord
100
AcDbTextStyleTableRecord
  2

 70
     1
 40
0.0
 41
1.0
 50
0.0
 71
     0
 42
2.5
  3
ltypeshp.shx
  4

  0
STYLE
  5
91F
330
3
100
AcDbSymbolTableRecord
100
AcDbTextStyleTableRecord
  2
SANINDUSA
 70
     0
 40
0.0
 41
1.0
 50
0.0
 71
     0
 42
2.5
  3
verdana.TTF
  4

1001
ACAD
1000
Verdana
1071
       34
  0
ENDTAB
  0
TABLE
  2
VIEW
  5
6
330
0
100
AcDbSymbolTable
 70
     0
  0
ENDTAB
  0
TABLE
  2
UCS
  5
7
330
0
100
AcDbSymbolTable
 70
     0
  0
ENDTAB
  0
TABLE
  2
APPID
  5
9
330
0
100
AcDbSymbolTable
 70
     6
  0
APPID
  5
12
330
9
100
AcDbSymbolTableRecord
100
AcDbRegAppTableRecord
  2
ACAD
 70
     0
  0
APPID
  5
3A
330
9
100
AcDbSymbolTableRecord
100
AcDbRegAppTableRecord
  2
DCO15
 70
     0
  0
APPID
  5
C83
330
9
100
AcDbSymbolTableRecord
100
AcDbRegAppTableRecord
  2
ACAD_DSTYLE_DIMEXT_LENGTH
 70
     0
  0
APPID
  5
C84
330
9
100
AcDbSymbolTableRecord
100
AcDbRegAppTableRecord
  2
ACAD_DSTYLE_DIMEXT_ENABLED
 70
     0
  0
APPID
  5
C85
330
9
100
AcDbSymbolTableRecord
100
AcDbRegAppTableRecord
  2
ACAD_DSTYLE_DIMJOGGED_JOGANGLE_SYMBOL
 70
     0
  0
APPID
  5
C86
330
9
100
AcDbSymbolTableRecord
100
AcDbRegAppTableRecord
  2
ACAD_DSTYLE_DIMARC_LENGTH_SYMBOL
 70
     0
  0
ENDTAB
  0
TABLE
  2
DIMSTYLE
  5
A
330
0
100
AcDbSymbolTable
 70
     2
100
AcDbDimStyleTable
 71
     1
340
921
  0
DIMSTYLE
105
45
330
A
100
AcDbSymbolTableRecord
100
AcDbDimStyleTableRecord
  2
STANDARD
 70
     0
289
     0
340
11
  0
DIMSTYLE
105
921
330
A
100
AcDbSymbolTableRecord
100
AcDbDimStyleTableRecord
  2
SANINDUSA
 70
     0
 41
2.0
 42
1.0
 43
1.0
 44
1.0
 73
     0
 74
     0
 77
     1
 78
     8
140
2.0
141
0.0
143
0.03937007874016
147
1.0
171
     3
172
     1
176
   256
177
   256
178
   256
179
     1
271
     1
272
     1
274
     3
278
    44
283
     0
284
     8
340
91F
371
    -1
372
    -1
  0
ENDTAB
  0
TABLE
  2
BLOCK_RECORD
  5
1
330
0
100
AcDbSymbolTable
 70
    42
  0
BLOCK_RECORD
  5
1F
330
1
100
AcDbSymbolTableRecord
100
AcDbBlockTableRecord
  2
*Model_Space
340
22
  0
BLOCK_RECORD
  5
1B
330
1
100
AcDbSymbolTableRecord
100
AcDbBlockTableRecord
  2
*Paper_Space
340
1E
  0
BLOCK_RECORD
  5
23
330
1
100
AcDbSymbolTableRecord
100
AcDbBlockTableRecord
  2
*Paper_Space0
340
26
  0
BLOCK_RECORD
  5
919
330
1
100
AcDbSymbolTableRecord
100
AcDbBlockTableRecord
  2
_DotSmall
340
0
  0
BLOCK_RECORD
  5
922
330
1
100
AcDbSymbolTableRecord
100
AcDbBlockTableRecord
  2
base para cotas
340
0
310
2800000020000000200000000100080000000000000400000000000000000000000000000000000000000000000080000080000000808000800000008000800080800000C0C0C000C0DCC000F0CAA6000020400000206000002080000020A0000020C0000020E00000400000004020000040400000406000004080000040A0
310
000040C0000040E00000600000006020000060400000606000006080000060A0000060C0000060E00000800000008020000080400000806000008080000080A0000080C0000080E00000A0000000A0200000A0400000A0600000A0800000A0A00000A0C00000A0E00000C0000000C0200000C0400000C0600000C0800000C0
310
A00000C0C00000C0E00000E0000000E0200000E0400000E0600000E0800000E0A00000E0C00000E0E00040000000400020004000400040006000400080004000A0004000C0004000E00040200000402020004020400040206000402080004020A0004020C0004020E000404000004040200040404000404060004040800040
310
40A0004040C0004040E00040600000406020004060400040606000406080004060A0004060C0004060E00040800000408020004080400040806000408080004080A0004080C0004080E00040A0000040A0200040A0400040A0600040A0800040A0A00040A0C00040A0E00040C0000040C0200040C0400040C0600040C08000
310
40C0A00040C0C00040C0E00040E0000040E0200040E0400040E0600040E0800040E0A00040E0C00040E0E00080000000800020008000400080006000800080008000A0008000C0008000E00080200000802020008020400080206000802080008020A0008020C0008020E00080400000804020008040400080406000804080
310
008040A0008040C0008040E00080600000806020008060400080606000806080008060A0008060C0008060E00080800000808020008080400080806000808080008080A0008080C0008080E00080A0000080A0200080A0400080A0600080A0800080A0A00080A0C00080A0E00080C0000080C0200080C0400080C0600080C0
310
800080C0A00080C0C00080C0E00080E0000080E0200080E0400080E0600080E0800080E0A00080E0C00080E0E000C0000000C0002000C0004000C0006000C0008000C000A000C000C000C000E000C0200000C0202000C0204000C0206000C0208000C020A000C020C000C020E000C0400000C0402000C0404000C0406000C0
310
408000C040A000C040C000C040E000C0600000C0602000C0604000C0606000C0608000C060A000C060C000C060E000C0800000C0802000C0804000C0806000C0808000C080A000C080C000C080E000C0A00000C0A02000C0A04000C0A06000C0A08000C0A0A000C0A0C000C0A0E000C0C00000C0C02000C0C04000C0C06000
310
C0C08000C0C0A000F0FBFF00A4A0A000808080000000FF0000FF000000FFFF00FF000000FF00FF00FFFF0000FFFFFF00A4A4A4A4A4A4A4A4A4A4A4A4A4A4A4A4A4A4A4A4A4A4A4A4A4A4A4A4A4A4A4A4A4A4A4A4A4A4A4A4A4A4A4A4A4A4A4A4A4A4A4A4A4A4A4A4A4A4A4A4A4A4A4A4A4A4A4A4A4A4A4A4A4A4A4A4A4A4A4
310
A4A4A4A4A4A4A4A4A4A4A4A4A4A4A4A4A4A4A4A4A4A4A4A4A4A4A4A4A4A4A4A4A4A4A4A4A4A4A4A4A4A4A4A4A4A4A4A4A4A4A4A4A4A4A4A4A4A4A4A4A4A4A4A4A4A4A4A4A4A4A4A4A4A4A4A4A4A4A4A4A4A4A4A4A4A4A4A4A4A4A4A4A4A4A4A4A4A4A4A4A4A4A4A4A4A4A4A4A4A4A4A4A4A4A4A4A4A4A4A4A4A4A4A4A4A4A4
310
A4A4A4A4A4A4A4A4A4A4A4A4A4A4A4A4A4A4A4A4A4A4A4A4A4A4A4A4A4A4A4A4A4A4A4A4A4A4A4A4A4A4A4A4A4A4A4A4A4A4A4A4A4A4A4A4A4A4A4A4A4A4A4A4A4A4A4A4A4A4A4A4A4A4A4A4A4A4A4A4A4A4A4A4A4A4A4A4A4A4A4A4A4A4A4A4A4A4A4A4A4A4A4A4A4A4A4A4A4A4A4A4A4A4A4A4A4A4A4A4A4A4A4A4A4A4A4
310
A4A4A4A4A4A4A4A4A4A4A4A4A4A4A4A4A4A4A4A4A4A4A4A4A4A4A4A4A4A4A4A4A4A4A4A4A4A4A4A4A4A4A4A4A4A4A4A4A4A4A4A4A4A4A4A4A4A4A4A4A4A4A4A4A4A4A4A4A4A4A4A4A4A4A4A4A4A4A4A4A4A4A4A4A4A4A4A4A4A4A4A4A4A4A4A4A4A4A4A4A4A4A4A4A4A4A4A4A4A4A4A4A4A4A4A4F9F9F9F9F9F9F9F9F9F9F9
310
F9F9F9F9F9F9F9F9F9F9F9F9F9F9F9F9F9F9F9A4A4F9F9F9F9F9F9F9F9F9F9F9F9F9F9F9F9F9F9F9F9F9F9F9F9F9F9F9F9F9F9A4A4F9F9F9F9F9F9F9F9F9F9F9F9F9F9F9F9F9F9F9F9F9F9F9F9F9F9F9F9F9F9A4A4F9A4A4A4A4A4A4A4A4A4A4A4A4A4A4A4A4A4A4A4A4A4A4A4A4A4A4A4A4F9A4A4A4A4A4A4A4A4A4A4A4A4
310
A4A4A4A4A4A4A4A4A4A4A4A4A4A4A4A4A4A4A4A4A4A4A4A4A4A4A4A4A4A4A4A4A4A4A4A4A4A4A4A4A4A4A4A4A4A4A4A4A4A4A4A4A4A4A4A4A4A4A4A4A4A4A4A4A4A4A4A4A4A4A4A4A4A4A4A4A4A4A4A4A4A4A4A4A4A4A4A4A4A4A4A4A4A4A4A4A4A4A4A4A4A4A4A4A4A4A4A4A4A4A4A4A4A4A4A4A4A4A4A4A4A4A4A4A4A4A4
310
A4A4A4A4A4A4A4A4A4A4A4A4A4A4A4A4A4A4A4A4A4A4A4A4A4A4A4A4A4A4A4A4A4A4A4A4A4A4A4A4A4A4A4A4A4A4A4A4A4A4A4A4A4A4A4A4A4A4A4A4A4A4A4A4A4A4A4A4A4A4A4A4A4A4A4A4A4A4A4A4A4A4A4A4A4A4A4A4A4A4A4A4A4A4A4A4A4A4A4A4A4A4A4A4A4A4A4A4A4A4A4A4A4A4A4A4A4A4A4A4A4A4A4A4A4A4A4
310
A4A4A4A4A4A4A4A4A4A4A4A4A4A4A4A4A4A4A4A4A4A4A4A4A4A4A4A4A4A4A4A4A4A4A4A4A4A4A4A4A4A4A4A4A4A4A4A4A4A4A4A4A4A4A4A4A4A4A4A4A4A4A4A4A4A4A4A4A4A4A4A4A4A4A4A4A4A4A4A4A4A4A4A4A4A4A4A4A4A4A4A4A4A4A4A4A4A4A4A4A4A4A4A4A4A4A4A4A4A4A4A4A4A4A4A4A4A4A4A4A4A4A4A4A4A4A4
310
A4A4A4A4A4A4A4A4A4A4A4A4A4A4A4A4A4A4A4A4A4A4A4A4A4A4A4A4A4A4A4A4A4A4A4A4A4A4A4A4A4A4A4A4A4A4A4A4A4A4A4A4A4A4A4A4
1001
ACAD
1000
DesignCenter Data
1002
{
1070
     1
1070
     4
1002
}
  0
BLOCK_RECORD
  5
AA8
330
1
100
AcDbSymbolTableRecord
100
AcDbBlockTableRecord
  2
_CLOSED
340
0
  0
ENDTAB
  0
ENDSEC
  0
SECTION
  2
BLOCKS
  0
BLOCK
  5
20
330
1F
100
AcDbEntity
  8
0
100
AcDbBlockBegin
  2
*Model_Space
 70
     0
 10
0.0
 20
0.0
 30
0.0
  3
*Model_Space
  1

  0
ENDBLK
  5
21
330
1F
100
AcDbEntity
  8
0
100
AcDbBlockEnd
  0
BLOCK
  5
1C
330
1B
100
AcDbEntity
 67
     1
  8
0
100
AcDbBlockBegin
  2
*Paper_Space
 70
     0
 10
0.0
 20
0.0
 30
0.0
  3
*Paper_Space
  1

  0
ENDBLK
  5
1D
330
1B
100
AcDbEntity
 67
     1
  8
0
100
AcDbBlockEnd
  0
BLOCK
  5
24
330
23
100
AcDbEntity
 67
     1
  8
0
100
AcDbBlockBegin
  2
*Paper_Space0
 70
     0
 10
0.0
 20
0.0
 30
0.0
  3
*Paper_Space0
  1

  0
ENDBLK
  5
25
330
23
100
AcDbEntity
 67
     1
  8
0
100
AcDbBlockEnd
  0
BLOCK
  5
91B
330
919
100
AcDbEntity
  8
0
100
AcDbBlockBegin
  2
_DotSmall
 70
     0
 10
0.0
 20
0.0
 30
0.0
  3
_DotSmall
  1

  0
LWPOLYLINE
  5
91A
330
919
100
AcDbEntity
  8
0
  6
ByBlock
 62
     0
100
AcDbPolyline
 90
        2
 70
     1
 43
0.5
 10
-0.0625
 20
0.0
 42
1.0
 10
0.0625
 20
0.0
 42
1.0
  0
ENDBLK
  5
91C
330
919
100
AcDbEntity
  8
0
100
AcDbBlockEnd
  0
BLOCK
  5
92A
330
922
100
AcDbEntity
  8
0
100
AcDbBlockBegin
  2
base para cotas
 70
     0
 10
0.0
 20
0.0
 30
0.0
  3
base para cotas
  1

  0
LINE
  5
B36
330
922
100
AcDbEntity
  8
cotas
100
AcDbLine
 10
0.0
 20
-30.0
 30
0.0
 11
327.1260136525398
 21
-30.0
 31
0.0
  0
LINE
  5
B37
330
922
100
AcDbEntity
  8
cotas
100
AcDbLine
 10
0.0
 20
-25.0
 30
0.0
 11
327.1260136525398
 21
-25.0
 31
0.0
  0
LINE
  5
B38
330
922
100
AcDbEntity
  8
cotas
100
AcDbLine
 10
0.0
 20
-20.0
 30
0.0
 11
327.1260136525398
 21
-20.0
 31
0.0
  0
LINE
  5
B39
330
922
100
AcDbEntity
  8
cotas
100
AcDbLine
 10
0.0
 20
-15.0
 30
0.0
 11
327.1260136525398
 21
-15.0
 31
0.0
  0
LINE
  5
B3A
330
922
100
AcDbEntity
  8
cotas
100
AcDbLine
 10
0.0
 20
-10.0
 30
0.0
 11
327.1260136525398
 21
-10.0
 31
0.0
  0
LINE
  5
B3B
330
922
100
AcDbEntity
  8
cotas
100
AcDbLine
 10
0.0
 20
0.0
 30
0.0
 11
0.0
 21
-30.0
 31
0.0
  0
LINE
  5
B3C
330
922
100
AcDbEntity
  8
cotas
100
AcDbLine
 10
327.1260136525398
 20
-30.0
 30
0.0
 11
327.1260136525398
 21
0.0
 31
0.0
  0
ENDBLK
  5
92B
330
922
100
AcDbEntity
  8
0
100
AcDbBlockEnd
  0
BLOCK
  5
AAD
330
AA8
100
AcDbEntity
  8
0
100
AcDbBlockBegin
  2
_CLOSED
 70
     0
 10
0.0
 20
0.0
 30
0.0
  3
_CLOSED
  1

  0
LINE
  5
AA9
330
AA8
100
AcDbEntity
  8
0
100
AcDbLine
 10
-1.0
 20
0.166667
 30
0.0
 11
0.0
 21
0.0
 31
0.0
  0
LINE
  5
AAA
330
AA8
100
AcDbEntity
  8
0
100
AcDbLine
 10
0.0
 20
0.0
 30
0.0
 11
-1.0
 21
-0.166667
 31
0.0
  0
LINE
  5
AAB
330
AA8
100
AcDbEntity
  8
0
100
AcDbLine
 10
-1.0
 20
0.166667
 30
0.0
 11
-1.0
 21
-0.166667
 31
0.0
  0
LINE
  5
AAC
330
AA8
100
AcDbEntity
  8
0
100
AcDbLine
 10
0.0
 20
0.0
 30
0.0
 11
-1.0
 21
0.0
 31
0.0
  0
ENDBLK
  5
AAE
330
AA8
100
AcDbEntity
  8
0
100
AcDbBlockEnd
  0
ENDSEC
  0
SECTION
  2
ENTITIES
  0
ARC
  5
D6D
330
1F
100
AcDbEntity
  8
SANINDUSA
100
AcDbCircle
 10
677.3675728913475
 20
935.2685902589067
 30
0.0
 40
0.0689143437239021
100
AcDbArc
 50
0.0
 51
9.772583339407018
  0
ARC
  5
D6E
330
1F
100
AcDbEntity
  8
SANINDUSA
100
AcDbCircle
 10
677.4256323427436
 20
935.2785902589067
 30
0.0
 40
0.01
100
AcDbArc
 50
9.772583339407018
 51
90.0
  0
ARC
  5
D6F
330
1F
100
AcDbEntity
  8
SANINDUSA
100
AcDbCircle
 10
677.0123421273991
 20
935.2785902589067
 30
0.0
 40
0.01
100
AcDbArc
 50
90.0
 51
170.227416660593
  0
LINE
  5
D70
330
1F
100
AcDbEntity
  8
SANINDUSA
100
AcDbLine
 10
677.4256323427436
 20
935.2885902589067
 30
0.0
 11
677.0123421273991
 21
935.2885902589067
 31
0.0
  0
LINE
  5
D71
330
1F
100
AcDbEntity
  8
SANINDUSA
100
AcDbLine
 10
677.025947628786
 20
935.2685902589067
 30
0.0
 11
677.036040239339
 21
935.2293412178667
 31
0.0
  0
LINE
  5
D72
330
1F
100
AcDbEntity
  8
SANINDUSA
100
AcDbLine
 10
677.4019342308037
 20
935.2293412178667
 30
0.0
 11
677.4120268413569
 21
935.2685902589067
 31
0.0
  0
ARC
  5
D73
330
1F
100
AcDbEntity
  8
SANINDUSA
100
AcDbCircle
 10
677.0370087322715
 20
935.2295902589066
 30
0.0
 40
0.0010000000000001
100
AcDbArc
 50
194.4207731312961
 51
270.0
  0
ARC
  5
D74
330
1F
100
AcDbEntity
  8
SANINDUSA
100
AcDbCircle
 10
677.4009657378711
 20
935.2295902589066
 30
0.0
 40
0.0010000000000001
100
AcDbArc
 50
270.0
 51
345.5792268687039
  0
ARC
  5
D75
330
1F
100
AcDbEntity
  8
SANINDUSA
100
AcDbCircle
 10
677.1575891962166
 20
935.2235902589066
 30
0.0
 40
0.005
100
AcDbArc
 50
90.0
 51
169.999999998777
  0
LINE
  5
D76
330
1F
100
AcDbEntity
  8
SANINDUSA
100
AcDbLine
 10
677.0603096882532
 20
935.2244563643903
 30
0.0
 11
677.0615509877286
 21
935.2174166107289
 31
0.0
  0
LINE
  5
D77
330
1F
100
AcDbEntity
  8
SANINDUSA
100
AcDbLine
 10
677.1514234824141
 20
935.2174166107289
 30
0.0
 11
677.1526651574515
 21
935.2244584997949
 31
0.0
  0
ARC
  5
D78
330
1F
100
AcDbEntity
  8
SANINDUSA
100
AcDbCircle
 10
677.1504386746611
 20
935.2175902589065
 30
0.0
 40
0.0010000000000001
100
AcDbArc
 50
270.0
 51
349.999999998777
  0
ARC
  5
D79
330
1F
100
AcDbEntity
  8
SANINDUSA
100
AcDbCircle
 10
677.0625357954817
 20
935.2175902589065
 30
0.0
 40
0.0010000000000001
100
AcDbArc
 50
190.000000001223
 51
270.0
  0
ARC
  5
D7A
330
1F
100
AcDbEntity
  8
SANINDUSA
100
AcDbCircle
 10
677.0553851144368
 20
935.2235911634156
 30
0.0
 40
0.005
100
AcDbArc
 50
9.964629692932804
 51
89.55189987801217
  0
LINE
  5
D7C
330
1F
100
AcDbEntity
  8
SANINDUSA
100
AcDbLine
 10
677.4364872350713
 20
935.2685902589067
 30
0.0
 11
677.0014872350714
 21
935.2685902589067
 31
0.0
  0
LINE
  5
D7E
330
1F
100
AcDbEntity
  8
SANINDUSA
100
AcDbLine
 10
677.2189872350714
 20
935.2285902589066
 30
0.0
 11
677.0370087322715
 21
935.2285902589066
 31
0.0
  0
LINE
  5
D7F
330
1F
100
AcDbEntity
  8
SANINDUSA
100
AcDbLine
 10
677.4009657378711
 20
935.2285902589066
 30
0.0
 11
677.2189872350714
 21
935.2285902589066
 31
0.0
  0
LINE
  5
D84
330
1F
100
AcDbEntity
  8
SANINDUSA
100
AcDbLine
 10
677.1504386746611
 20
935.2165902589065
 30
0.0
 11
677.0625357954817
 21
935.2165902589065
 31
0.0
  0
ARC
  5
D85
330
1F
100
AcDbEntity
  8
SANINDUSA
100
AcDbCircle
 10
677.9850654831804
 20
935.2685902589067
 30
0.0
 40
0.0689143437239022
100
AcDbArc
 50
0.0
 51
9.772583339407018
  0
ARC
  5
D86
330
1F
100
AcDbEntity
  8
SANINDUSA
100
AcDbCircle
 10
677.6878941706282
 20
935.2685902589067
 30
0.0
 40
0.0689143437239021
100
AcDbArc
 50
170.227416660593
 51
180.0
  0
ARC
  5
D87
330
1F
100
AcDbEntity
  8
SANINDUSA
100
AcDbCircle
 10
678.0431249345765
 20
935.2785902589067
 30
0.0
 40
0.01
100
AcDbArc
 50
9.772583339407018
 51
90.0
  0
ARC
  5
D88
330
1F
100
AcDbEntity
  8
SANINDUSA
100
AcDbCircle
 10
677.6298347192321
 20
935.2785902589067
 30
0.0
 40
0.01
100
AcDbArc
 50
90.0
 51
170.227416660593
  0
LINE
  5
D89
330
1F
100
AcDbEntity
  8
SANINDUSA
100
AcDbLine
 10
678.0431249345765
 20
935.2885902589067
 30
0.0
 11
677.6298347192321
 21
935.2885902589067
 31
0.0
  0
LINE
  5
D8A
330
1F
100
AcDbEntity
  8
SANINDUSA
100
AcDbLine
 10
677.6434402206188
 20
935.2685902589067
 30
0.0
 11
677.6535328311719
 21
935.2293412178667
 31
0.0
  0
LINE
  5
D8B
330
1F
100
AcDbEntity
  8
SANINDUSA
100
AcDbLine
 10
678.0194268226368
 20
935.2293412178667
 30
0.0
 11
678.0295194331897
 21
935.2685902589067
 31
0.0
  0
ARC
  5
D8C
330
1F
100
AcDbEntity
  8
SANINDUSA
100
AcDbCircle
 10
677.6545013241046
 20
935.2295902589066
 30
0.0
 40
0.0010000000000001
100
AcDbArc
 50
194.4207731312961
 51
270.0
  0
ARC
  5
D8E
330
1F
100
AcDbEntity
  8
SANINDUSA
100
AcDbCircle
 10
677.7853778657591
 20
935.2235902589066
 30
0.0
 40
0.0050000000000001
100
AcDbArc
 50
10.00000000122301
 51
90.0
  0
ARC
  5
D8F
330
1F
100
AcDbEntity
  8
SANINDUSA
100
AcDbCircle
 10
677.8875817880495
 20
935.2235902589066
 30
0.0
 40
0.005
100
AcDbArc
 50
90.0
 51
169.999999998777
  0
LINE
  5
D90
330
1F
100
AcDbEntity
  8
SANINDUSA
100
AcDbLine
 10
677.7903019045242
 20
935.2244584997949
 30
0.0
 11
677.7915435795616
 21
935.2174166107289
 31
0.0
  0
LINE
  5
D91
330
1F
100
AcDbEntity
  8
SANINDUSA
100
AcDbLine
 10
677.881416074247
 20
935.2174166107289
 30
0.0
 11
677.8826577492845
 21
935.2244584997949
 31
0.0
  0
ARC
  5
D92
330
1F
100
AcDbEntity
  8
SANINDUSA
100
AcDbCircle
 10
677.880431266494
 20
935.2175902589065
 30
0.0
 40
0.0010000000000001
100
AcDbArc
 50
270.0
 51
349.999999998777
  0
ARC
  5
D93
330
1F
100
AcDbEntity
  8
SANINDUSA
100
AcDbCircle
 10
677.7925283873146
 20
935.2175902589065
 30
0.0
 40
0.0010000000000001
100
AcDbArc
 50
190.000000001223
 51
270.0
  0
LINE
  5
D95
330
1F
100
AcDbEntity
  8
SANINDUSA
100
AcDbLine
 10
678.0539798269042
 20
935.2685902589067
 30
0.0
 11
677.6189798269044
 21
935.2685902589067
 31
0.0
  0
LINE
  5
D97
330
1F
100
AcDbEntity
  8
SANINDUSA
100
AcDbLine
 10
678.0184583297041
 20
935.2285902589066
 30
0.0
 11
677.6545013241071
 21
935.2285902589066
 31
0.0
  0
LINE
  5
D9C
330
1F
100
AcDbEntity
  8
SANINDUSA
100
AcDbLine
 10
677.8804312664833
 20
935.2165902589065
 30
0.0
 11
677.7925283873146
 21
935.2165902589065
 31
0.0
  0
CIRCLE
  5
D9E
330
1F
100
AcDbEntity
  8
SANINDUSA
100
AcDbCircle
 10
676.6919309395371
 20
935.2495428058366
 30
0.0
 40
0.1995501454592953
  0
CIRCLE
  5
DA0
330
1F
100
AcDbEntity
  8
SANINDUSA
100
AcDbCircle
 10
676.6919309395371
 20
935.2495428058366
 30
0.0
 40
0.1922225406699059
  0
CIRCLE
  5
DA2
330
1F
100
AcDbEntity
  8
SANINDUSA
100
AcDbCircle
 10
676.6919309395371
 20
935.2495428058366
 30
0.0
 40
0.2175000000000002
  0
CIRCLE
  5
DA3
330
1F
100
AcDbEntity
  8
SANINDUSA
100
AcDbCircle
 10
676.6919309395371
 20
935.2495428058366
 30
0.0
 40
0.177896555989302
  0
CIRCLE
  5
DA4
330
1F
100
AcDbEntity
  8
SANINDUSA
100
AcDbCircle
 10
676.6919309395371
 20
935.2495428058366
 30
0.0
 40
0.1633691620003492
  0
CIRCLE
  5
DA5
330
1F
100
AcDbEntity
  8
SANINDUSA
100
AcDbCircle
 10
676.6919309395371
 20
935.1370428058366
 30
0.0
 40
0.0490160062315752
  0
CIRCLE
  5
DA8
330
1F
100
AcDbEntity
  8
SANINDUSA
100
AcDbCircle
 10
676.6919309395371
 20
935.1370428058366
 30
0.0
 40
0.0275000000000002
  0
LINE
  5
DA9
330
1F
100
AcDbEntity
  8
SANINDUSA
100
AcDbLine
 10
678.6663267168844
 20
935.2885902589067
 30
0.0
 11
678.25303650154
 21
935.2885902589067
 31
0.0
  0
ARC
  5
DAB
330
1F
100
AcDbEntity
  8
SANINDUSA
100
AcDbCircle
 10
678.6082672654883
 20
935.2685902589067
 30
0.0
 40
0.0689143437239023
100
AcDbArc
 50
0.0
 51
9.772583339407018
  0
ARC
  5
DAD
330
1F
100
AcDbEntity
  8
SANINDUSA
100
AcDbCircle
 10
678.3110959529361
 20
935.2685902589067
 30
0.0
 40
0.0689143437239022
100
AcDbArc
 50
170.227416660593
 51
180.0
  0
ARC
  5
DAE
330
1F
100
AcDbEntity
  8
SANINDUSA
100
AcDbCircle
 10
678.6663267168844
 20
935.2785902589067
 30
0.0
 40
0.0100000000000002
100
AcDbArc
 50
9.772583339407018
 51
135.1939412758832
  0
ARC
  5
DB0
330
1F
100
AcDbEntity
  8
SANINDUSA
100
AcDbCircle
 10
678.25303650154
 20
935.2785902589067
 30
0.0
 40
0.0100000000000001
100
AcDbArc
 50
44.80605872411679
 51
170.227416660593
  0
ARC
  5
DB1
330
1F
100
AcDbEntity
  8
SANINDUSA
100
AcDbCircle
 10
678.2461893121271
 20
935.2695902589067
 30
0.0
 40
0.0010000000000002
100
AcDbArc
 50
270.0
 51
359.1173284297082
  0
ARC
  5
DB4
330
1F
100
AcDbEntity
  8
SANINDUSA
100
AcDbCircle
 10
678.6731739062973
 20
935.2695902589067
 30
0.0
 40
0.0009999999999998
100
AcDbArc
 50
180.8826715768048
 51
270.0
  0
LINE
  5
DB5
330
1F
100
AcDbEntity
  8
SANINDUSA
100
AcDbLine
 10
678.6731739062973
 20
935.2685902589067
 30
0.0
 11
678.6527212154977
 21
935.2685902589067
 31
0.0
  0
LINE
  5
DB6
330
1F
100
AcDbEntity
  8
SANINDUSA
100
AcDbLine
 10
678.2666420029268
 20
935.2685902589067
 30
0.0
 11
678.2461893121271
 21
935.2685902589067
 31
0.0
  0
ARC
  5
DB9
330
1F
100
AcDbEntity
  8
SANINDUSA
100
AcDbCircle
 10
678.6082672654883
 20
935.2685902589067
 30
0.0
 40
0.0639143437239022
100
AcDbArc
 50
0.8826715702917503
 51
9.772583339407018
  0
ARC
  5
DBA
330
1F
100
AcDbEntity
  8
SANINDUSA
100
AcDbCircle
 10
678.3110959529361
 20
935.2685902589067
 30
0.0
 40
0.0639143437239021
100
AcDbArc
 50
170.227416660593
 51
179.1173284297082
  0
ARC
  5
DBB
330
1F
100
AcDbEntity
  8
SANINDUSA
100
AcDbCircle
 10
678.6663267168844
 20
935.2785902589067
 30
0.0
 40
0.005
100
AcDbArc
 50
9.772583339407018
 51
135.1939412758832
  0
ARC
  5
DBC
330
1F
100
AcDbEntity
  8
SANINDUSA
100
AcDbCircle
 10
678.25303650154
 20
935.2785902589067
 30
0.0
 40
0.005
100
AcDbArc
 50
44.80605872411679
 51
170.227416660593
  0
ARC
  5
DBD
330
1F
100
AcDbEntity
  8
SANINDUSA
100
AcDbCircle
 10
678.6485893113521
 20
935.2962079898894
 30
0.0
 40
0.0200000000000003
100
AcDbArc
 50
299.6853028357823
 51
315.1939412758832
  0
ARC
  5
DBE
330
1F
100
AcDbEntity
  8
SANINDUSA
100
AcDbCircle
 10
678.2707739070723
 20
935.2962079898894
 30
0.0
 40
0.0200000000000003
100
AcDbArc
 50
224.8060587241168
 51
240.3146971642177
  0
ARC
  5
DBF
330
1F
100
AcDbEntity
  8
SANINDUSA
100
AcDbCircle
 10
678.6485893113521
 20
935.2962079898894
 30
0.0
 40
0.015
100
AcDbArc
 50
282.7671421788474
 51
315.1939412758832
  0
ARC
  5
DC1
330
1F
100
AcDbEntity
  8
SANINDUSA
100
AcDbCircle
 10
678.2707739070723
 20
935.2962079898894
 30
0.0
 40
0.015
100
AcDbArc
 50
224.8060587241168
 51
257.2328578211526
  0
ARC
  5
DC2
330
1F
100
AcDbEntity
  8
SANINDUSA
100
AcDbCircle
 10
678.6634463864351
 20
935.2701452325529
 30
0.0
 40
0.0100000000000001
100
AcDbArc
 50
119.6853028357823
 51
165.5792268687038
  0
ARC
  5
DC3
330
1F
100
AcDbEntity
  8
SANINDUSA
100
AcDbCircle
 10
678.2559168319893
 20
935.2701452325529
 30
0.0
 40
0.0099999999999998
100
AcDbArc
 50
14.42077313129611
 51
60.31469716421773
  0
ARC
  5
DC4
330
1F
100
AcDbEntity
  8
SANINDUSA
100
AcDbCircle
 10
678.6543350314708
 20
935.2708508074687
 30
0.0
 40
0.0110000000000001
100
AcDbArc
 50
102.7671421788473
 51
165.5792268687038
  0
ARC
  5
DC6
330
1F
100
AcDbEntity
  8
SANINDUSA
100
AcDbCircle
 10
678.2650281869536
 20
935.2708508074687
 30
0.0
 40
0.0110000000000001
100
AcDbArc
 50
14.42077313129611
 51
77.23285782115262
  0
LINE
  5
DC7
330
1F
100
AcDbEntity
  8
SANINDUSA
100
AcDbLine
 10
678.2656017613153
 20
935.272635642951
 30
0.0
 11
678.2767346134797
 21
935.2293412178667
 31
0.0
  0
LINE
  5
DC8
330
1F
100
AcDbEntity
  8
SANINDUSA
100
AcDbLine
 10
678.6426286049446
 20
935.2293412178667
 30
0.0
 11
678.653761457109
 21
935.272635642951
 31
0.0
  0
ARC
  5
DC9
330
1F
100
AcDbEntity
  8
SANINDUSA
100
AcDbCircle
 10
678.2777031064124
 20
935.2295902589066
 30
0.0
 40
0.0010000000000003
100
AcDbArc
 50
194.4207731312961
 51
270.0
  0
ARC
  5
DCA
330
1F
100
AcDbEntity
  8
SANINDUSA
100
AcDbCircle
 10
678.6416601120119
 20
935.2295902589066
 30
0.0
 40
0.0010000000000001
100
AcDbArc
 50
270.0
 51
345.5792268687039
  0
LINE
  5
DCC
330
1F
100
AcDbEntity
  8
SANINDUSA
100
AcDbLine
 10
678.281785053223
 20
935.2498546433094
 30
0.0
 11
678.2756816092122
 21
935.2735902589067
 31
0.0
  0
LINE
  5
DCD
330
1F
100
AcDbEntity
  8
SANINDUSA
100
AcDbLine
 10
678.6436816092122
 20
935.2735902589067
 30
0.0
 11
678.6375781652014
 21
935.2498546433094
 31
0.0
  0
ARC
  5
DCE
330
1F
100
AcDbEntity
  8
SANINDUSA
100
AcDbCircle
 10
678.6230507712125
 20
935.2535902589066
 30
0.0
 40
0.015
100
AcDbArc
 50
270.0
 51
345.5792268687039
  0
ARC
  5
DCF
330
1F
100
AcDbEntity
  8
SANINDUSA
100
AcDbCircle
 10
678.2963124472119
 20
935.2535902589066
 30
0.0
 40
0.0150000000000001
100
AcDbArc
 50
194.4207731312961
 51
270.0
  0
ARC
  5
DD0
330
1F
100
AcDbEntity
  8
SANINDUSA
100
AcDbCircle
 10
678.2832861548745
 20
935.2295902589066
 30
0.0
 40
0.0010000000000002
100
AcDbArc
 50
270.0
 51
352.0000000018956
  0
ARC
  5
DD3
330
1F
100
AcDbEntity
  8
SANINDUSA
100
AcDbCircle
 10
678.63607706355
 20
935.2295902589066
 30
0.0
 40
0.0010000000000001
100
AcDbArc
 50
187.9999999981044
 51
270.0
  0
LINE
  5
DD4
330
1F
100
AcDbEntity
  8
SANINDUSA
100
AcDbLine
 10
678.63607706355
 20
935.2285902589066
 30
0.0
 11
678.6231886284671
 21
935.2285902589066
 31
0.0
  0
LINE
  5
DD5
330
1F
100
AcDbEntity
  8
SANINDUSA
100
AcDbLine
 10
678.2963124472119
 20
935.2285902589066
 30
0.0
 11
678.2832861548745
 21
935.2285902589066
 31
0.0
  0
LINE
  5
DD8
330
1F
100
AcDbEntity
  8
SANINDUSA
100
AcDbLine
 10
678.6349890225919
 20
935.2301467760623
 30
0.0
 11
678.6350867954812
 21
935.2294510858056
 31
0.0
  0
LINE
  5
DD9
330
1F
100
AcDbEntity
  8
SANINDUSA
100
AcDbLine
 10
678.2842764229432
 20
935.2294510858056
 30
0.0
 11
678.2843741958325
 21
935.2301467760623
 31
0.0
  0
ARC
  5
DDA
330
1F
100
AcDbEntity
  8
SANINDUSA
100
AcDbCircle
 10
678.6339987545231
 20
935.2300076029614
 30
0.0
 40
0.0010000000000007
100
AcDbArc
 50
7.999999998104389
 51
114.9025562816157
  0
ARC
  5
DDB
330
1F
100
AcDbEntity
  8
SANINDUSA
100
AcDbCircle
 10
678.2853644639013
 20
935.2300076029614
 30
0.0
 40
0.0010000000000007
100
AcDbArc
 50
65.09744371838433
 51
172.0000000018956
  0
ARC
  5
DDC
330
1F
100
AcDbEntity
  8
SANINDUSA
100
AcDbCircle
 10
678.6230507712125
 20
935.2535902589066
 30
0.0
 40
0.025
100
AcDbArc
 50
270.4449226902765
 51
294.9025562816157
  0
ARC
  5
DDD
330
1F
100
AcDbEntity
  8
SANINDUSA
100
AcDbCircle
 10
678.2963124472119
 20
935.2535902589066
 30
0.0
 40
0.025
100
AcDbArc
 50
245.0974437183843
 51
270.0
  0
LINE
  5
DDE
330
1F
100
AcDbEntity
  8
SANINDUSA
100
AcDbLine
 10
678.5231656029806
 20
935.2385902589066
 30
0.0
 11
678.2963124472119
 21
935.2385902589066
 31
0.0
  0
ARC
  5
DDF
330
1F
100
AcDbEntity
  8
SANINDUSA
100
AcDbCircle
 10
678.5231656029806
 20
935.2285902589066
 30
0.0
 40
0.0100000000000001
100
AcDbArc
 50
50.00000000237776
 51
90.0
  0
LINE
  5
DE0
330
1F
100
AcDbEntity
  8
SANINDUSA
100
AcDbLine
 10
678.5295934790775
 20
935.2362507033378
 30
0.0
 11
678.5428955472606
 21
935.2250889428315
 31
0.0
  0
ARC
  5
DE1
330
1F
100
AcDbEntity
  8
SANINDUSA
100
AcDbCircle
 10
678.5396816092123
 20
935.2212587206159
 30
0.0
 40
0.005
100
AcDbArc
 50
0.0
 51
50.00000000237776
  0
LINE
  5
DE2
330
1F
100
AcDbEntity
  8
SANINDUSA
100
AcDbLine
 10
678.5446816092123
 20
935.2175902589065
 30
0.0
 11
678.5446816092123
 21
935.2212587206159
 31
0.0
  0
ARC
  5
DE3
330
1F
100
AcDbEntity
  8
SANINDUSA
100
AcDbCircle
 10
678.5436816092122
 20
935.2175902589065
 30
0.0
 40
0.0010000000000002
100
AcDbArc
 50
270.0
 51
0.0
  0
LINE
  5
DE4
330
1F
100
AcDbEntity
  8
SANINDUSA
100
AcDbLine
 10
678.5436816092122
 20
935.2165902589065
 30
0.0
 11
678.5282301696225
 21
935.2165902589065
 31
0.0
  0
ARC
  5
DE5
330
1F
100
AcDbEntity
  8
SANINDUSA
100
AcDbCircle
 10
678.5282301696225
 20
935.2175902589065
 30
0.0
 40
0.0010000000000001
100
AcDbArc
 50
190.000000001223
 51
270.0
  0
LINE
  5
DE6
330
1F
100
AcDbEntity
  8
SANINDUSA
100
AcDbLine
 10
678.526003686832
 20
935.2244584997949
 30
0.0
 11
678.5272453618695
 21
935.2174166107289
 31
0.0
  0
ARC
  5
DE7
330
1F
100
AcDbEntity
  8
SANINDUSA
100
AcDbCircle
 10
678.521079648067
 20
935.2235902589066
 30
0.0
 40
0.005
100
AcDbArc
 50
10.00000000122301
 51
90.0
  0
LINE
  5
DE8
330
1F
100
AcDbEntity
  8
SANINDUSA
100
AcDbLine
 10
678.2963124472119
 20
935.2285902589066
 30
0.0
 11
678.521079648067
 21
935.2285902589066
 31
0.0
  0
LINE
  5
DE9
330
1F
100
AcDbEntity
  8
SANINDUSA
100
AcDbLine
 10
678.2777031064124
 20
935.2285902589066
 30
0.0
 11
678.2832861548745
 21
935.2285902589066
 31
0.0
  0
LINE
  5
DEA
330
1F
100
AcDbEntity
  8
SANINDUSA
100
AcDbLine
 10
678.2421816092123
 20
935.2685902589067
 30
0.0
 11
678.2461893121271
 21
935.2685902589067
 31
0.0
  0
LINE
  5
DEB
330
1F
100
AcDbEntity
  8
SANINDUSA
100
AcDbLine
 10
678.6171178565549
 20
935.2174166107289
 30
0.0
 11
678.6183596910817
 21
935.2244594043041
 31
0.0
  0
ARC
  5
DEC
330
1F
100
AcDbEntity
  8
SANINDUSA
100
AcDbCircle
 10
678.6211976154438
 20
935.2285902589066
 30
0.0
 40
0.0100000000000001
100
AcDbArc
 50
90.0
 51
129.9999999976222
  0
LINE
  5
DEE
330
1F
100
AcDbEntity
  8
SANINDUSA
100
AcDbLine
 10
678.5231656029806
 20
935.2385902589066
 30
0.0
 11
678.6211976154438
 21
935.2385902589066
 31
0.0
  0
ARC
  5
DEF
330
1F
100
AcDbEntity
  8
SANINDUSA
100
AcDbCircle
 10
678.6161330488019
 20
935.2175902589065
 30
0.0
 40
0.0010000000000001
100
AcDbArc
 50
270.0
 51
349.999999998777
  0
LINE
  5
DF0
330
1F
100
AcDbEntity
  8
SANINDUSA
100
AcDbLine
 10
678.6014676711638
 20
935.2250889428315
 30
0.0
 11
678.6147697393468
 21
935.2362507033378
 31
0.0
  0
ARC
  5
DF2
330
1F
100
AcDbEntity
  8
SANINDUSA
100
AcDbCircle
 10
678.6046816092122
 20
935.2212587206159
 30
0.0
 40
0.005
100
AcDbArc
 50
129.9999999976222
 51
180.0
  0
ARC
  5
DF4
330
1F
100
AcDbEntity
  8
SANINDUSA
100
AcDbCircle
 10
678.6006816092122
 20
935.2175902589065
 30
0.0
 40
0.0010000000000002
100
AcDbArc
 50
180.0
 51
270.0
  0
LINE
  5
DF5
330
1F
100
AcDbEntity
  8
SANINDUSA
100
AcDbLine
 10
678.6006816092122
 20
935.2165902589065
 30
0.0
 11
678.5436816092122
 21
935.2165902589065
 31
0.0
  0
LINE
  5
DF7
330
1F
100
AcDbEntity
  8
SANINDUSA
100
AcDbLine
 10
678.5996816092122
 20
935.2212587206159
 30
0.0
 11
678.5996816092122
 21
935.2175902589065
 31
0.0
  0
ARC
  5
DF8
330
1F
100
AcDbEntity
  8
SANINDUSA
100
AcDbCircle
 10
678.6232837298468
 20
935.2235911634156
 30
0.0
 40
0.0049999999999999
100
AcDbArc
 50
90.44492269027648
 51
169.999999998777
  0
LINE
  5
DF9
330
1F
100
AcDbEntity
  8
SANINDUSA
100
AcDbLine
 10
678.6161330488019
 20
935.2165902589065
 30
0.0
 11
678.6006816092122
 21
935.2165902589065
 31
0.0
  0
LINE
  5
DFA
330
1F
100
AcDbEntity
  8
SANINDUSA
100
AcDbLine
 10
678.6230507712125
 20
935.2385902589066
 30
0.0
 11
678.6211976154438
 21
935.2385902589066
 31
0.0
  0
LINE
  5
DFB
330
1F
100
AcDbEntity
  8
SANINDUSA
100
AcDbLine
 10
678.63607706355
 20
935.2285902589066
 30
0.0
 11
678.6416601120119
 21
935.2285902589066
 31
0.0
  0
LINE
  5
DFC
330
1F
100
AcDbEntity
  8
SANINDUSA
100
AcDbLine
 10
678.6731739062973
 20
935.2685902589067
 30
0.0
 11
678.6771816092121
 21
935.2685902589067
 31
0.0
  0
ARC
  5
E3E
330
1F
100
AcDbEntity
  8
SANINDUSA
100
AcDbCircle
 10
677.070401578795
 20
935.2685902589067
 30
0.0
 40
0.0689143437237217
100
AcDbArc
 50
170.227416660593
 51
180.0
  0
ENDSEC
  0
SECTION
  2
OBJECTS
  0
DICTIONARY
  5
C
330
0
100
AcDbDictionary
281
     1
  3
ACAD_COLOR
350
BA9
  3
ACAD_GROUP
350
D
  3
ACAD_LAYOUT
350
1A
  3
ACAD_MATERIAL
350
BA8
  3
ACAD_MLINESTYLE
350
17
  3
ACAD_PLOTSETTINGS
350
19
  3
ACAD_PLOTSTYLENAME
350
E
  3
ACAD_TABLESTYLE
350
BAA
  3
ACDBHEADERROUNDTRIPXREC
350
F6D
  3
AcDbVariableDictionary
350
3D
  3
ASE_INDEX_DICTIONARY
350
F5A
  0
DICTIONARY
  5
BA9
102
{ACAD_REACTORS
330
C
102
}
330
C
100
AcDbDictionary
281
     1
  0
DICTIONARY
  5
D
102
{ACAD_REACTORS
330
C
102
}
330
C
100
AcDbDictionary
281
     1
  0
DICTIONARY
  5
1A
102
{ACAD_REACTORS
330
C
102
}
330
C
100
AcDbDictionary
281
     1
  3
Layout1
350
1E
  3
Layout2
350
26
  3
Model
350
22
  0
DICTIONARY
  5
BA8
102
{ACAD_REACTORS
330
C
102
}
330
C
100
AcDbDictionary
281
     1
  0
DICTIONARY
  5
17
102
{ACAD_REACTORS
330
C
102
}
330
C
100
AcDbDictionary
281
     1
  3
Standard
350
18
  0
DICTIONARY
  5
19
102
{ACAD_REACTORS
330
C
102
}
330
C
100
AcDbDictionary
281
     1
  0
ACDBDICTIONARYWDFLT
  5
E
102
{ACAD_REACTORS
330
C
102
}
330
C
100
AcDbDictionary
281
     1
  3
Normal
350
F
100
AcDbDictionaryWithDefault
340
F
  0
DICTIONARY
  5
BAA
102
{ACAD_REACTORS
330
C
102
}
330
C
100
AcDbDictionary
281
     1
  3
Standard
350
BAB
  0
DICTIONARY
  5
F6D
102
{ACAD_REACTORS
330
C
102
}
330
C
100
AcDbDictionary
281
     1
  0
DICTIONARY
  5
3D
102
{ACAD_REACTORS
330
C
102
}
330
C
100
AcDbDictionary
281
     1
  3
CTABLESTYLE
350
F5D
  3
DIMASSOC
350
3F
  3
HIDETEXT
350
3E
  3
PROJECTNAME
350
F66
  0
DICTIONARY
  5
F5A
102
{ACAD_REACTORS
330
C
102
}
330
C
100
AcDbDictionary
281
     1
  3
ASEBlockHierarchyIndexRecord
350
F5B
1001
DCO15
1040
1535086559.328
  0
LAYOUT
  5
1E
102
{ACAD_XDICTIONARY
360
F6E
102
}
102
{ACAD_REACTORS
330
1A
102
}
330
1A
100
AcDbPlotSettings
  1

  2
Ploter HP500
  4

  6

 40
0.0
 41
0.0
 42
0.0
 43
0.0
 44
0.0
 45
0.0
 46
0.0
 47
0.0
 48
0.0
 49
0.0
140
0.0
141
0.0
142
1.0
143
1.0
 70
   688
 72
     0
 73
     0
 74
     5
  7
monochrome.ctb
 75
    16
147
1.0
148
0.0
149
0.0
100
AcDbLayout
  1
Layout1
 70
     1
 71
     1
 10
0.0
 20
0.0
 11
420.0
 21
297.0
 12
0.0
 22
0.0
 32
0.0
 14
1.000000000000000E+20
 24
1.000000000000000E+20
 34
1.000000000000000E+20
 15
-1.000000000000000E+20
 25
-1.000000000000000E+20
 35
-1.000000000000000E+20
146
0.0
 13
0.0
 23
0.0
 33
0.0
 16
1.0
 26
0.0
 36
0.0
 17
0.0
 27
1.0
 37
0.0
 76
     0
330
1B
  0
LAYOUT
  5
26
102
{ACAD_XDICTIONARY
360
F72
102
}
102
{ACAD_REACTORS
330
1A
102
}
330
1A
100
AcDbPlotSettings
  1

  2
Ploter HP500
  4

  6

 40
0.0
 41
0.0
 42
0.0
 43
0.0
 44
0.0
 45
0.0
 46
0.0
 47
0.0
 48
0.0
 49
0.0
140
0.0
141
0.0
142
1.0
143
1.0
 70
   688
 72
     0
 73
     0
 74
     5
  7
monochrome.ctb
 75
    16
147
1.0
148
0.0
149
0.0
100
AcDbLayout
  1
Layout2
 70
     1
 71
     2
 10
0.0
 20
0.0
 11
12.0
 21
9.0
 12
0.0
 22
0.0
 32
0.0
 14
0.0
 24
0.0
 34
0.0
 15
0.0
 25
0.0
 35
0.0
146
0.0
 13
0.0
 23
0.0
 33
0.0
 16
1.0
 26
0.0
 36
0.0
 17
0.0
 27
1.0
 37
0.0
 76
     0
330
23
  0
LAYOUT
  5
22
102
{ACAD_XDICTIONARY
360
F70
102
}
102
{ACAD_REACTORS
330
1A
102
}
330
1A
100
AcDbPlotSettings
  1

  2
Ploter HP500
  4
User268
  6

 40
4.995333194732666
 41
16.97565841674804
 42
4.995330810546875
 43
16.97567749023437
 44
209.9733276367187
 45
296.9259948730469
 46
0.0
 47
0.0
 48
0.0
 49
0.0
140
0.0
141
0.0
142
1.0
143
1.0
 70
 11952
 72
     1
 73
     1
 74
     0
  7

 75
     0
147
1.0
148
-427.5957866592534
149
7.362384574453926
100
AcDbLayout
  1
Model
 70
     1
 71
     0
 10
0.0
 20
0.0
 11
12.0
 21
9.0
 12
0.0
 22
0.0
 32
0.0
 14
0.0
 24
0.0
 34
0.0
 15
0.0
 25
0.0
 35
0.0
146
0.0
 13
0.0
 23
0.0
 33
0.0
 16
1.0
 26
0.0
 36
0.0
 17
0.0
 27
1.0
 37
0.0
 76
     0
330
1F
  0
MLINESTYLE
  5
18
102
{ACAD_REACTORS
330
17
102
}
330
17
100
AcDbMlineStyle
  2
STANDARD
 70
     0
  3

 62
   256
 51
90.0
 52
90.0
 71
     2
 49
0.5
 62
   256
  6
BYLAYER
 49
-0.5
 62
   256
  6
BYLAYER
  0
ACDBPLACEHOLDER
  5
F
102
{ACAD_REACTORS
330
E
102
}
330
E
  0
TABLESTYLE
  5
BAB
102
{ACAD_REACTORS
330
BAA
102
}
330
BAA
100
AcDbTableStyle
  3
Standard
 70
     0
 71
     0
 40
1.5
 41
1.5
280
     0
281
     0
  7
Standard
140
4.5
170
     2
 62
     0
 63
     7
283
     0
274
    -2
284
     1
 64
     0
275
    -2
285
     1
 65
     0
276
    -2
286
     1
 66
     0
277
    -2
287
     1
 67
     0
278
    -2
288
     1
 68
     0
279
    -2
289
     1
 69
     0
  7
Standard
140
6.0
170
     5
 62
     0
 63
     7
283
     0
274
    -2
284
     1
 64
     0
275
    -2
285
     1
 65
     0
276
    -2
286
     1
 66
     0
277
    -2
287
     1
 67
     0
278
    -2
288
     1
 68
     0
279
    -2
289
     1
 69
     0
  7
Standard
140
4.5
170
     5
 62
     0
 63
     7
283
     0
274
    -2
284
     1
 64
     0
275
    -2
285
     1
 65
     0
276
    -2
286
     1
 66
     0
277
    -2
287
     1
 67
     0
278
    -2
288
     1
 68
     0
279
    -2
289
     1
 69
     0
  0
DICTIONARYVAR
  5
F5D
102
{ACAD_REACTORS
330
3D
102
}
330
3D
100
DictionaryVariables
280
     0
  1
STANDARD
  0
DICTIONARYVAR
  5
3F
102
{ACAD_REACTORS
330
3D
102
}
330
3D
100
DictionaryVariables
280
     0
  1
2
  0
DICTIONARYVAR
  5
3E
102
{ACAD_REACTORS
330
3D
102
}
330
3D
100
DictionaryVariables
280
     0
  1
1
  0
DICTIONARYVAR
  5
F66
102
{ACAD_REACTORS
330
3D
102
}
330
3D
100
DictionaryVariables
280
     0
  1

  0
XRECORD
  5
F5B
102
{ACAD_REACTORS
330
F5A
102
}
330
F5A
100
AcDbXrecord
280
     1
  0
DICTIONARY
  5
F6E
330
1E
100
AcDbDictionary
280
     1
281
     1
  3
ACAD_XREC_ROUNDTRIP
360
F6F
  0
DICTIONARY
  5
F72
330
26
100
AcDbDictionary
280
     1
281
     1
  3
ACAD_XREC_ROUNDTRIP
360
F73
  0
DICTIONARY
  5
F70
330
22
100
AcDbDictionary
280
     1
281
     1
  3
ACAD_XREC_ROUNDTRIP
360
F71
  0
XRECORD
  5
F6F
102
{ACAD_REACTORS
330
F6E
102
}
330
F6E
100
AcDbXrecord
280
     1
102
SHADEPLOT
 70
     0
102
SHADEPLOTRESLEVEL
 70
     2
102
SHADEPLOTCUSTOMDPI
 70
   300
  0
XRECORD
  5
F73
102
{ACAD_REACTORS
330
F72
102
}
330
F72
100
AcDbXrecord
280
     1
102
SHADEPLOT
 70
     0
102
SHADEPLOTRESLEVEL
 70
     2
102
SHADEPLOTCUSTOMDPI
 70
   300
  0
XRECORD
  5
F71
102
{ACAD_REACTORS
330
F70
102
}
330
F70
100
AcDbXrecord
280
     1
102
SHADEPLOT
 70
     0
102
SHADEPLOTRESLEVEL
 70
     2
102
SHADEPLOTCUSTOMDPI
 70
   300
  0
ENDSEC
  0
EOF
