  0
SECTION
  2
HEADER
  9
$ACADVER
  1
AC1014
  9
$ACADMAINTVER
 70
     9
  9
$DWGCODEPAGE
  3
ANSI_1250
  9
$INSBASE
 10
0.0
 20
0.0
 30
0.0
  9
$EXTMIN
 10
-44.7913
 20
-36.7347
 30
0.0
  9
$EXTMAX
 10
44.8733
 20
36.7346
 30
0.0
  9
$LIMMIN
 10
0.0
 20
0.0
  9
$LIMMAX
 10
12.0
 20
9.0
  9
$ORTHOMODE
 70
     0
  9
$REGENMODE
 70
     1
  9
$FILLMODE
 70
     1
  9
$QTEXTMODE
 70
     0
  9
$MIRRTEXT
 70
     1
  9
$DRAGMODE
 70
     2
  9
$LTSCALE
 40
1.0
  9
$OSMODE
 70
    37
  9
$ATTMODE
 70
     1
  9
$TEXTSIZE
 40
0.2
  9
$TRACEWID
 40
0.05
  9
$TEXTSTYLE
  7
STANDARD
  9
$CLAYER
  8
0
  9
$CELTYPE
  6
BYLAYER
  9
$CECOLOR
 62
   256
  9
$CELTSCALE
 40
1.0
  9
$DELOBJ
 70
     1
  9
$DISPSILH
 70
     0
  9
$DIMSCALE
 40
1.0
  9
$DIMASZ
 40
0.18
  9
$DIMEXO
 40
0.0625
  9
$DIMDLI
 40
0.38
  9
$DIMRND
 40
0.0
  9
$DIMDLE
 40
0.0
  9
$DIMEXE
 40
0.18
  9
$DIMTP
 40
0.0
  9
$DIMTM
 40
0.0
  9
$DIMTXT
 40
0.18
  9
$DIMCEN
 40
0.09
  9
$DIMTSZ
 40
0.0
  9
$DIMTOL
 70
     0
  9
$DIMLIM
 70
     0
  9
$DIMTIH
 70
     1
  9
$DIMTOH
 70
     1
  9
$DIMSE1
 70
     0
  9
$DIMSE2
 70
     0
  9
$DIMTAD
 70
     0
  9
$DIMZIN
 70
     0
  9
$DIMBLK
  1

  9
$DIMASO
 70
     1
  9
$DIMSHO
 70
     1
  9
$DIMPOST
  1

  9
$DIMAPOST
  1

  9
$DIMALT
 70
     0
  9
$DIMALTD
 70
     2
  9
$DIMALTF
 40
25.4
  9
$DIMLFAC
 40
1.0
  9
$DIMTOFL
 70
     0
  9
$DIMTVP
 40
0.0
  9
$DIMTIX
 70
     0
  9
$DIMSOXD
 70
     0
  9
$DIMSAH
 70
     0
  9
$DIMBLK1
  1

  9
$DIMBLK2
  1

  9
$DIMSTYLE
  2
STANDARD
  9
$DIMCLRD
 70
     0
  9
$DIMCLRE
 70
     0
  9
$DIMCLRT
 70
     0
  9
$DIMTFAC
 40
1.0
  9
$DIMGAP
 40
0.09
  9
$DIMJUST
 70
     0
  9
$DIMSD1
 70
     0
  9
$DIMSD2
 70
     0
  9
$DIMTOLJ
 70
     1
  9
$DIMTZIN
 70
     0
  9
$DIMALTZ
 70
     0
  9
$DIMALTTZ
 70
     0
  9
$DIMFIT
 70
     3
  9
$DIMUPT
 70
     0
  9
$DIMUNIT
 70
     2
  9
$DIMDEC
 70
     4
  9
$DIMTDEC
 70
     4
  9
$DIMALTU
 70
     2
  9
$DIMALTTD
 70
     2
  9
$DIMTXSTY
  7
STANDARD
  9
$DIMAUNIT
 70
     0
  9
$LUNITS
 70
     2
  9
$LUPREC
 70
     4
  9
$SKETCHINC
 40
0.1
  9
$FILLETRAD
 40
0.5
  9
$AUNITS
 70
     0
  9
$AUPREC
 70
     0
  9
$MENU
  1
.
  9
$ELEVATION
 40
0.0
  9
$PELEVATION
 40
0.0
  9
$THICKNESS
 40
0.0
  9
$LIMCHECK
 70
     0
  9
$CHAMFERA
 40
0.5
  9
$CHAMFERB
 40
0.5
  9
$CHAMFERC
 40
1.0
  9
$CHAMFERD
 40
0.0
  9
$SKPOLY
 70
     0
  9
$TDCREATE
 40
2456247.43961956
  9
$TDUPDATE
 40
2456247.439619572
  9
$TDINDWG
 40
0.0000000116
  9
$TDUSRTIMER
 40
0.0000000116
  9
$USRTIMER
 70
     1
  9
$ANGBASE
 50
0.0
  9
$ANGDIR
 70
     0
  9
$PDMODE
 70
     0
  9
$PDSIZE
 40
0.0
  9
$PLINEWID
 40
0.0
  9
$COORDS
 70
     1
  9
$SPLFRAME
 70
     0
  9
$SPLINETYPE
 70
     6
  9
$SPLINESEGS
 70
     8
  9
$ATTDIA
 70
     0
  9
$ATTREQ
 70
     1
  9
$HANDLING
 70
     1
  9
$HANDSEED
  5
F7
  9
$SURFTAB1
 70
     6
  9
$SURFTAB2
 70
     6
  9
$SURFTYPE
 70
     6
  9
$SURFU
 70
     6
  9
$SURFV
 70
     6
  9
$UCSNAME
  2

  9
$UCSORG
 10
0.0
 20
0.0
 30
0.0
  9
$UCSXDIR
 10
1.0
 20
0.0
 30
0.0
  9
$UCSYDIR
 10
0.0
 20
1.0
 30
0.0
  9
$PUCSNAME
  2

  9
$PUCSORG
 10
0.0
 20
0.0
 30
0.0
  9
$PUCSXDIR
 10
1.0
 20
0.0
 30
0.0
  9
$PUCSYDIR
 10
0.0
 20
1.0
 30
0.0
  9
$USERI1
 70
     0
  9
$USERI2
 70
     0
  9
$USERI3
 70
     0
  9
$USERI4
 70
     0
  9
$USERI5
 70
     0
  9
$USERR1
 40
0.0
  9
$USERR2
 40
0.0
  9
$USERR3
 40
0.0
  9
$USERR4
 40
0.0
  9
$USERR5
 40
0.0
  9
$WORLDVIEW
 70
     1
  9
$SHADEDGE
 70
     3
  9
$SHADEDIF
 70
    70
  9
$TILEMODE
 70
     1
  9
$MAXACTVP
 70
    64
  9
$PINSBASE
 10
0.0
 20
0.0
 30
0.0
  9
$PLIMCHECK
 70
     0
  9
$PEXTMIN
 10
1.000000000000000E+20
 20
1.000000000000000E+20
 30
1.000000000000000E+20
  9
$PEXTMAX
 10
-1.000000000000000E+20
 20
-1.000000000000000E+20
 30
-1.000000000000000E+20
  9
$PLIMMIN
 10
0.0
 20
0.0
  9
$PLIMMAX
 10
12.0
 20
9.0
  9
$UNITMODE
 70
     0
  9
$VISRETAIN
 70
     1
  9
$PLINEGEN
 70
     0
  9
$PSLTSCALE
 70
     1
  9
$TREEDEPTH
 70
  3020
  9
$PICKSTYLE
 70
     1
  9
$CMLSTYLE
  2
STANDARD
  9
$CMLJUST
 70
     0
  9
$CMLSCALE
 40
1.0
  9
$PROXYGRAPHICS
 70
     1
  9
$MEASUREMENT
 70
     0
  0
ENDSEC
  0
SECTION
  2
CLASSES
  0
CLASS
  1
ACDBDICTIONARYWDFLT
  2
AcDbDictionaryWithDefault
  3
ObjectDBX Classes
 90
        0
280
     0
281
     0
  0
CLASS
  1
VISUALSTYLE
  2
AcDbVisualStyle
  3
ObjectDBX Classes
 90
     4095
280
     0
281
     0
  0
CLASS
  1
MATERIAL
  2
AcDbMaterial
  3
ObjectDBX Classes
 90
     1153
280
     0
281
     0
  0
CLASS
  1
DICTIONARYVAR
  2
AcDbDictionaryVar
  3
ObjectDBX Classes
 90
        0
280
     0
281
     0
  0
CLASS
  1
XRECORD
  2
AcDbXrecord
  3
AutoCAD 2000
 90
        0
280
     0
281
     0
  0
CLASS
  1
LWPOLYLINE
  2
AcDbPolyline
  3
AutoCAD 2000
 90
        0
280
     0
281
     1
  0
CLASS
  1
HATCH
  2
AcDbHatch
  3
AutoCAD 2000
 90
        0
280
     0
281
     1
  0
CLASS
  1
ACDBPLACEHOLDER
  2
AcDbPlaceHolder
  3
ObjectDBX Classes
 90
        0
280
     0
281
     0
  0
CLASS
  1
LAYOUT
  2
AcDbLayout
  3
ObjectDBX Classes
 90
        0
280
     0
281
     0
  0
ENDSEC
  0
SECTION
  2
TABLES
  0
TABLE
  2
VPORT
  5
8
330
0
100
AcDbSymbolTable
 70
     1
  0
VPORT
  5
29
330
8
100
AcDbSymbolTableRecord
100
AcDbViewportTableRecord
  2
*ACTIVE
 70
     0
 10
0.0
 20
0.0
 11
1.0
 21
1.0
 12
10.42990654205607
 22
4.5
 13
0.0
 23
0.0
 14
0.5
 24
0.5
 15
0.5
 25
0.5
 16
0.0
 26
0.0
 36
1.0
 17
0.0
 27
0.0
 37
0.0
 40
9.0
 41
1.972972972850329
 42
50.0
 43
0.0
 44
0.0
 50
0.0
 51
0.0
 71
     0
 72
   100
 73
     1
 74
     3
 75
     0
 76
     0
 77
     0
 78
     0
  0
ENDTAB
  0
TABLE
  2
LTYPE
  5
5
330
0
100
AcDbSymbolTable
 70
     3
  0
LTYPE
  5
14
330
5
100
AcDbSymbolTableRecord
100
AcDbLinetypeTableRecord
  2
BYBLOCK
 70
     0
  3

 72
    65
 73
     0
 40
0.0
  0
LTYPE
  5
15
330
5
100
AcDbSymbolTableRecord
100
AcDbLinetypeTableRecord
  2
BYLAYER
 70
     0
  3

 72
    65
 73
     0
 40
0.0
  0
LTYPE
  5
16
330
5
100
AcDbSymbolTableRecord
100
AcDbLinetypeTableRecord
  2
CONTINUOUS
 70
     0
  3
Solid line
 72
    65
 73
     0
 40
0.0
  0
LTYPE
  5
B6
330
5
100
AcDbSymbolTableRecord
100
AcDbLinetypeTableRecord
  2
NEW_LINE1
 70
     0
  3

 72
    65
 73
     4
 40
1.2
 49
0.5
 74
     4
 75
     0
340
0
 46
1.0
 50
0.0
 44
0.0
 45
0.0
 49
-0.3
 74
     4
 75
     0
340
0
 46
1.0
 50
0.0
 44
0.0
 45
0.0
 49
0.1
 74
     4
 75
     0
340
0
 46
1.0
 50
0.0
 44
0.0
 45
0.0
 49
-0.3
 74
     4
 75
     0
340
0
 46
1.0
 50
0.0
 44
0.0
 45
0.0
  0
LTYPE
  5
B8
330
5
100
AcDbSymbolTableRecord
100
AcDbLinetypeTableRecord
  2
NEW_LINE2
 70
     0
  3

 72
    65
 73
     4
 40
1.2
 49
0.5
 74
     4
 75
     0
340
0
 46
1.0
 50
0.0
 44
0.0
 45
0.0
 49
-0.3
 74
     4
 75
     0
340
0
 46
1.0
 50
0.0
 44
0.0
 45
0.0
 49
0.1
 74
     4
 75
     0
340
0
 46
1.0
 50
0.0
 44
0.0
 45
0.0
 49
-0.3
 74
     4
 75
     0
340
0
 46
1.0
 50
0.0
 44
0.0
 45
0.0
  0
ENDTAB
  0
TABLE
  2
LAYER
  5
2
330
0
100
AcDbSymbolTable
 70
     2
  0
LAYER
  5
10
330
2
100
AcDbSymbolTableRecord
100
AcDbLayerTableRecord
  2
0
 70
     0
 62
     7
  6
CONTINUOUS
  0
LAYER
  5
40
330
2
100
AcDbSymbolTableRecord
100
AcDbLayerTableRecord
  2
AXIS
 70
     0
 62
     7
  6
CONTINUOUS
  0
ENDTAB
  0
TABLE
  2
STYLE
  5
3
330
0
100
AcDbSymbolTable
 70
     1
  0
STYLE
  5
11
330
3
100
AcDbSymbolTableRecord
100
AcDbTextStyleTableRecord
  2
STANDARD
 70
     0
 40
0.0
 41
1.0
 50
0.0
 71
     0
 42
0.2
  3
txt
  4

  0
ENDTAB
  0
TABLE
  2
VIEW
  5
6
330
0
100
AcDbSymbolTable
 70
     0
  0
ENDTAB
  0
TABLE
  2
UCS
  5
7
330
0
100
AcDbSymbolTable
 70
     0
  0
ENDTAB
  0
TABLE
  2
APPID
  5
9
330
0
100
AcDbSymbolTable
 70
     2
  0
APPID
  5
12
330
9
100
AcDbSymbolTableRecord
100
AcDbRegAppTableRecord
  2
ACAD
 70
     0
  0
APPID
  5
3F
330
9
100
AcDbSymbolTableRecord
100
AcDbRegAppTableRecord
  2
ODA
 70
     0
  0
ENDTAB
  0
TABLE
  2
DIMSTYLE
  5
A
330
0
100
AcDbSymbolTable
 70
     1
  0
DIMSTYLE
105
27
330
A
100
AcDbSymbolTableRecord
100
AcDbDimStyleTableRecord
  2
STANDARD
 70
     0
  3

  4

  5

  6

  7

 40
1.0
 41
0.18
 42
0.0625
 43
0.38
 44
0.18
 45
0.0
 46
0.0
 47
0.0
 48
0.0
140
0.18
141
0.09
142
0.0
143
25.4
144
1.0
145
0.0
146
1.0
147
0.09
 71
     0
 72
     0
 73
     1
 74
     1
 75
     0
 76
     0
 77
     0
 78
     0
170
     0
171
     2
172
     0
173
     0
174
     0
175
     0
176
     0
177
     0
178
     0
270
     2
271
     4
272
     4
273
     2
274
     2
340
11
275
     0
280
     0
281
     0
282
     0
283
     1
284
     0
285
     0
286
     0
287
     3
288
     0
  0
ENDTAB
  0
TABLE
  2
BLOCK_RECORD
  5
1
330
0
100
AcDbSymbolTable
 70
     1
  0
BLOCK_RECORD
  5
1F
330
1
100
AcDbSymbolTableRecord
100
AcDbBlockTableRecord
  2
*MODEL_SPACE
  0
BLOCK_RECORD
  5
1B
330
1
100
AcDbSymbolTableRecord
100
AcDbBlockTableRecord
  2
*PAPER_SPACE
  0
ENDTAB
  0
ENDSEC
  0
SECTION
  2
BLOCKS
  0
BLOCK
  5
20
330
1F
100
AcDbEntity
  8
0
100
AcDbBlockBegin
  2
*MODEL_SPACE
 70
     0
 10
0.0
 20
0.0
 30
0.0
  3
*MODEL_SPACE
  1

  0
ENDBLK
  5
21
330
1F
100
AcDbEntity
  8
0
100
AcDbBlockEnd
  0
BLOCK
  5
1C
330
1B
100
AcDbEntity
 67
     1
  8
0
100
AcDbBlockBegin
  2
*PAPER_SPACE
 70
     0
 10
0.0
 20
0.0
 30
0.0
  3
*PAPER_SPACE
  1

  0
ENDBLK
  5
1D
330
1B
100
AcDbEntity
 67
     1
  8
0
100
AcDbBlockEnd
  0
ENDSEC
  0
SECTION
  2
ENTITIES
  0
SPLINE
  5
41
330
1F
100
AcDbEntity
  8
AXIS
 62
   250
100
AcDbSpline
210
0.0
220
0.0
230
1.0
 70
    11
 71
     3
 72
    84
 73
    80
 74
     0
 42
0.0000000001
 43
0.0000000001
 40
0.0
 40
0.0
 40
0.0
 40
0.0
 40
0.0476190476190476
 40
0.0476190476190476
 40
0.0476190476190476
 40
0.0476190476190476
 40
0.0952380952380952
 40
0.0952380952380952
 40
0.0952380952380952
 40
0.0952380952380952
 40
0.1428571428571428
 40
0.1428571428571428
 40
0.1428571428571428
 40
0.1428571428571428
 40
0.1904761904761905
 40
0.1904761904761905
 40
0.1904761904761905
 40
0.1904761904761905
 40
0.2380952380952381
 40
0.2380952380952381
 40
0.2380952380952381
 40
0.2380952380952381
 40
0.2857142857142857
 40
0.2857142857142857
 40
0.2857142857142857
 40
0.2857142857142857
 40
0.3333333333333333
 40
0.3333333333333333
 40
0.3333333333333333
 40
0.3333333333333333
 40
0.3809523809523809
 40
0.3809523809523809
 40
0.3809523809523809
 40
0.3809523809523809
 40
0.4285714285714285
 40
0.4285714285714285
 40
0.4285714285714285
 40
0.4285714285714285
 40
0.4761904761904762
 40
0.4761904761904762
 40
0.4761904761904762
 40
0.4761904761904762
 40
0.5238095238095238
 40
0.5238095238095238
 40
0.5238095238095238
 40
0.5238095238095238
 40
0.5714285714285714
 40
0.5714285714285714
 40
0.5714285714285714
 40
0.5714285714285714
 40
0.6190476190476191
 40
0.6190476190476191
 40
0.6190476190476191
 40
0.6190476190476191
 40
0.6666666666666666
 40
0.6666666666666666
 40
0.6666666666666666
 40
0.6666666666666666
 40
0.7142857142857143
 40
0.7142857142857143
 40
0.7142857142857143
 40
0.7142857142857143
 40
0.7619047619047619
 40
0.7619047619047619
 40
0.7619047619047619
 40
0.7619047619047619
 40
0.8095238095238095
 40
0.8095238095238095
 40
0.8095238095238095
 40
0.8095238095238095
 40
0.8571428571428571
 40
0.8571428571428571
 40
0.8571428571428571
 40
0.8571428571428571
 40
0.9047619047619048
 40
0.9047619047619048
 40
0.9047619047619048
 40
0.9047619047619048
 40
1.0
 40
1.0
 40
1.0
 40
1.0
 10
41.894
 20
-5.4665
 30
0.0
 10
41.894
 20
-5.4665
 30
0.0
 10
41.6349
 20
-5.2351
 30
0.0
 10
41.6349
 20
-5.2351
 30
0.0
 10
41.6349
 20
-5.2351
 30
0.0
 10
41.6349
 20
-5.2351
 30
0.0
 10
41.7506
 20
-5.0987
 30
0.0
 10
41.7506
 20
-5.0987
 30
0.0
 10
41.7506
 20
-5.0987
 30
0.0
 10
41.7506
 20
-5.0987
 30
0.0
 10
42.0234
 20
-5.3409
 30
0.0
 10
42.0234
 20
-5.3409
 30
0.0
 10
42.0234
 20
-5.3409
 30
0.0
 10
42.141
 20
-5.2619
 30
0.0
 10
42.244
 20
-5.2088
 30
0.0
 10
42.3319
 20
-5.181
 30
0.0
 10
42.3319
 20
-5.181
 30
0.0
 10
42.4477
 20
-5.1443
 30
0.0
 10
42.5775
 20
-5.126
 30
0.0
 10
42.7205
 20
-5.126
 30
0.0
 10
42.7205
 20
-5.126
 30
0.0
 10
42.9274
 20
-5.126
 30
0.0
 10
43.1118
 20
-5.1678
 30
0.0
 10
43.2731
 20
-5.2516
 30
0.0
 10
43.2731
 20
-5.2516
 30
0.0
 10
43.435
 20
-5.3353
 30
0.0
 10
43.5572
 20
-5.4524
 30
0.0
 10
43.64
 20
-5.6034
 30
0.0
 10
43.64
 20
-5.6034
 30
0.0
 10
43.7223
 20
-5.7549
 30
0.0
 10
43.7637
 20
-5.9152
 30
0.0
 10
43.7637
 20
-6.085
 30
0.0
 10
43.7637
 20
-6.085
 30
0.0
 10
43.7637
 20
-6.212
 30
0.0
 10
43.7459
 20
-6.3268
 30
0.0
 10
43.7101
 20
-6.4298
 30
0.0
 10
43.7101
 20
-6.4298
 30
0.0
 10
43.6824
 20
-6.5088
 30
0.0
 10
43.6297
 20
-6.601
 30
0.0
 10
43.5516
 20
-6.7069
 30
0.0
 10
43.5516
 20
-6.7069
 30
0.0
 10
43.5516
 20
-6.7069
 30
0.0
 10
43.8108
 20
-6.9383
 30
0.0
 10
43.8108
 20
-6.9383
 30
0.0
 10
43.8108
 20
-6.9383
 30
0.0
 10
43.8108
 20
-6.9383
 30
0.0
 10
43.6951
 20
-7.0747
 30
0.0
 10
43.6951
 20
-7.0747
 30
0.0
 10
43.6951
 20
-7.0747
 30
0.0
 10
43.6951
 20
-7.0747
 30
0.0
 10
43.4237
 20
-6.832
 30
0.0
 10
43.4237
 20
-6.832
 30
0.0
 10
43.4237
 20
-6.832
 30
0.0
 10
43.2868
 20
-6.9223
 30
0.0
 10
43.1697
 20
-6.9825
 30
0.0
 10
43.0728
 20
-7.0126
 30
0.0
 10
43.0728
 20
-7.0126
 30
0.0
 10
42.9759
 20
-7.0427
 30
0.0
 10
42.8592
 20
-7.0582
 30
0.0
 10
42.7233
 20
-7.0582
 30
0.0
 10
42.7233
 20
-7.0582
 30
0.0
 10
42.5159
 20
-7.0582
 30
0.0
 10
42.331
 20
-7.0168
 30
0.0
 10
42.1687
 20
-6.9341
 30
0.0
 10
42.1687
 20
-6.9341
 30
0.0
 10
42.0064
 20
-6.8513
 30
0.0
 10
41.8837
 20
-6.7356
 30
0.0
 10
41.8
 20
-6.586
 30
0.0
 10
41.8
 20
-6.586
 30
0.0
 10
41.7167
 20
-6.4369
 30
0.0
 10
41.6748
 20
-6.2708
 30
0.0
 10
41.6748
 20
-6.0879
 30
0.0
 10
41.6748
 20
-6.0879
 30
0.0
 10
41.6748
 20
-5.9646
 30
0.0
 10
41.6908
 20
-5.8569
 30
0.0
 10
41.7238
 20
-5.7647
 30
0.0
 10
41.7238
 20
-5.7647
 30
0.0
 10
41.7562
 20
-5.6725
 30
0.0
 10
41.8131
 20
-5.5728
 30
0.0
 10
41.894
 20
-5.4665
 30
0.0
  0
SPLINE
  5
42
330
1F
100
AcDbEntity
  8
AXIS
 62
   250
100
AcDbSpline
210
0.0
220
0.0
230
1.0
 70
    11
 71
     3
 72
    32
 73
    28
 74
     0
 42
0.0000000001
 43
0.0000000001
 40
0.0
 40
0.0
 40
0.0
 40
0.0
 40
0.125
 40
0.125
 40
0.125
 40
0.125
 40
0.25
 40
0.25
 40
0.25
 40
0.25
 40
0.375
 40
0.375
 40
0.375
 40
0.375
 40
0.5
 40
0.5
 40
0.5
 40
0.5
 40
0.625
 40
0.625
 40
0.625
 40
0.625
 40
0.75
 40
0.75
 40
0.75
 40
0.75
 40
1.0
 40
1.0
 40
1.0
 40
1.0
 10
42.0798
 20
-5.6316
 30
0.0
 10
42.0121
 20
-5.7182
 30
0.0
 10
41.9655
 20
-5.7939
 30
0.0
 10
41.9406
 20
-5.8583
 30
0.0
 10
41.9406
 20
-5.8583
 30
0.0
 10
41.9161
 20
-5.9232
 30
0.0
 10
41.9034
 20
-5.9994
 30
0.0
 10
41.9034
 20
-6.0865
 30
0.0
 10
41.9034
 20
-6.0865
 30
0.0
 10
41.9034
 20
-6.2878
 30
0.0
 10
41.9716
 20
-6.4538
 30
0.0
 10
42.108
 20
-6.5855
 30
0.0
 10
42.108
 20
-6.5855
 30
0.0
 10
42.2445
 20
-6.7168
 30
0.0
 10
42.4481
 20
-6.7826
 30
0.0
 10
42.7195
 20
-6.7826
 30
0.0
 10
42.7195
 20
-6.7826
 30
0.0
 10
42.8258
 20
-6.7826
 30
0.0
 10
42.9204
 20
-6.7723
 30
0.0
 10
43.0032
 20
-6.752
 30
0.0
 10
43.0032
 20
-6.752
 30
0.0
 10
43.0648
 20
-6.7374
 30
0.0
 10
43.1405
 20
-6.7069
 30
0.0
 10
43.2303
 20
-6.6598
 30
0.0
 10
43.2303
 20
-6.6598
 30
0.0
 10
43.2303
 20
-6.6598
 30
0.0
 10
42.0798
 20
-5.6316
 30
0.0
 10
42.0798
 20
-5.6316
 30
0.0
  0
SPLINE
  5
43
330
1F
100
AcDbEntity
  8
AXIS
 62
   250
100
AcDbSpline
210
0.0
220
0.0
230
1.0
 70
    11
 71
     3
 72
    28
 73
    24
 74
     0
 42
0.0000000001
 43
0.0000000001
 40
0.0
 40
0.0
 40
0.0
 40
0.0
 40
0.1428571428571428
 40
0.1428571428571428
 40
0.1428571428571428
 40
0.1428571428571428
 40
0.2857142857142857
 40
0.2857142857142857
 40
0.2857142857142857
 40
0.2857142857142857
 40
0.4285714285714285
 40
0.4285714285714285
 40
0.4285714285714285
 40
0.4285714285714285
 40
0.5714285714285714
 40
0.5714285714285714
 40
0.5714285714285714
 40
0.5714285714285714
 40
0.7142857142857143
 40
0.7142857142857143
 40
0.7142857142857143
 40
0.7142857142857143
 40
1.0
 40
1.0
 40
1.0
 40
1.0
 10
42.2219
 20
-5.5187
 30
0.0
 10
42.2219
 20
-5.5187
 30
0.0
 10
43.3682
 20
-6.5427
 30
0.0
 10
43.3682
 20
-6.5427
 30
0.0
 10
43.3682
 20
-6.5427
 30
0.0
 10
43.426
 20
-6.4722
 30
0.0
 10
43.4665
 20
-6.4068
 30
0.0
 10
43.4895
 20
-6.347
 30
0.0
 10
43.4895
 20
-6.347
 30
0.0
 10
43.5201
 20
-6.269
 30
0.0
 10
43.5351
 20
-6.1843
 30
0.0
 10
43.5351
 20
-6.0935
 30
0.0
 10
43.5351
 20
-6.0935
 30
0.0
 10
43.5351
 20
-5.8931
 30
0.0
 10
43.4646
 20
-5.728
 30
0.0
 10
43.323
 20
-5.5973
 30
0.0
 10
43.323
 20
-5.5973
 30
0.0
 10
43.1814
 20
-5.467
 30
0.0
 10
42.9829
 20
-5.4016
 30
0.0
 10
42.7275
 20
-5.4016
 30
0.0
 10
42.7275
 20
-5.4016
 30
0.0
 10
42.5366
 20
-5.4016
 30
0.0
 10
42.3677
 20
-5.4406
 30
0.0
 10
42.2219
 20
-5.5187
 30
0.0
  0
SPLINE
  5
44
330
1F
100
AcDbEntity
  8
AXIS
 62
   250
100
AcDbSpline
210
0.0
220
0.0
230
1.0
 70
    11
 71
     3
 72
    48
 73
    44
 74
     0
 42
0.0000000001
 43
0.0000000001
 40
0.0
 40
0.0
 40
0.0
 40
0.0
 40
0.0833333333333333
 40
0.0833333333333333
 40
0.0833333333333333
 40
0.0833333333333333
 40
0.1666666666666667
 40
0.1666666666666667
 40
0.1666666666666667
 40
0.1666666666666667
 40
0.25
 40
0.25
 40
0.25
 40
0.25
 40
0.3333333333333333
 40
0.3333333333333333
 40
0.3333333333333333
 40
0.3333333333333333
 40
0.4166666666666667
 40
0.4166666666666667
 40
0.4166666666666667
 40
0.4166666666666667
 40
0.5
 40
0.5
 40
0.5
 40
0.5
 40
0.5833333333333334
 40
0.5833333333333334
 40
0.5833333333333334
 40
0.5833333333333334
 40
0.6666666666666666
 40
0.6666666666666666
 40
0.6666666666666666
 40
0.6666666666666666
 40
0.75
 40
0.75
 40
0.75
 40
0.75
 40
0.8333333333333334
 40
0.8333333333333334
 40
0.8333333333333334
 40
0.8333333333333334
 40
1.0
 40
1.0
 40
1.0
 40
1.0
 10
41.974
 20
-4.8602
 30
0.0
 10
41.974
 20
-4.8602
 30
0.0
 10
41.7355
 20
-4.8602
 30
0.0
 10
41.7355
 20
-4.8602
 30
0.0
 10
41.7355
 20
-4.8602
 30
0.0
 10
41.7355
 20
-4.8602
 30
0.0
 10
41.7355
 20
-3.5526
 30
0.0
 10
41.7355
 20
-3.5526
 30
0.0
 10
41.7355
 20
-3.5526
 30
0.0
 10
41.7355
 20
-3.5526
 30
0.0
 10
41.9284
 20
-3.5526
 30
0.0
 10
41.9284
 20
-3.5526
 30
0.0
 10
41.9284
 20
-3.5526
 30
0.0
 10
42.0652
 20
-3.681
 30
0.0
 10
42.2473
 20
-3.8085
 30
0.0
 10
42.474
 20
-3.935
 30
0.0
 10
42.474
 20
-3.935
 30
0.0
 10
42.7007
 20
-4.0611
 30
0.0
 10
42.9345
 20
-4.1589
 30
0.0
 10
43.1739
 20
-4.2276
 30
0.0
 10
43.1739
 20
-4.2276
 30
0.0
 10
43.3432
 20
-4.2774
 30
0.0
 10
43.5281
 20
-4.3089
 30
0.0
 10
43.7294
 20
-4.3226
 30
0.0
 10
43.7294
 20
-4.3226
 30
0.0
 10
43.7294
 20
-4.3226
 30
0.0
 10
43.7294
 20
-4.5775
 30
0.0
 10
43.7294
 20
-4.5775
 30
0.0
 10
43.7294
 20
-4.5775
 30
0.0
 10
43.5704
 20
-4.5747
 30
0.0
 10
43.3785
 20
-4.5437
 30
0.0
 10
43.1532
 20
-4.4839
 30
0.0
 10
43.1532
 20
-4.4839
 30
0.0
 10
42.9284
 20
-4.4242
 30
0.0
 10
42.7111
 20
-4.3386
 30
0.0
 10
42.5022
 20
-4.2271
 30
0.0
 10
42.5022
 20
-4.2271
 30
0.0
 10
42.2934
 20
-4.1152
 30
0.0
 10
42.117
 20
-3.9966
 30
0.0
 10
41.974
 20
-3.8706
 30
0.0
 10
41.974
 20
-3.8706
 30
0.0
 10
41.974
 20
-3.8706
 30
0.0
 10
41.974
 20
-4.8602
 30
0.0
 10
41.974
 20
-4.8602
 30
0.0
  0
SPLINE
  5
45
330
1F
100
AcDbEntity
  8
AXIS
 62
   250
100
AcDbSpline
210
0.0
220
0.0
230
1.0
 70
    11
 71
     3
 72
    52
 73
    48
 74
     0
 42
0.0000000001
 43
0.0000000001
 40
0.0
 40
0.0
 40
0.0
 40
0.0
 40
0.0769230769230769
 40
0.0769230769230769
 40
0.0769230769230769
 40
0.0769230769230769
 40
0.1538461538461539
 40
0.1538461538461539
 40
0.1538461538461539
 40
0.1538461538461539
 40
0.2307692307692308
 40
0.2307692307692308
 40
0.2307692307692308
 40
0.2307692307692308
 40
0.3076923076923077
 40
0.3076923076923077
 40
0.3076923076923077
 40
0.3076923076923077
 40
0.3846153846153846
 40
0.3846153846153846
 40
0.3846153846153846
 40
0.3846153846153846
 40
0.4615384615384616
 40
0.4615384615384616
 40
0.4615384615384616
 40
0.4615384615384616
 40
0.5384615384615384
 40
0.5384615384615384
 40
0.5384615384615384
 40
0.5384615384615384
 40
0.6153846153846154
 40
0.6153846153846154
 40
0.6153846153846154
 40
0.6153846153846154
 40
0.6923076923076923
 40
0.6923076923076923
 40
0.6923076923076923
 40
0.6923076923076923
 40
0.7692307692307693
 40
0.7692307692307693
 40
0.7692307692307693
 40
0.7692307692307693
 40
0.8461538461538461
 40
0.8461538461538461
 40
0.8461538461538461
 40
0.8461538461538461
 40
1.0
 40
1.0
 40
1.0
 40
1.0
 10
42.7332
 20
-3.3071
 30
0.0
 10
42.4942
 20
-3.3071
 30
0.0
 10
42.3018
 20
-3.2826
 30
0.0
 10
42.1565
 20
-3.2332
 30
0.0
 10
42.1565
 20
-3.2332
 30
0.0
 10
42.0107
 20
-3.1843
 30
0.0
 10
41.8983
 20
-3.1109
 30
0.0
 10
41.8192
 20
-3.014
 30
0.0
 10
41.8192
 20
-3.014
 30
0.0
 10
41.7402
 20
-2.9171
 30
0.0
 10
41.7007
 20
-2.7953
 30
0.0
 10
41.7007
 20
-2.6486
 30
0.0
 10
41.7007
 20
-2.6486
 30
0.0
 10
41.7007
 20
-2.5399
 30
0.0
 10
41.7228
 20
-2.4449
 30
0.0
 10
41.7666
 20
-2.3631
 30
0.0
 10
41.7666
 20
-2.3631
 30
0.0
 10
41.8098
 20
-2.2812
 30
0.0
 10
41.8729
 20
-2.2139
 30
0.0
 10
41.9552
 20
-2.1603
 30
0.0
 10
41.9552
 20
-2.1603
 30
0.0
 10
42.0375
 20
-2.1072
 30
0.0
 10
42.1377
 20
-2.0653
 30
0.0
 10
42.2557
 20
-2.0352
 30
0.0
 10
42.2557
 20
-2.0352
 30
0.0
 10
42.3738
 20
-2.0046
 30
0.0
 10
42.5328
 20
-1.9896
 30
0.0
 10
42.7332
 20
-1.9896
 30
0.0
 10
42.7332
 20
-1.9896
 30
0.0
 10
42.9702
 20
-1.9896
 30
0.0
 10
43.1612
 20
-2.014
 30
0.0
 10
43.307
 20
-2.0625
 30
0.0
 10
43.307
 20
-2.0625
 30
0.0
 10
43.4528
 20
-2.1114
 30
0.0
 10
43.5652
 20
-2.1843
 30
0.0
 10
43.6447
 20
-2.2812
 30
0.0
 10
43.6447
 20
-2.2812
 30
0.0
 10
43.7242
 20
-2.3781
 30
0.0
 10
43.7637
 20
-2.5004
 30
0.0
 10
43.7637
 20
-2.6486
 30
0.0
 10
43.7637
 20
-2.6486
 30
0.0
 10
43.7637
 20
-2.8433
 30
0.0
 10
43.6941
 20
-2.9962
 30
0.0
 10
43.5544
 20
-3.1072
 30
0.0
 10
43.5544
 20
-3.1072
 30
0.0
 10
43.3865
 20
-3.2403
 30
0.0
 10
43.1123
 20
-3.3071
 30
0.0
 10
42.7332
 20
-3.3071
 30
0.0
  0
SPLINE
  5
46
330
1F
100
AcDbEntity
  8
AXIS
 62
   250
100
AcDbSpline
210
0.0
220
0.0
230
1.0
 70
    11
 71
     3
 72
    36
 73
    32
 74
     0
 42
0.0000000001
 43
0.0000000001
 40
0.0
 40
0.0
 40
0.0
 40
0.0
 40
0.1111111111111111
 40
0.1111111111111111
 40
0.1111111111111111
 40
0.1111111111111111
 40
0.2222222222222222
 40
0.2222222222222222
 40
0.2222222222222222
 40
0.2222222222222222
 40
0.3333333333333333
 40
0.3333333333333333
 40
0.3333333333333333
 40
0.3333333333333333
 40
0.4444444444444444
 40
0.4444444444444444
 40
0.4444444444444444
 40
0.4444444444444444
 40
0.5555555555555556
 40
0.5555555555555556
 40
0.5555555555555556
 40
0.5555555555555556
 40
0.6666666666666666
 40
0.6666666666666666
 40
0.6666666666666666
 40
0.6666666666666666
 40
0.7777777777777778
 40
0.7777777777777778
 40
0.7777777777777778
 40
0.7777777777777778
 40
1.0
 40
1.0
 40
1.0
 40
1.0
 10
42.7332
 20
-3.0521
 30
0.0
 10
43.0648
 20
-3.0521
 30
0.0
 10
43.2854
 20
-3.0131
 30
0.0
 10
43.3954
 20
-2.9355
 30
0.0
 10
43.3954
 20
-2.9355
 30
0.0
 10
43.505
 20
-2.8579
 30
0.0
 10
43.5601
 20
-2.7624
 30
0.0
 10
43.5601
 20
-2.6486
 30
0.0
 10
43.5601
 20
-2.6486
 30
0.0
 10
43.5601
 20
-2.5343
 30
0.0
 10
43.5046
 20
-2.4388
 30
0.0
 10
43.3945
 20
-2.3612
 30
0.0
 10
43.3945
 20
-2.3612
 30
0.0
 10
43.2844
 20
-2.2836
 30
0.0
 10
43.0638
 20
-2.2445
 30
0.0
 10
42.7332
 20
-2.2445
 30
0.0
 10
42.7332
 20
-2.2445
 30
0.0
 10
42.4006
 20
-2.2445
 30
0.0
 10
42.1795
 20
-2.2836
 30
0.0
 10
42.0704
 20
-2.3612
 30
0.0
 10
42.0704
 20
-2.3612
 30
0.0
 10
41.9608
 20
-2.4388
 30
0.0
 10
41.9063
 20
-2.5352
 30
0.0
 10
41.9063
 20
-2.6509
 30
0.0
 10
41.9063
 20
-2.6509
 30
0.0
 10
41.9063
 20
-2.7652
 30
0.0
 10
41.9547
 20
-2.856
 30
0.0
 10
42.0511
 20
-2.9242
 30
0.0
 10
42.0511
 20
-2.9242
 30
0.0
 10
42.1739
 20
-3.0093
 30
0.0
 10
42.4016
 20
-3.0521
 30
0.0
 10
42.7332
 20
-3.0521
 30
0.0
  0
SPLINE
  5
47
330
1F
100
AcDbEntity
  8
AXIS
 62
   250
100
AcDbSpline
210
0.0
220
0.0
230
1.0
 70
    11
 71
     3
 72
    84
 73
    80
 74
     0
 42
0.0000000001
 43
0.0000000001
 40
0.0
 40
0.0
 40
0.0
 40
0.0
 40
0.0476190476190476
 40
0.0476190476190476
 40
0.0476190476190476
 40
0.0476190476190476
 40
0.0952380952380952
 40
0.0952380952380952
 40
0.0952380952380952
 40
0.0952380952380952
 40
0.1428571428571428
 40
0.1428571428571428
 40
0.1428571428571428
 40
0.1428571428571428
 40
0.1904761904761905
 40
0.1904761904761905
 40
0.1904761904761905
 40
0.1904761904761905
 40
0.2380952380952381
 40
0.2380952380952381
 40
0.2380952380952381
 40
0.2380952380952381
 40
0.2857142857142857
 40
0.2857142857142857
 40
0.2857142857142857
 40
0.2857142857142857
 40
0.3333333333333333
 40
0.3333333333333333
 40
0.3333333333333333
 40
0.3333333333333333
 40
0.3809523809523809
 40
0.3809523809523809
 40
0.3809523809523809
 40
0.3809523809523809
 40
0.4285714285714285
 40
0.4285714285714285
 40
0.4285714285714285
 40
0.4285714285714285
 40
0.4761904761904762
 40
0.4761904761904762
 40
0.4761904761904762
 40
0.4761904761904762
 40
0.5238095238095238
 40
0.5238095238095238
 40
0.5238095238095238
 40
0.5238095238095238
 40
0.5714285714285714
 40
0.5714285714285714
 40
0.5714285714285714
 40
0.5714285714285714
 40
0.6190476190476191
 40
0.6190476190476191
 40
0.6190476190476191
 40
0.6190476190476191
 40
0.6666666666666666
 40
0.6666666666666666
 40
0.6666666666666666
 40
0.6666666666666666
 40
0.7142857142857143
 40
0.7142857142857143
 40
0.7142857142857143
 40
0.7142857142857143
 40
0.7619047619047619
 40
0.7619047619047619
 40
0.7619047619047619
 40
0.7619047619047619
 40
0.8095238095238095
 40
0.8095238095238095
 40
0.8095238095238095
 40
0.8095238095238095
 40
0.8571428571428571
 40
0.8571428571428571
 40
0.8571428571428571
 40
0.8571428571428571
 40
0.9047619047619048
 40
0.9047619047619048
 40
0.9047619047619048
 40
0.9047619047619048
 40
1.0
 40
1.0
 40
1.0
 40
1.0
 10
17.6796
 20
6.8096
 30
0.0
 10
17.6796
 20
6.8096
 30
0.0
 10
17.4205
 20
7.041
 30
0.0
 10
17.4205
 20
7.041
 30
0.0
 10
17.4205
 20
7.041
 30
0.0
 10
17.4205
 20
7.041
 30
0.0
 10
17.5362
 20
7.1774
 30
0.0
 10
17.5362
 20
7.1774
 30
0.0
 10
17.5362
 20
7.1774
 30
0.0
 10
17.5362
 20
7.1774
 30
0.0
 10
17.809
 20
6.9352
 30
0.0
 10
17.809
 20
6.9352
 30
0.0
 10
17.809
 20
6.9352
 30
0.0
 10
17.9266
 20
7.0142
 30
0.0
 10
18.0296
 20
7.0673
 30
0.0
 10
18.1175
 20
7.0951
 30
0.0
 10
18.1175
 20
7.0951
 30
0.0
 10
18.2333
 20
7.1318
 30
0.0
 10
18.3631
 20
7.1501
 30
0.0
 10
18.5061
 20
7.1501
 30
0.0
 10
18.5061
 20
7.1501
 30
0.0
 10
18.713
 20
7.1501
 30
0.0
 10
18.8974
 20
7.1083
 30
0.0
 10
19.0587
 20
7.0245
 30
0.0
 10
19.0587
 20
7.0245
 30
0.0
 10
19.2206
 20
6.9408
 30
0.0
 10
19.3428
 20
6.8237
 30
0.0
 10
19.4256
 20
6.6727
 30
0.0
 10
19.4256
 20
6.6727
 30
0.0
 10
19.5079
 20
6.5212
 30
0.0
 10
19.5493
 20
6.3609
 30
0.0
 10
19.5493
 20
6.1911
 30
0.0
 10
19.5493
 20
6.1911
 30
0.0
 10
19.5493
 20
6.0641
 30
0.0
 10
19.5315
 20
5.9493
 30
0.0
 10
19.4957
 20
5.8463
 30
0.0
 10
19.4957
 20
5.8463
 30
0.0
 10
19.468
 20
5.7673
 30
0.0
 10
19.4153
 20
5.6751
 30
0.0
 10
19.3372
 20
5.5692
 30
0.0
 10
19.3372
 20
5.5692
 30
0.0
 10
19.3372
 20
5.5692
 30
0.0
 10
19.5964
 20
5.3378
 30
0.0
 10
19.5964
 20
5.3378
 30
0.0
 10
19.5964
 20
5.3378
 30
0.0
 10
19.5964
 20
5.3378
 30
0.0
 10
19.4807
 20
5.2014
 30
0.0
 10
19.4807
 20
5.2014
 30
0.0
 10
19.4807
 20
5.2014
 30
0.0
 10
19.4807
 20
5.2014
 30
0.0
 10
19.2093
 20
5.4441
 30
0.0
 10
19.2093
 20
5.4441
 30
0.0
 10
19.2093
 20
5.4441
 30
0.0
 10
19.0724
 20
5.3538
 30
0.0
 10
18.9553
 20
5.2936
 30
0.0
 10
18.8584
 20
5.2635
 30
0.0
 10
18.8584
 20
5.2635
 30
0.0
 10
18.7615
 20
5.2334
 30
0.0
 10
18.6448
 20
5.2179
 30
0.0
 10
18.5089
 20
5.2179
 30
0.0
 10
18.5089
 20
5.2179
 30
0.0
 10
18.3015
 20
5.2179
 30
0.0
 10
18.1166
 20
5.2593
 30
0.0
 10
17.9543
 20
5.342
 30
0.0
 10
17.9543
 20
5.342
 30
0.0
 10
17.792
 20
5.4248
 30
0.0
 10
17.6693
 20
5.5405
 30
0.0
 10
17.5856
 20
5.6901
 30
0.0
 10
17.5856
 20
5.6901
 30
0.0
 10
17.5023
 20
5.8392
 30
0.0
 10
17.4604
 20
6.0053
 30
0.0
 10
17.4604
 20
6.1882
 30
0.0
 10
17.4604
 20
6.1882
 30
0.0
 10
17.4604
 20
6.3115
 30
0.0
 10
17.4764
 20
6.4192
 30
0.0
 10
17.5094
 20
6.5114
 30
0.0
 10
17.5094
 20
6.5114
 30
0.0
 10
17.5418
 20
6.6036
 30
0.0
 10
17.5987
 20
6.7033
 30
0.0
 10
17.6796
 20
6.8096
 30
0.0
  0
SPLINE
  5
48
330
1F
100
AcDbEntity
  8
AXIS
 62
   250
100
AcDbSpline
210
0.0
220
0.0
230
1.0
 70
    11
 71
     3
 72
    32
 73
    28
 74
     0
 42
0.0000000001
 43
0.0000000001
 40
0.0
 40
0.0
 40
0.0
 40
0.0
 40
0.125
 40
0.125
 40
0.125
 40
0.125
 40
0.25
 40
0.25
 40
0.25
 40
0.25
 40
0.375
 40
0.375
 40
0.375
 40
0.375
 40
0.5
 40
0.5
 40
0.5
 40
0.5
 40
0.625
 40
0.625
 40
0.625
 40
0.625
 40
0.75
 40
0.75
 40
0.75
 40
0.75
 40
1.0
 40
1.0
 40
1.0
 40
1.0
 10
17.8654
 20
6.6445
 30
0.0
 10
17.7977
 20
6.5579
 30
0.0
 10
17.7511
 20
6.4822
 30
0.0
 10
17.7262
 20
6.4178
 30
0.0
 10
17.7262
 20
6.4178
 30
0.0
 10
17.7017
 20
6.3529
 30
0.0
 10
17.689
 20
6.2767
 30
0.0
 10
17.689
 20
6.1896
 30
0.0
 10
17.689
 20
6.1896
 30
0.0
 10
17.689
 20
5.9883
 30
0.0
 10
17.7572
 20
5.8223
 30
0.0
 10
17.8936
 20
5.6906
 30
0.0
 10
17.8936
 20
5.6906
 30
0.0
 10
18.0301
 20
5.5593
 30
0.0
 10
18.2337
 20
5.4935
 30
0.0
 10
18.5051
 20
5.4935
 30
0.0
 10
18.5051
 20
5.4935
 30
0.0
 10
18.6114
 20
5.4935
 30
0.0
 10
18.706
 20
5.5038
 30
0.0
 10
18.7888
 20
5.5241
 30
0.0
 10
18.7888
 20
5.5241
 30
0.0
 10
18.8504
 20
5.5387
 30
0.0
 10
18.9261
 20
5.5692
 30
0.0
 10
19.0159
 20
5.6163
 30
0.0
 10
19.0159
 20
5.6163
 30
0.0
 10
19.0159
 20
5.6163
 30
0.0
 10
17.8654
 20
6.6445
 30
0.0
 10
17.8654
 20
6.6445
 30
0.0
  0
SPLINE
  5
49
330
1F
100
AcDbEntity
  8
AXIS
 62
   250
100
AcDbSpline
210
0.0
220
0.0
230
1.0
 70
    11
 71
     3
 72
    28
 73
    24
 74
     0
 42
0.0000000001
 43
0.0000000001
 40
0.0
 40
0.0
 40
0.0
 40
0.0
 40
0.1428571428571428
 40
0.1428571428571428
 40
0.1428571428571428
 40
0.1428571428571428
 40
0.2857142857142857
 40
0.2857142857142857
 40
0.2857142857142857
 40
0.2857142857142857
 40
0.4285714285714285
 40
0.4285714285714285
 40
0.4285714285714285
 40
0.4285714285714285
 40
0.5714285714285714
 40
0.5714285714285714
 40
0.5714285714285714
 40
0.5714285714285714
 40
0.7142857142857143
 40
0.7142857142857143
 40
0.7142857142857143
 40
0.7142857142857143
 40
1.0
 40
1.0
 40
1.0
 40
1.0
 10
18.0075
 20
6.7574
 30
0.0
 10
18.0075
 20
6.7574
 30
0.0
 10
19.1538
 20
5.7334
 30
0.0
 10
19.1538
 20
5.7334
 30
0.0
 10
19.1538
 20
5.7334
 30
0.0
 10
19.2116
 20
5.8039
 30
0.0
 10
19.2521
 20
5.8693
 30
0.0
 10
19.2751
 20
5.9291
 30
0.0
 10
19.2751
 20
5.9291
 30
0.0
 10
19.3057
 20
6.0071
 30
0.0
 10
19.3207
 20
6.0918
 30
0.0
 10
19.3207
 20
6.1826
 30
0.0
 10
19.3207
 20
6.1826
 30
0.0
 10
19.3207
 20
6.383
 30
0.0
 10
19.2502
 20
6.5481
 30
0.0
 10
19.1086
 20
6.6788
 30
0.0
 10
19.1086
 20
6.6788
 30
0.0
 10
18.967
 20
6.8091
 30
0.0
 10
18.7685
 20
6.8745
 30
0.0
 10
18.5131
 20
6.8745
 30
0.0
 10
18.5131
 20
6.8745
 30
0.0
 10
18.3222
 20
6.8745
 30
0.0
 10
18.1533
 20
6.8355
 30
0.0
 10
18.0075
 20
6.7574
 30
0.0
  0
SPLINE
  5
4A
330
1F
100
AcDbEntity
  8
AXIS
 62
   250
100
AcDbSpline
210
0.0
220
0.0
230
1.0
 70
    11
 71
     3
 72
   124
 73
   120
 74
     0
 42
0.0000000001
 43
0.0000000001
 40
0.0
 40
0.0
 40
0.0
 40
0.0
 40
0.032258064516129
 40
0.032258064516129
 40
0.032258064516129
 40
0.032258064516129
 40
0.0645161290322581
 40
0.0645161290322581
 40
0.0645161290322581
 40
0.0645161290322581
 40
0.0967741935483871
 40
0.0967741935483871
 40
0.0967741935483871
 40
0.0967741935483871
 40
0.1290322580645161
 40
0.1290322580645161
 40
0.1290322580645161
 40
0.1290322580645161
 40
0.1612903225806452
 40
0.1612903225806452
 40
0.1612903225806452
 40
0.1612903225806452
 40
0.1935483870967742
 40
0.1935483870967742
 40
0.1935483870967742
 40
0.1935483870967742
 40
0.2258064516129032
 40
0.2258064516129032
 40
0.2258064516129032
 40
0.2258064516129032
 40
0.2580645161290323
 40
0.2580645161290323
 40
0.2580645161290323
 40
0.2580645161290323
 40
0.2903225806451613
 40
0.2903225806451613
 40
0.2903225806451613
 40
0.2903225806451613
 40
0.3225806451612903
 40
0.3225806451612903
 40
0.3225806451612903
 40
0.3225806451612903
 40
0.3548387096774194
 40
0.3548387096774194
 40
0.3548387096774194
 40
0.3548387096774194
 40
0.3870967741935484
 40
0.3870967741935484
 40
0.3870967741935484
 40
0.3870967741935484
 40
0.4193548387096774
 40
0.4193548387096774
 40
0.4193548387096774
 40
0.4193548387096774
 40
0.4516129032258064
 40
0.4516129032258064
 40
0.4516129032258064
 40
0.4516129032258064
 40
0.4838709677419355
 40
0.4838709677419355
 40
0.4838709677419355
 40
0.4838709677419355
 40
0.5161290322580645
 40
0.5161290322580645
 40
0.5161290322580645
 40
0.5161290322580645
 40
0.5483870967741935
 40
0.5483870967741935
 40
0.5483870967741935
 40
0.5483870967741935
 40
0.5806451612903226
 40
0.5806451612903226
 40
0.5806451612903226
 40
0.5806451612903226
 40
0.6129032258064516
 40
0.6129032258064516
 40
0.6129032258064516
 40
0.6129032258064516
 40
0.6451612903225806
 40
0.6451612903225806
 40
0.6451612903225806
 40
0.6451612903225806
 40
0.6774193548387096
 40
0.6774193548387096
 40
0.6774193548387096
 40
0.6774193548387096
 40
0.7096774193548387
 40
0.7096774193548387
 40
0.7096774193548387
 40
0.7096774193548387
 40
0.7419354838709677
 40
0.7419354838709677
 40
0.7419354838709677
 40
0.7419354838709677
 40
0.7741935483870968
 40
0.7741935483870968
 40
0.7741935483870968
 40
0.7741935483870968
 40
0.8064516129032258
 40
0.8064516129032258
 40
0.8064516129032258
 40
0.8064516129032258
 40
0.8387096774193549
 40
0.8387096774193549
 40
0.8387096774193549
 40
0.8387096774193549
 40
0.8709677419354839
 40
0.8709677419354839
 40
0.8709677419354839
 40
0.8709677419354839
 40
0.9032258064516129
 40
0.9032258064516129
 40
0.9032258064516129
 40
0.9032258064516129
 40
0.9354838709677419
 40
0.9354838709677419
 40
0.9354838709677419
 40
0.9354838709677419
 40
1.0
 40
1.0
 40
1.0
 40
1.0
 10
18.9816
 20
7.4008
 30
0.0
 10
18.9816
 20
7.4008
 30
0.0
 10
18.9487
 20
7.6487
 30
0.0
 10
18.9487
 20
7.6487
 30
0.0
 10
18.9487
 20
7.6487
 30
0.0
 10
19.0893
 20
7.6774
 30
0.0
 10
19.1904
 20
7.7259
 30
0.0
 10
19.2525
 20
7.7941
 30
0.0
 10
19.2525
 20
7.7941
 30
0.0
 10
19.3146
 20
7.8627
 30
0.0
 10
19.3457
 20
7.946
 30
0.0
 10
19.3457
 20
8.0443
 30
0.0
 10
19.3457
 20
8.0443
 30
0.0
 10
19.3457
 20
8.1609
 30
0.0
 10
19.3052
 20
8.2597
 30
0.0
 10
19.2243
 20
8.3402
 30
0.0
 10
19.2243
 20
8.3402
 30
0.0
 10
19.1434
 20
8.4201
 30
0.0
 10
19.0432
 20
8.4606
 30
0.0
 10
18.9237
 20
8.4606
 30
0.0
 10
18.9237
 20
8.4606
 30
0.0
 10
18.8099
 20
8.4606
 30
0.0
 10
18.7158
 20
8.4234
 30
0.0
 10
18.642
 20
8.3491
 30
0.0
 10
18.642
 20
8.3491
 30
0.0
 10
18.5682
 20
8.2743
 30
0.0
 10
18.531
 20
8.1798
 30
0.0
 10
18.531
 20
8.065
 30
0.0
 10
18.531
 20
8.065
 30
0.0
 10
18.531
 20
8.018
 30
0.0
 10
18.5404
 20
7.9596
 30
0.0
 10
18.5587
 20
7.89
 30
0.0
 10
18.5587
 20
7.89
 30
0.0
 10
18.5587
 20
7.89
 30
0.0
 10
18.341
 20
7.9178
 30
0.0
 10
18.341
 20
7.9178
 30
0.0
 10
18.341
 20
7.9178
 30
0.0
 10
18.3428
 20
7.9342
 30
0.0
 10
18.3438
 20
7.9474
 30
0.0
 10
18.3438
 20
7.9577
 30
0.0
 10
18.3438
 20
7.9577
 30
0.0
 10
18.3438
 20
8.0631
 30
0.0
 10
18.316
 20
8.1581
 30
0.0
 10
18.261
 20
8.2428
 30
0.0
 10
18.261
 20
8.2428
 30
0.0
 10
18.206
 20
8.3275
 30
0.0
 10
18.1208
 20
8.3698
 30
0.0
 10
18.0061
 20
8.3698
 30
0.0
 10
18.0061
 20
8.3698
 30
0.0
 10
17.9153
 20
8.3698
 30
0.0
 10
17.8396
 20
8.3387
 30
0.0
 10
17.7803
 20
8.2771
 30
0.0
 10
17.7803
 20
8.2771
 30
0.0
 10
17.7206
 20
8.2155
 30
0.0
 10
17.6904
 20
8.136
 30
0.0
 10
17.6904
 20
8.0386
 30
0.0
 10
17.6904
 20
8.0386
 30
0.0
 10
17.6904
 20
7.9422
 30
0.0
 10
17.721
 20
7.8618
 30
0.0
 10
17.7812
 20
7.7978
 30
0.0
 10
17.7812
 20
7.7978
 30
0.0
 10
17.8419
 20
7.7334
 30
0.0
 10
17.9332
 20
7.692
 30
0.0
 10
18.0545
 20
7.6736
 30
0.0
 10
18.0545
 20
7.6736
 30
0.0
 10
18.0545
 20
7.6736
 30
0.0
 10
18.0103
 20
7.4258
 30
0.0
 10
18.0103
 20
7.4258
 30
0.0
 10
18.0103
 20
7.4258
 30
0.0
 10
17.8438
 20
7.4559
 30
0.0
 10
17.7149
 20
7.525
 30
0.0
 10
17.6237
 20
7.6323
 30
0.0
 10
17.6237
 20
7.6323
 30
0.0
 10
17.5324
 20
7.74
 30
0.0
 10
17.4863
 20
7.8736
 30
0.0
 10
17.4863
 20
8.0335
 30
0.0
 10
17.4863
 20
8.0335
 30
0.0
 10
17.4863
 20
8.1435
 30
0.0
 10
17.5103
 20
8.2451
 30
0.0
 10
17.5573
 20
8.3378
 30
0.0
 10
17.5573
 20
8.3378
 30
0.0
 10
17.6048
 20
8.4305
 30
0.0
 10
17.6693
 20
8.5015
 30
0.0
 10
17.7511
 20
8.5509
 30
0.0
 10
17.7511
 20
8.5509
 30
0.0
 10
17.833
 20
8.5998
 30
0.0
 10
17.9195
 20
8.6247
 30
0.0
 10
18.0117
 20
8.6247
 30
0.0
 10
18.0117
 20
8.6247
 30
0.0
 10
18.0987
 20
8.6247
 30
0.0
 10
18.1782
 20
8.6012
 30
0.0
 10
18.2502
 20
8.5542
 30
0.0
 10
18.2502
 20
8.5542
 30
0.0
 10
18.3217
 20
8.5071
 30
0.0
 10
18.3786
 20
8.438
 30
0.0
 10
18.4209
 20
8.3463
 30
0.0
 10
18.4209
 20
8.3463
 30
0.0
 10
18.4482
 20
8.4657
 30
0.0
 10
18.5056
 20
8.5584
 30
0.0
 10
18.5926
 20
8.6247
 30
0.0
 10
18.5926
 20
8.6247
 30
0.0
 10
18.6792
 20
8.6906
 30
0.0
 10
18.7878
 20
8.7235
 30
0.0
 10
18.9181
 20
8.7235
 30
0.0
 10
18.9181
 20
8.7235
 30
0.0
 10
19.0945
 20
8.7235
 30
0.0
 10
19.2441
 20
8.6595
 30
0.0
 10
19.3668
 20
8.5307
 30
0.0
 10
19.3668
 20
8.5307
 30
0.0
 10
19.4896
 20
8.4022
 30
0.0
 10
19.5507
 20
8.2395
 30
0.0
 10
19.5507
 20
8.0429
 30
0.0
 10
19.5507
 20
8.0429
 30
0.0
 10
19.5507
 20
7.8656
 30
0.0
 10
19.4981
 20
7.7183
 30
0.0
 10
19.3922
 20
7.6012
 30
0.0
 10
19.3922
 20
7.6012
 30
0.0
 10
19.2869
 20
7.4841
 30
0.0
 10
19.15
 20
7.4173
 30
0.0
 10
18.9816
 20
7.4008
 30
0.0
  0
SPLINE
  5
4B
330
1F
100
AcDbEntity
  8
AXIS
 62
   250
100
AcDbSpline
210
0.0
220
0.0
230
1.0
 70
    11
 71
     3
 72
    92
 73
    88
 74
     0
 42
0.0000000001
 43
0.0000000001
 40
0.0
 40
0.0
 40
0.0
 40
0.0
 40
0.0434782608695652
 40
0.0434782608695652
 40
0.0434782608695652
 40
0.0434782608695652
 40
0.0869565217391304
 40
0.0869565217391304
 40
0.0869565217391304
 40
0.0869565217391304
 40
0.1304347826086956
 40
0.1304347826086956
 40
0.1304347826086956
 40
0.1304347826086956
 40
0.1739130434782609
 40
0.1739130434782609
 40
0.1739130434782609
 40
0.1739130434782609
 40
0.2173913043478261
 40
0.2173913043478261
 40
0.2173913043478261
 40
0.2173913043478261
 40
0.2608695652173913
 40
0.2608695652173913
 40
0.2608695652173913
 40
0.2608695652173913
 40
0.3043478260869565
 40
0.3043478260869565
 40
0.3043478260869565
 40
0.3043478260869565
 40
0.3478260869565217
 40
0.3478260869565217
 40
0.3478260869565217
 40
0.3478260869565217
 40
0.391304347826087
 40
0.391304347826087
 40
0.391304347826087
 40
0.391304347826087
 40
0.4347826086956522
 40
0.4347826086956522
 40
0.4347826086956522
 40
0.4347826086956522
 40
0.4782608695652174
 40
0.4782608695652174
 40
0.4782608695652174
 40
0.4782608695652174
 40
0.5217391304347826
 40
0.5217391304347826
 40
0.5217391304347826
 40
0.5217391304347826
 40
0.5652173913043478
 40
0.5652173913043478
 40
0.5652173913043478
 40
0.5652173913043478
 40
0.6086956521739131
 40
0.6086956521739131
 40
0.6086956521739131
 40
0.6086956521739131
 40
0.6521739130434783
 40
0.6521739130434783
 40
0.6521739130434783
 40
0.6521739130434783
 40
0.6956521739130435
 40
0.6956521739130435
 40
0.6956521739130435
 40
0.6956521739130435
 40
0.7391304347826086
 40
0.7391304347826086
 40
0.7391304347826086
 40
0.7391304347826086
 40
0.782608695652174
 40
0.782608695652174
 40
0.782608695652174
 40
0.782608695652174
 40
0.8260869565217391
 40
0.8260869565217391
 40
0.8260869565217391
 40
0.8260869565217391
 40
0.8695652173913043
 40
0.8695652173913043
 40
0.8695652173913043
 40
0.8695652173913043
 40
0.9130434782608695
 40
0.9130434782608695
 40
0.9130434782608695
 40
0.9130434782608695
 40
1.0
 40
1.0
 40
1.0
 40
1.0
 10
19.2765
 20
10.2729
 30
0.0
 10
19.2765
 20
10.2729
 30
0.0
 10
19.515
 20
10.2729
 30
0.0
 10
19.515
 20
10.2729
 30
0.0
 10
19.515
 20
10.2729
 30
0.0
 10
19.515
 20
10.2729
 30
0.0
 10
19.515
 20
8.9375
 30
0.0
 10
19.515
 20
8.9375
 30
0.0
 10
19.515
 20
8.9375
 30
0.0
 10
19.4553
 20
8.9356
 30
0.0
 10
19.3979
 20
8.945
 30
0.0
 10
19.3428
 20
8.9662
 30
0.0
 10
19.3428
 20
8.9662
 30
0.0
 10
19.2516
 20
9.0001
 30
0.0
 10
19.1622
 20
9.0546
 30
0.0
 10
19.0738
 20
9.1294
 30
0.0
 10
19.0738
 20
9.1294
 30
0.0
 10
18.9858
 20
9.2047
 30
0.0
 10
18.8838
 20
9.3129
 30
0.0
 10
18.7681
 20
9.454
 30
0.0
 10
18.7681
 20
9.454
 30
0.0
 10
18.5879
 20
9.6736
 30
0.0
 10
18.4454
 20
9.8223
 30
0.0
 10
18.34
 20
9.8994
 30
0.0
 10
18.34
 20
9.8994
 30
0.0
 10
18.2351
 20
9.9765
 30
0.0
 10
18.1354
 20
10.0151
 30
0.0
 10
18.0418
 20
10.0151
 30
0.0
 10
18.0418
 20
10.0151
 30
0.0
 10
17.9435
 20
10.0151
 30
0.0
 10
17.8607
 20
9.9798
 30
0.0
 10
17.793
 20
9.9098
 30
0.0
 10
17.793
 20
9.9098
 30
0.0
 10
17.7257
 20
9.8392
 30
0.0
 10
17.6919
 20
9.7475
 30
0.0
 10
17.6919
 20
9.6346
 30
0.0
 10
17.6919
 20
9.6346
 30
0.0
 10
17.6919
 20
9.5151
 30
0.0
 10
17.7276
 20
9.4196
 30
0.0
 10
17.7996
 20
9.3481
 30
0.0
 10
17.7996
 20
9.3481
 30
0.0
 10
17.8711
 20
9.2762
 30
0.0
 10
17.9703
 20
9.24
 30
0.0
 10
18.0968
 20
9.239
 30
0.0
 10
18.0968
 20
9.239
 30
0.0
 10
18.0968
 20
9.239
 30
0.0
 10
18.071
 20
8.9841
 30
0.0
 10
18.071
 20
8.9841
 30
0.0
 10
18.071
 20
8.9841
 30
0.0
 10
17.8805
 20
9.0015
 30
0.0
 10
17.7356
 20
9.0673
 30
0.0
 10
17.6359
 20
9.1812
 30
0.0
 10
17.6359
 20
9.1812
 30
0.0
 10
17.5362
 20
9.295
 30
0.0
 10
17.4863
 20
9.4483
 30
0.0
 10
17.4863
 20
9.6402
 30
0.0
 10
17.4863
 20
9.6402
 30
0.0
 10
17.4863
 20
9.834
 30
0.0
 10
17.5404
 20
9.9874
 30
0.0
 10
17.6476
 20
10.1003
 30
0.0
 10
17.6476
 20
10.1003
 30
0.0
 10
17.7554
 20
10.2136
 30
0.0
 10
17.8885
 20
10.2701
 30
0.0
 10
18.0475
 20
10.2701
 30
0.0
 10
18.0475
 20
10.2701
 30
0.0
 10
18.1284
 20
10.2701
 30
0.0
 10
18.2079
 20
10.2536
 30
0.0
 10
18.2859
 20
10.2202
 30
0.0
 10
18.2859
 20
10.2202
 30
0.0
 10
18.364
 20
10.1873
 30
0.0
 10
18.4463
 20
10.1322
 30
0.0
 10
18.5324
 20
10.0556
 30
0.0
 10
18.5324
 20
10.0556
 30
0.0
 10
18.619
 20
9.9789
 30
0.0
 10
18.7375
 20
9.8514
 30
0.0
 10
18.888
 20
9.6732
 30
0.0
 10
18.888
 20
9.6732
 30
0.0
 10
19.0131
 20
9.5245
 30
0.0
 10
19.0978
 20
9.429
 30
0.0
 10
19.1425
 20
9.3867
 30
0.0
 10
19.1425
 20
9.3867
 30
0.0
 10
19.1867
 20
9.3444
 30
0.0
 10
19.2314
 20
9.3096
 30
0.0
 10
19.2765
 20
9.2818
 30
0.0
 10
19.2765
 20
9.2818
 30
0.0
 10
19.2765
 20
9.2818
 30
0.0
 10
19.2765
 20
10.2729
 30
0.0
 10
19.2765
 20
10.2729
 30
0.0
  0
SPLINE
  5
4C
330
1F
100
AcDbEntity
  8
AXIS
 62
   250
100
AcDbSpline
210
0.0
220
0.0
230
1.0
 70
    11
 71
     3
 72
    84
 73
    80
 74
     0
 42
0.0000000001
 43
0.0000000001
 40
0.0
 40
0.0
 40
0.0
 40
0.0
 40
0.0476190476190476
 40
0.0476190476190476
 40
0.0476190476190476
 40
0.0476190476190476
 40
0.0952380952380952
 40
0.0952380952380952
 40
0.0952380952380952
 40
0.0952380952380952
 40
0.1428571428571428
 40
0.1428571428571428
 40
0.1428571428571428
 40
0.1428571428571428
 40
0.1904761904761905
 40
0.1904761904761905
 40
0.1904761904761905
 40
0.1904761904761905
 40
0.2380952380952381
 40
0.2380952380952381
 40
0.2380952380952381
 40
0.2380952380952381
 40
0.2857142857142857
 40
0.2857142857142857
 40
0.2857142857142857
 40
0.2857142857142857
 40
0.3333333333333333
 40
0.3333333333333333
 40
0.3333333333333333
 40
0.3333333333333333
 40
0.3809523809523809
 40
0.3809523809523809
 40
0.3809523809523809
 40
0.3809523809523809
 40
0.4285714285714285
 40
0.4285714285714285
 40
0.4285714285714285
 40
0.4285714285714285
 40
0.4761904761904762
 40
0.4761904761904762
 40
0.4761904761904762
 40
0.4761904761904762
 40
0.5238095238095238
 40
0.5238095238095238
 40
0.5238095238095238
 40
0.5238095238095238
 40
0.5714285714285714
 40
0.5714285714285714
 40
0.5714285714285714
 40
0.5714285714285714
 40
0.6190476190476191
 40
0.6190476190476191
 40
0.6190476190476191
 40
0.6190476190476191
 40
0.6666666666666666
 40
0.6666666666666666
 40
0.6666666666666666
 40
0.6666666666666666
 40
0.7142857142857143
 40
0.7142857142857143
 40
0.7142857142857143
 40
0.7142857142857143
 40
0.7619047619047619
 40
0.7619047619047619
 40
0.7619047619047619
 40
0.7619047619047619
 40
0.8095238095238095
 40
0.8095238095238095
 40
0.8095238095238095
 40
0.8095238095238095
 40
0.8571428571428571
 40
0.8571428571428571
 40
0.8571428571428571
 40
0.8571428571428571
 40
0.9047619047619048
 40
0.9047619047619048
 40
0.9047619047619048
 40
0.9047619047619048
 40
1.0
 40
1.0
 40
1.0
 40
1.0
 10
-28.5062
 20
-30.5701
 30
0.0
 10
-28.5062
 20
-30.5701
 30
0.0
 10
-28.2748
 20
-30.311
 30
0.0
 10
-28.2748
 20
-30.311
 30
0.0
 10
-28.2748
 20
-30.311
 30
0.0
 10
-28.2748
 20
-30.311
 30
0.0
 10
-28.1384
 20
-30.4267
 30
0.0
 10
-28.1384
 20
-30.4267
 30
0.0
 10
-28.1384
 20
-30.4267
 30
0.0
 10
-28.1384
 20
-30.4267
 30
0.0
 10
-28.3806
 20
-30.6995
 30
0.0
 10
-28.3806
 20
-30.6995
 30
0.0
 10
-28.3806
 20
-30.6995
 30
0.0
 10
-28.3016
 20
-30.8171
 30
0.0
 10
-28.2485
 20
-30.9201
 30
0.0
 10
-28.2207
 20
-31.008
 30
0.0
 10
-28.2207
 20
-31.008
 30
0.0
 10
-28.184
 20
-31.1238
 30
0.0
 10
-28.1657
 20
-31.2536
 30
0.0
 10
-28.1657
 20
-31.3966
 30
0.0
 10
-28.1657
 20
-31.3966
 30
0.0
 10
-28.1657
 20
-31.6035
 30
0.0
 10
-28.2075
 20
-31.7879
 30
0.0
 10
-28.2913
 20
-31.9492
 30
0.0
 10
-28.2913
 20
-31.9492
 30
0.0
 10
-28.375
 20
-32.1111
 30
0.0
 10
-28.4921
 20
-32.2333
 30
0.0
 10
-28.6431
 20
-32.3161
 30
0.0
 10
-28.6431
 20
-32.3161
 30
0.0
 10
-28.7946
 20
-32.3984
 30
0.0
 10
-28.9549
 20
-32.4398
 30
0.0
 10
-29.1247
 20
-32.4398
 30
0.0
 10
-29.1247
 20
-32.4398
 30
0.0
 10
-29.2517
 20
-32.4398
 30
0.0
 10
-29.3665
 20
-32.422
 30
0.0
 10
-29.4695
 20
-32.3862
 30
0.0
 10
-29.4695
 20
-32.3862
 30
0.0
 10
-29.5485
 20
-32.3585
 30
0.0
 10
-29.6407
 20
-32.3058
 30
0.0
 10
-29.7466
 20
-32.2277
 30
0.0
 10
-29.7466
 20
-32.2277
 30
0.0
 10
-29.7466
 20
-32.2277
 30
0.0
 10
-29.978
 20
-32.4869
 30
0.0
 10
-29.978
 20
-32.4869
 30
0.0
 10
-29.978
 20
-32.4869
 30
0.0
 10
-29.978
 20
-32.4869
 30
0.0
 10
-30.1144
 20
-32.3712
 30
0.0
 10
-30.1144
 20
-32.3712
 30
0.0
 10
-30.1144
 20
-32.3712
 30
0.0
 10
-30.1144
 20
-32.3712
 30
0.0
 10
-29.8717
 20
-32.0998
 30
0.0
 10
-29.8717
 20
-32.0998
 30
0.0
 10
-29.8717
 20
-32.0998
 30
0.0
 10
-29.962
 20
-31.9629
 30
0.0
 10
-30.0222
 20
-31.8458
 30
0.0
 10
-30.0523
 20
-31.7489
 30
0.0
 10
-30.0523
 20
-31.7489
 30
0.0
 10
-30.0824
 20
-31.652
 30
0.0
 10
-30.0979
 20
-31.5353
 30
0.0
 10
-30.0979
 20
-31.3994
 30
0.0
 10
-30.0979
 20
-31.3994
 30
0.0
 10
-30.0979
 20
-31.192
 30
0.0
 10
-30.0565
 20
-31.0071
 30
0.0
 10
-29.9738
 20
-30.8448
 30
0.0
 10
-29.9738
 20
-30.8448
 30
0.0
 10
-29.891
 20
-30.6825
 30
0.0
 10
-29.7753
 20
-30.5598
 30
0.0
 10
-29.6257
 20
-30.4761
 30
0.0
 10
-29.6257
 20
-30.4761
 30
0.0
 10
-29.4766
 20
-30.3928
 30
0.0
 10
-29.3105
 20
-30.3509
 30
0.0
 10
-29.1276
 20
-30.3509
 30
0.0
 10
-29.1276
 20
-30.3509
 30
0.0
 10
-29.0043
 20
-30.3509
 30
0.0
 10
-28.8966
 20
-30.3669
 30
0.0
 10
-28.8044
 20
-30.3999
 30
0.0
 10
-28.8044
 20
-30.3999
 30
0.0
 10
-28.7122
 20
-30.4323
 30
0.0
 10
-28.6125
 20
-30.4892
 30
0.0
 10
-28.5062
 20
-30.5701
 30
0.0
  0
SPLINE
  5
4D
330
1F
100
AcDbEntity
  8
AXIS
 62
   250
100
AcDbSpline
210
0.0
220
0.0
230
1.0
 70
    11
 71
     3
 72
    32
 73
    28
 74
     0
 42
0.0000000001
 43
0.0000000001
 40
0.0
 40
0.0
 40
0.0
 40
0.0
 40
0.125
 40
0.125
 40
0.125
 40
0.125
 40
0.25
 40
0.25
 40
0.25
 40
0.25
 40
0.375
 40
0.375
 40
0.375
 40
0.375
 40
0.5
 40
0.5
 40
0.5
 40
0.5
 40
0.625
 40
0.625
 40
0.625
 40
0.625
 40
0.75
 40
0.75
 40
0.75
 40
0.75
 40
1.0
 40
1.0
 40
1.0
 40
1.0
 10
-28.6713
 20
-30.7559
 30
0.0
 10
-28.7579
 20
-30.6882
 30
0.0
 10
-28.8336
 20
-30.6416
 30
0.0
 10
-28.898
 20
-30.6167
 30
0.0
 10
-28.898
 20
-30.6167
 30
0.0
 10
-28.9629
 20
-30.5922
 30
0.0
 10
-29.0391
 20
-30.5795
 30
0.0
 10
-29.1262
 20
-30.5795
 30
0.0
 10
-29.1262
 20
-30.5795
 30
0.0
 10
-29.3275
 20
-30.5795
 30
0.0
 10
-29.4935
 20
-30.6477
 30
0.0
 10
-29.6252
 20
-30.7841
 30
0.0
 10
-29.6252
 20
-30.7841
 30
0.0
 10
-29.7565
 20
-30.9206
 30
0.0
 10
-29.8223
 20
-31.1242
 30
0.0
 10
-29.8223
 20
-31.3956
 30
0.0
 10
-29.8223
 20
-31.3956
 30
0.0
 10
-29.8223
 20
-31.5019
 30
0.0
 10
-29.812
 20
-31.5965
 30
0.0
 10
-29.7917
 20
-31.6793
 30
0.0
 10
-29.7917
 20
-31.6793
 30
0.0
 10
-29.7771
 20
-31.7409
 30
0.0
 10
-29.7466
 20
-31.8166
 30
0.0
 10
-29.6995
 20
-31.9064
 30
0.0
 10
-29.6995
 20
-31.9064
 30
0.0
 10
-29.6995
 20
-31.9064
 30
0.0
 10
-28.6713
 20
-30.7559
 30
0.0
 10
-28.6713
 20
-30.7559
 30
0.0
  0
SPLINE
  5
4E
330
1F
100
AcDbEntity
  8
AXIS
 62
   250
100
AcDbSpline
210
0.0
220
0.0
230
1.0
 70
    11
 71
     3
 72
    28
 73
    24
 74
     0
 42
0.0000000001
 43
0.0000000001
 40
0.0
 40
0.0
 40
0.0
 40
0.0
 40
0.1428571428571428
 40
0.1428571428571428
 40
0.1428571428571428
 40
0.1428571428571428
 40
0.2857142857142857
 40
0.2857142857142857
 40
0.2857142857142857
 40
0.2857142857142857
 40
0.4285714285714285
 40
0.4285714285714285
 40
0.4285714285714285
 40
0.4285714285714285
 40
0.5714285714285714
 40
0.5714285714285714
 40
0.5714285714285714
 40
0.5714285714285714
 40
0.7142857142857143
 40
0.7142857142857143
 40
0.7142857142857143
 40
0.7142857142857143
 40
1.0
 40
1.0
 40
1.0
 40
1.0
 10
-28.5584
 20
-30.898
 30
0.0
 10
-28.5584
 20
-30.898
 30
0.0
 10
-29.5824
 20
-32.0443
 30
0.0
 10
-29.5824
 20
-32.0443
 30
0.0
 10
-29.5824
 20
-32.0443
 30
0.0
 10
-29.5119
 20
-32.1021
 30
0.0
 10
-29.4465
 20
-32.1426
 30
0.0
 10
-29.3867
 20
-32.1656
 30
0.0
 10
-29.3867
 20
-32.1656
 30
0.0
 10
-29.3087
 20
-32.1962
 30
0.0
 10
-29.224
 20
-32.2112
 30
0.0
 10
-29.1332
 20
-32.2112
 30
0.0
 10
-29.1332
 20
-32.2112
 30
0.0
 10
-28.9328
 20
-32.2112
 30
0.0
 10
-28.7677
 20
-32.1407
 30
0.0
 10
-28.637
 20
-31.9991
 30
0.0
 10
-28.637
 20
-31.9991
 30
0.0
 10
-28.5067
 20
-31.8575
 30
0.0
 10
-28.4413
 20
-31.659
 30
0.0
 10
-28.4413
 20
-31.4036
 30
0.0
 10
-28.4413
 20
-31.4036
 30
0.0
 10
-28.4413
 20
-31.2127
 30
0.0
 10
-28.4803
 20
-31.0438
 30
0.0
 10
-28.5584
 20
-30.898
 30
0.0
  0
SPLINE
  5
4F
330
1F
100
AcDbEntity
  8
AXIS
 62
   250
100
AcDbSpline
210
0.0
220
0.0
230
1.0
 70
    11
 71
     3
 72
    92
 73
    88
 74
     0
 42
0.0000000001
 43
0.0000000001
 40
0.0
 40
0.0
 40
0.0
 40
0.0
 40
0.0434782608695652
 40
0.0434782608695652
 40
0.0434782608695652
 40
0.0434782608695652
 40
0.0869565217391304
 40
0.0869565217391304
 40
0.0869565217391304
 40
0.0869565217391304
 40
0.1304347826086956
 40
0.1304347826086956
 40
0.1304347826086956
 40
0.1304347826086956
 40
0.1739130434782609
 40
0.1739130434782609
 40
0.1739130434782609
 40
0.1739130434782609
 40
0.2173913043478261
 40
0.2173913043478261
 40
0.2173913043478261
 40
0.2173913043478261
 40
0.2608695652173913
 40
0.2608695652173913
 40
0.2608695652173913
 40
0.2608695652173913
 40
0.3043478260869565
 40
0.3043478260869565
 40
0.3043478260869565
 40
0.3043478260869565
 40
0.3478260869565217
 40
0.3478260869565217
 40
0.3478260869565217
 40
0.3478260869565217
 40
0.391304347826087
 40
0.391304347826087
 40
0.391304347826087
 40
0.391304347826087
 40
0.4347826086956522
 40
0.4347826086956522
 40
0.4347826086956522
 40
0.4347826086956522
 40
0.4782608695652174
 40
0.4782608695652174
 40
0.4782608695652174
 40
0.4782608695652174
 40
0.5217391304347826
 40
0.5217391304347826
 40
0.5217391304347826
 40
0.5217391304347826
 40
0.5652173913043478
 40
0.5652173913043478
 40
0.5652173913043478
 40
0.5652173913043478
 40
0.6086956521739131
 40
0.6086956521739131
 40
0.6086956521739131
 40
0.6086956521739131
 40
0.6521739130434783
 40
0.6521739130434783
 40
0.6521739130434783
 40
0.6521739130434783
 40
0.6956521739130435
 40
0.6956521739130435
 40
0.6956521739130435
 40
0.6956521739130435
 40
0.7391304347826086
 40
0.7391304347826086
 40
0.7391304347826086
 40
0.7391304347826086
 40
0.782608695652174
 40
0.782608695652174
 40
0.782608695652174
 40
0.782608695652174
 40
0.8260869565217391
 40
0.8260869565217391
 40
0.8260869565217391
 40
0.8260869565217391
 40
0.8695652173913043
 40
0.8695652173913043
 40
0.8695652173913043
 40
0.8695652173913043
 40
0.9130434782608695
 40
0.9130434782608695
 40
0.9130434782608695
 40
0.9130434782608695
 40
1.0
 40
1.0
 40
1.0
 40
1.0
 10
-27.9164
 20
-31.8763
 30
0.0
 10
-27.9164
 20
-31.8763
 30
0.0
 10
-27.6558
 20
-31.8542
 30
0.0
 10
-27.6558
 20
-31.8542
 30
0.0
 10
-27.6558
 20
-31.8542
 30
0.0
 10
-27.6365
 20
-31.9812
 30
0.0
 10
-27.5918
 20
-32.0762
 30
0.0
 10
-27.5217
 20
-32.1402
 30
0.0
 10
-27.5217
 20
-32.1402
 30
0.0
 10
-27.4512
 20
-32.2042
 30
0.0
 10
-27.3665
 20
-32.2362
 30
0.0
 10
-27.2673
 20
-32.2362
 30
0.0
 10
-27.2673
 20
-32.2362
 30
0.0
 10
-27.1478
 20
-32.2362
 30
0.0
 10
-27.0467
 20
-32.191
 30
0.0
 10
-26.9644
 20
-32.1012
 30
0.0
 10
-26.9644
 20
-32.1012
 30
0.0
 10
-26.8816
 20
-32.0109
 30
0.0
 10
-26.8402
 20
-31.8914
 30
0.0
 10
-26.8402
 20
-31.7428
 30
0.0
 10
-26.8402
 20
-31.7428
 30
0.0
 10
-26.8402
 20
-31.6012
 30
0.0
 10
-26.8797
 20
-31.4897
 30
0.0
 10
-26.9592
 20
-31.4079
 30
0.0
 10
-26.9592
 20
-31.4079
 30
0.0
 10
-27.0387
 20
-31.326
 30
0.0
 10
-27.1426
 20
-31.2851
 30
0.0
 10
-27.2715
 20
-31.2851
 30
0.0
 10
-27.2715
 20
-31.2851
 30
0.0
 10
-27.3515
 20
-31.2851
 30
0.0
 10
-27.4234
 20
-31.3034
 30
0.0
 10
-27.4879
 20
-31.3396
 30
0.0
 10
-27.4879
 20
-31.3396
 30
0.0
 10
-27.5523
 20
-31.3759
 30
0.0
 10
-27.6026
 20
-31.4229
 30
0.0
 10
-27.6393
 20
-31.4808
 30
0.0
 10
-27.6393
 20
-31.4808
 30
0.0
 10
-27.6393
 20
-31.4808
 30
0.0
 10
-27.8722
 20
-31.4507
 30
0.0
 10
-27.8722
 20
-31.4507
 30
0.0
 10
-27.8722
 20
-31.4507
 30
0.0
 10
-27.8722
 20
-31.4507
 30
0.0
 10
-27.6765
 20
-30.413
 30
0.0
 10
-27.6765
 20
-30.413
 30
0.0
 10
-27.6765
 20
-30.413
 30
0.0
 10
-27.6765
 20
-30.413
 30
0.0
 10
-26.6718
 20
-30.413
 30
0.0
 10
-26.6718
 20
-30.413
 30
0.0
 10
-26.6718
 20
-30.413
 30
0.0
 10
-26.6718
 20
-30.413
 30
0.0
 10
-26.6718
 20
-30.6501
 30
0.0
 10
-26.6718
 20
-30.6501
 30
0.0
 10
-26.6718
 20
-30.6501
 30
0.0
 10
-26.6718
 20
-30.6501
 30
0.0
 10
-27.478
 20
-30.6501
 30
0.0
 10
-27.478
 20
-30.6501
 30
0.0
 10
-27.478
 20
-30.6501
 30
0.0
 10
-27.478
 20
-30.6501
 30
0.0
 10
-27.5871
 20
-31.1929
 30
0.0
 10
-27.5871
 20
-31.1929
 30
0.0
 10
-27.5871
 20
-31.1929
 30
0.0
 10
-27.4658
 20
-31.1082
 30
0.0
 10
-27.3383
 20
-31.0659
 30
0.0
 10
-27.2052
 20
-31.0659
 30
0.0
 10
-27.2052
 20
-31.0659
 30
0.0
 10
-27.0288
 20
-31.0659
 30
0.0
 10
-26.8802
 20
-31.127
 30
0.0
 10
-26.7588
 20
-31.2493
 30
0.0
 10
-26.7588
 20
-31.2493
 30
0.0
 10
-26.6375
 20
-31.3716
 30
0.0
 10
-26.5768
 20
-31.5287
 30
0.0
 10
-26.5768
 20
-31.7206
 30
0.0
 10
-26.5768
 20
-31.7206
 30
0.0
 10
-26.5768
 20
-31.9036
 30
0.0
 10
-26.6304
 20
-32.0617
 30
0.0
 10
-26.7367
 20
-32.1948
 30
0.0
 10
-26.7367
 20
-32.1948
 30
0.0
 10
-26.8665
 20
-32.358
 30
0.0
 10
-27.0434
 20
-32.4398
 30
0.0
 10
-27.2673
 20
-32.4398
 30
0.0
 10
-27.2673
 20
-32.4398
 30
0.0
 10
-27.4512
 20
-32.4398
 30
0.0
 10
-27.6012
 20
-32.3886
 30
0.0
 10
-27.7174
 20
-32.2856
 30
0.0
 10
-27.7174
 20
-32.2856
 30
0.0
 10
-27.8336
 20
-32.1825
 30
0.0
 10
-27.8999
 20
-32.0461
 30
0.0
 10
-27.9164
 20
-31.8763
 30
0.0
  0
SPLINE
  5
50
330
1F
100
AcDbEntity
  8
AXIS
 62
   250
100
AcDbSpline
210
0.0
220
0.0
230
1.0
 70
    11
 71
     3
 72
    52
 73
    48
 74
     0
 42
0.0000000001
 43
0.0000000001
 40
0.0
 40
0.0
 40
0.0
 40
0.0
 40
0.0769230769230769
 40
0.0769230769230769
 40
0.0769230769230769
 40
0.0769230769230769
 40
0.1538461538461539
 40
0.1538461538461539
 40
0.1538461538461539
 40
0.1538461538461539
 40
0.2307692307692308
 40
0.2307692307692308
 40
0.2307692307692308
 40
0.2307692307692308
 40
0.3076923076923077
 40
0.3076923076923077
 40
0.3076923076923077
 40
0.3076923076923077
 40
0.3846153846153846
 40
0.3846153846153846
 40
0.3846153846153846
 40
0.3846153846153846
 40
0.4615384615384616
 40
0.4615384615384616
 40
0.4615384615384616
 40
0.4615384615384616
 40
0.5384615384615384
 40
0.5384615384615384
 40
0.5384615384615384
 40
0.5384615384615384
 40
0.6153846153846154
 40
0.6153846153846154
 40
0.6153846153846154
 40
0.6153846153846154
 40
0.6923076923076923
 40
0.6923076923076923
 40
0.6923076923076923
 40
0.6923076923076923
 40
0.7692307692307693
 40
0.7692307692307693
 40
0.7692307692307693
 40
0.7692307692307693
 40
0.8461538461538461
 40
0.8461538461538461
 40
0.8461538461538461
 40
0.8461538461538461
 40
1.0
 40
1.0
 40
1.0
 40
1.0
 10
-26.3468
 20
-31.4093
 30
0.0
 10
-26.3468
 20
-31.1703
 30
0.0
 10
-26.3223
 20
-30.9779
 30
0.0
 10
-26.2729
 20
-30.8326
 30
0.0
 10
-26.2729
 20
-30.8326
 30
0.0
 10
-26.224
 20
-30.6868
 30
0.0
 10
-26.1506
 20
-30.5744
 30
0.0
 10
-26.0537
 20
-30.4953
 30
0.0
 10
-26.0537
 20
-30.4953
 30
0.0
 10
-25.9568
 20
-30.4163
 30
0.0
 10
-25.835
 20
-30.3768
 30
0.0
 10
-25.6883
 20
-30.3768
 30
0.0
 10
-25.6883
 20
-30.3768
 30
0.0
 10
-25.5796
 20
-30.3768
 30
0.0
 10
-25.4846
 20
-30.3989
 30
0.0
 10
-25.4028
 20
-30.4427
 30
0.0
 10
-25.4028
 20
-30.4427
 30
0.0
 10
-25.3209
 20
-30.4859
 30
0.0
 10
-25.2536
 20
-30.549
 30
0.0
 10
-25.2
 20
-30.6313
 30
0.0
 10
-25.2
 20
-30.6313
 30
0.0
 10
-25.1469
 20
-30.7136
 30
0.0
 10
-25.105
 20
-30.8138
 30
0.0
 10
-25.0749
 20
-30.9318
 30
0.0
 10
-25.0749
 20
-30.9318
 30
0.0
 10
-25.0443
 20
-31.0499
 30
0.0
 10
-25.0293
 20
-31.2089
 30
0.0
 10
-25.0293
 20
-31.4093
 30
0.0
 10
-25.0293
 20
-31.4093
 30
0.0
 10
-25.0293
 20
-31.6463
 30
0.0
 10
-25.0537
 20
-31.8373
 30
0.0
 10
-25.1022
 20
-31.9831
 30
0.0
 10
-25.1022
 20
-31.9831
 30
0.0
 10
-25.1511
 20
-32.1289
 30
0.0
 10
-25.224
 20
-32.2413
 30
0.0
 10
-25.3209
 20
-32.3208
 30
0.0
 10
-25.3209
 20
-32.3208
 30
0.0
 10
-25.4178
 20
-32.4003
 30
0.0
 10
-25.5401
 20
-32.4398
 30
0.0
 10
-25.6883
 20
-32.4398
 30
0.0
 10
-25.6883
 20
-32.4398
 30
0.0
 10
-25.883
 20
-32.4398
 30
0.0
 10
-26.0359
 20
-32.3702
 30
0.0
 10
-26.1469
 20
-32.2305
 30
0.0
 10
-26.1469
 20
-32.2305
 30
0.0
 10
-26.28
 20
-32.0626
 30
0.0
 10
-26.3468
 20
-31.7884
 30
0.0
 10
-26.3468
 20
-31.4093
 30
0.0
  0
SPLINE
  5
51
330
1F
100
AcDbEntity
  8
AXIS
 62
   250
100
AcDbSpline
210
0.0
220
0.0
230
1.0
 70
    11
 71
     3
 72
    36
 73
    32
 74
     0
 42
0.0000000001
 43
0.0000000001
 40
0.0
 40
0.0
 40
0.0
 40
0.0
 40
0.1111111111111111
 40
0.1111111111111111
 40
0.1111111111111111
 40
0.1111111111111111
 40
0.2222222222222222
 40
0.2222222222222222
 40
0.2222222222222222
 40
0.2222222222222222
 40
0.3333333333333333
 40
0.3333333333333333
 40
0.3333333333333333
 40
0.3333333333333333
 40
0.4444444444444444
 40
0.4444444444444444
 40
0.4444444444444444
 40
0.4444444444444444
 40
0.5555555555555556
 40
0.5555555555555556
 40
0.5555555555555556
 40
0.5555555555555556
 40
0.6666666666666666
 40
0.6666666666666666
 40
0.6666666666666666
 40
0.6666666666666666
 40
0.7777777777777778
 40
0.7777777777777778
 40
0.7777777777777778
 40
0.7777777777777778
 40
1.0
 40
1.0
 40
1.0
 40
1.0
 10
-26.0918
 20
-31.4093
 30
0.0
 10
-26.0918
 20
-31.7409
 30
0.0
 10
-26.0528
 20
-31.9615
 30
0.0
 10
-25.9752
 20
-32.0715
 30
0.0
 10
-25.9752
 20
-32.0715
 30
0.0
 10
-25.8976
 20
-32.1811
 30
0.0
 10
-25.8021
 20
-32.2362
 30
0.0
 10
-25.6883
 20
-32.2362
 30
0.0
 10
-25.6883
 20
-32.2362
 30
0.0
 10
-25.574
 20
-32.2362
 30
0.0
 10
-25.4785
 20
-32.1807
 30
0.0
 10
-25.4009
 20
-32.0706
 30
0.0
 10
-25.4009
 20
-32.0706
 30
0.0
 10
-25.3233
 20
-31.9605
 30
0.0
 10
-25.2842
 20
-31.7399
 30
0.0
 10
-25.2842
 20
-31.4093
 30
0.0
 10
-25.2842
 20
-31.4093
 30
0.0
 10
-25.2842
 20
-31.0767
 30
0.0
 10
-25.3233
 20
-30.8556
 30
0.0
 10
-25.4009
 20
-30.7465
 30
0.0
 10
-25.4009
 20
-30.7465
 30
0.0
 10
-25.4785
 20
-30.6369
 30
0.0
 10
-25.5749
 20
-30.5824
 30
0.0
 10
-25.6906
 20
-30.5824
 30
0.0
 10
-25.6906
 20
-30.5824
 30
0.0
 10
-25.8049
 20
-30.5824
 30
0.0
 10
-25.8957
 20
-30.6308
 30
0.0
 10
-25.9639
 20
-30.7272
 30
0.0
 10
-25.9639
 20
-30.7272
 30
0.0
 10
-26.049
 20
-30.85
 30
0.0
 10
-26.0918
 20
-31.0777
 30
0.0
 10
-26.0918
 20
-31.4093
 30
0.0
  0
SPLINE
  5
52
330
1F
100
AcDbEntity
  8
AXIS
 62
   250
100
AcDbSpline
210
0.0
220
0.0
230
1.0
 70
    11
 71
     3
 72
    44
 73
    40
 74
     0
 42
0.0000000001
 43
0.0000000001
 40
0.0
 40
0.0
 40
0.0
 40
0.0
 40
0.0909090909090909
 40
0.0909090909090909
 40
0.0909090909090909
 40
0.0909090909090909
 40
0.1818181818181818
 40
0.1818181818181818
 40
0.1818181818181818
 40
0.1818181818181818
 40
0.2727272727272727
 40
0.2727272727272727
 40
0.2727272727272727
 40
0.2727272727272727
 40
0.3636363636363636
 40
0.3636363636363636
 40
0.3636363636363636
 40
0.3636363636363636
 40
0.4545454545454545
 40
0.4545454545454545
 40
0.4545454545454545
 40
0.4545454545454545
 40
0.5454545454545454
 40
0.5454545454545454
 40
0.5454545454545454
 40
0.5454545454545454
 40
0.6363636363636364
 40
0.6363636363636364
 40
0.6363636363636364
 40
0.6363636363636364
 40
0.7272727272727273
 40
0.7272727272727273
 40
0.7272727272727273
 40
0.7272727272727273
 40
0.8181818181818182
 40
0.8181818181818182
 40
0.8181818181818182
 40
0.8181818181818182
 40
1.0
 40
1.0
 40
1.0
 40
1.0
 10
-37.8876
 20
-15.9239
 30
0.0
 10
-38.0603
 20
-16.0608
 30
0.0
 10
-38.2625
 20
-16.1765
 30
0.0
 10
-38.4939
 20
-16.271
 30
0.0
 10
-38.4939
 20
-16.271
 30
0.0
 10
-38.7258
 20
-16.3655
 30
0.0
 10
-38.9652
 20
-16.4131
 30
0.0
 10
-39.2136
 20
-16.4131
 30
0.0
 10
-39.2136
 20
-16.4131
 30
0.0
 10
-39.4323
 20
-16.4131
 30
0.0
 10
-39.6416
 20
-16.3778
 30
0.0
 10
-39.842
 20
-16.3068
 30
0.0
 10
-39.842
 20
-16.3068
 30
0.0
 10
-40.0744
 20
-16.224
 30
0.0
 10
-40.3058
 20
-16.0965
 30
0.0
 10
-40.5363
 20
-15.9239
 30
0.0
 10
-40.5363
 20
-15.9239
 30
0.0
 10
-40.5363
 20
-15.9239
 30
0.0
 10
-40.5363
 20
-15.7461
 30
0.0
 10
-40.5363
 20
-15.7461
 30
0.0
 10
-40.5363
 20
-15.7461
 30
0.0
 10
-40.3453
 20
-15.8571
 30
0.0
 10
-40.2089
 20
-15.9305
 30
0.0
 10
-40.127
 20
-15.9662
 30
0.0
 10
-40.127
 20
-15.9662
 30
0.0
 10
-40.0005
 20
-16.0227
 30
0.0
 10
-39.8679
 20
-16.0664
 30
0.0
 10
-39.7301
 20
-16.0989
 30
0.0
 10
-39.7301
 20
-16.0989
 30
0.0
 10
-39.5584
 20
-16.1384
 30
0.0
 10
-39.3857
 20
-16.1581
 30
0.0
 10
-39.2122
 20
-16.1581
 30
0.0
 10
-39.2122
 20
-16.1581
 30
0.0
 10
-38.77
 20
-16.1581
 30
0.0
 10
-38.3288
 20
-16.0208
 30
0.0
 10
-37.8876
 20
-15.7461
 30
0.0
 10
-37.8876
 20
-15.7461
 30
0.0
 10
-37.8876
 20
-15.7461
 30
0.0
 10
-37.8876
 20
-15.9239
 30
0.0
 10
-37.8876
 20
-15.9239
 30
0.0
  0
SPLINE
  5
53
330
1F
100
AcDbEntity
  8
AXIS
 62
   250
100
AcDbSpline
210
0.0
220
0.0
230
1.0
 70
    11
 71
     3
 72
    40
 73
    36
 74
     0
 42
0.0000000001
 43
0.0000000001
 40
0.0
 40
0.0
 40
0.0
 40
0.0
 40
0.1
 40
0.1
 40
0.1
 40
0.1
 40
0.2
 40
0.2
 40
0.2
 40
0.2
 40
0.3
 40
0.3
 40
0.3
 40
0.3
 40
0.4
 40
0.4
 40
0.4
 40
0.4
 40
0.5
 40
0.5
 40
0.5
 40
0.5
 40
0.6
 40
0.6
 40
0.6
 40
0.6
 40
0.7
 40
0.7
 40
0.7
 40
0.7
 40
0.8
 40
0.8
 40
0.8
 40
0.8
 40
1.0
 40
1.0
 40
1.0
 40
1.0
 10
-38.4817
 20
-14.5927
 30
0.0
 10
-38.4817
 20
-14.5927
 30
0.0
 10
-38.4817
 20
-14.8406
 30
0.0
 10
-38.4817
 20
-14.8406
 30
0.0
 10
-38.4817
 20
-14.8406
 30
0.0
 10
-38.4817
 20
-14.8406
 30
0.0
 10
-40.0621
 20
-14.8406
 30
0.0
 10
-40.0621
 20
-14.8406
 30
0.0
 10
-40.0621
 20
-14.8406
 30
0.0
 10
-40.0052
 20
-14.9004
 30
0.0
 10
-39.9483
 20
-14.9784
 30
0.0
 10
-39.8914
 20
-15.0753
 30
0.0
 10
-39.8914
 20
-15.0753
 30
0.0
 10
-39.8345
 20
-15.1727
 30
0.0
 10
-39.7917
 20
-15.2597
 30
0.0
 10
-39.7634
 20
-15.3369
 30
0.0
 10
-39.7634
 20
-15.3369
 30
0.0
 10
-39.7634
 20
-15.3369
 30
0.0
 10
-40.0029
 20
-15.3369
 30
0.0
 10
-40.0029
 20
-15.3369
 30
0.0
 10
-40.0029
 20
-15.3369
 30
0.0
 10
-40.0682
 20
-15.1981
 30
0.0
 10
-40.1473
 20
-15.0767
 30
0.0
 10
-40.2399
 20
-14.9728
 30
0.0
 10
-40.2399
 20
-14.9728
 30
0.0
 10
-40.3331
 20
-14.8693
 30
0.0
 10
-40.4229
 20
-14.7955
 30
0.0
 10
-40.5104
 20
-14.7522
 30
0.0
 10
-40.5104
 20
-14.7522
 30
0.0
 10
-40.5104
 20
-14.7522
 30
0.0
 10
-40.5104
 20
-14.5927
 30
0.0
 10
-40.5104
 20
-14.5927
 30
0.0
 10
-40.5104
 20
-14.5927
 30
0.0
 10
-40.5104
 20
-14.5927
 30
0.0
 10
-38.4817
 20
-14.5927
 30
0.0
 10
-38.4817
 20
-14.5927
 30
0.0
  0
SPLINE
  5
54
330
1F
100
AcDbEntity
  8
AXIS
 62
   250
100
AcDbSpline
210
0.0
220
0.0
230
1.0
 70
    11
 71
     3
 72
    92
 73
    88
 74
     0
 42
0.0000000001
 43
0.0000000001
 40
0.0
 40
0.0
 40
0.0
 40
0.0
 40
0.0434782608695652
 40
0.0434782608695652
 40
0.0434782608695652
 40
0.0434782608695652
 40
0.0869565217391304
 40
0.0869565217391304
 40
0.0869565217391304
 40
0.0869565217391304
 40
0.1304347826086956
 40
0.1304347826086956
 40
0.1304347826086956
 40
0.1304347826086956
 40
0.1739130434782609
 40
0.1739130434782609
 40
0.1739130434782609
 40
0.1739130434782609
 40
0.2173913043478261
 40
0.2173913043478261
 40
0.2173913043478261
 40
0.2173913043478261
 40
0.2608695652173913
 40
0.2608695652173913
 40
0.2608695652173913
 40
0.2608695652173913
 40
0.3043478260869565
 40
0.3043478260869565
 40
0.3043478260869565
 40
0.3043478260869565
 40
0.3478260869565217
 40
0.3478260869565217
 40
0.3478260869565217
 40
0.3478260869565217
 40
0.391304347826087
 40
0.391304347826087
 40
0.391304347826087
 40
0.391304347826087
 40
0.4347826086956522
 40
0.4347826086956522
 40
0.4347826086956522
 40
0.4347826086956522
 40
0.4782608695652174
 40
0.4782608695652174
 40
0.4782608695652174
 40
0.4782608695652174
 40
0.5217391304347826
 40
0.5217391304347826
 40
0.5217391304347826
 40
0.5217391304347826
 40
0.5652173913043478
 40
0.5652173913043478
 40
0.5652173913043478
 40
0.5652173913043478
 40
0.6086956521739131
 40
0.6086956521739131
 40
0.6086956521739131
 40
0.6086956521739131
 40
0.6521739130434783
 40
0.6521739130434783
 40
0.6521739130434783
 40
0.6521739130434783
 40
0.6956521739130435
 40
0.6956521739130435
 40
0.6956521739130435
 40
0.6956521739130435
 40
0.7391304347826086
 40
0.7391304347826086
 40
0.7391304347826086
 40
0.7391304347826086
 40
0.782608695652174
 40
0.782608695652174
 40
0.782608695652174
 40
0.782608695652174
 40
0.8260869565217391
 40
0.8260869565217391
 40
0.8260869565217391
 40
0.8260869565217391
 40
0.8695652173913043
 40
0.8695652173913043
 40
0.8695652173913043
 40
0.8695652173913043
 40
0.9130434782608695
 40
0.9130434782608695
 40
0.9130434782608695
 40
0.9130434782608695
 40
1.0
 40
1.0
 40
1.0
 40
1.0
 10
-38.7202
 20
-12.6534
 30
0.0
 10
-38.7202
 20
-12.6534
 30
0.0
 10
-38.4817
 20
-12.6534
 30
0.0
 10
-38.4817
 20
-12.6534
 30
0.0
 10
-38.4817
 20
-12.6534
 30
0.0
 10
-38.4817
 20
-12.6534
 30
0.0
 10
-38.4817
 20
-13.9888
 30
0.0
 10
-38.4817
 20
-13.9888
 30
0.0
 10
-38.4817
 20
-13.9888
 30
0.0
 10
-38.5414
 20
-13.9907
 30
0.0
 10
-38.5988
 20
-13.9813
 30
0.0
 10
-38.6539
 20
-13.9601
 30
0.0
 10
-38.6539
 20
-13.9601
 30
0.0
 10
-38.7451
 20
-13.9262
 30
0.0
 10
-38.8345
 20
-13.8717
 30
0.0
 10
-38.9229
 20
-13.7969
 30
0.0
 10
-38.9229
 20
-13.7969
 30
0.0
 10
-39.0109
 20
-13.7216
 30
0.0
 10
-39.1129
 20
-13.6134
 30
0.0
 10
-39.2286
 20
-13.4723
 30
0.0
 10
-39.2286
 20
-13.4723
 30
0.0
 10
-39.4088
 20
-13.2527
 30
0.0
 10
-39.5513
 20
-13.104
 30
0.0
 10
-39.6567
 20
-13.0269
 30
0.0
 10
-39.6567
 20
-13.0269
 30
0.0
 10
-39.7616
 20
-12.9498
 30
0.0
 10
-39.8613
 20
-12.9112
 30
0.0
 10
-39.9549
 20
-12.9112
 30
0.0
 10
-39.9549
 20
-12.9112
 30
0.0
 10
-40.0532
 20
-12.9112
 30
0.0
 10
-40.136
 20
-12.9465
 30
0.0
 10
-40.2037
 20
-13.0165
 30
0.0
 10
-40.2037
 20
-13.0165
 30
0.0
 10
-40.271
 20
-13.0871
 30
0.0
 10
-40.3048
 20
-13.1788
 30
0.0
 10
-40.3048
 20
-13.2917
 30
0.0
 10
-40.3048
 20
-13.2917
 30
0.0
 10
-40.3048
 20
-13.4112
 30
0.0
 10
-40.2691
 20
-13.5067
 30
0.0
 10
-40.1971
 20
-13.5782
 30
0.0
 10
-40.1971
 20
-13.5782
 30
0.0
 10
-40.1256
 20
-13.6501
 30
0.0
 10
-40.0264
 20
-13.6863
 30
0.0
 10
-39.8999
 20
-13.6873
 30
0.0
 10
-39.8999
 20
-13.6873
 30
0.0
 10
-39.8999
 20
-13.6873
 30
0.0
 10
-39.9257
 20
-13.9422
 30
0.0
 10
-39.9257
 20
-13.9422
 30
0.0
 10
-39.9257
 20
-13.9422
 30
0.0
 10
-40.1162
 20
-13.9248
 30
0.0
 10
-40.2611
 20
-13.859
 30
0.0
 10
-40.3608
 20
-13.7451
 30
0.0
 10
-40.3608
 20
-13.7451
 30
0.0
 10
-40.4605
 20
-13.6313
 30
0.0
 10
-40.5104
 20
-13.478
 30
0.0
 10
-40.5104
 20
-13.2861
 30
0.0
 10
-40.5104
 20
-13.2861
 30
0.0
 10
-40.5104
 20
-13.0923
 30
0.0
 10
-40.4563
 20
-12.9389
 30
0.0
 10
-40.3491
 20
-12.826
 30
0.0
 10
-40.3491
 20
-12.826
 30
0.0
 10
-40.2413
 20
-12.7127
 30
0.0
 10
-40.1082
 20
-12.6562
 30
0.0
 10
-39.9492
 20
-12.6562
 30
0.0
 10
-39.9492
 20
-12.6562
 30
0.0
 10
-39.8683
 20
-12.6562
 30
0.0
 10
-39.7888
 20
-12.6727
 30
0.0
 10
-39.7108
 20
-12.7061
 30
0.0
 10
-39.7108
 20
-12.7061
 30
0.0
 10
-39.6327
 20
-12.739
 30
0.0
 10
-39.5504
 20
-12.7941
 30
0.0
 10
-39.4643
 20
-12.8707
 30
0.0
 10
-39.4643
 20
-12.8707
 30
0.0
 10
-39.3777
 20
-12.9474
 30
0.0
 10
-39.2592
 20
-13.0749
 30
0.0
 10
-39.1087
 20
-13.2531
 30
0.0
 10
-39.1087
 20
-13.2531
 30
0.0
 10
-38.9836
 20
-13.4018
 30
0.0
 10
-38.8989
 20
-13.4973
 30
0.0
 10
-38.8542
 20
-13.5396
 30
0.0
 10
-38.8542
 20
-13.5396
 30
0.0
 10
-38.81
 20
-13.5819
 30
0.0
 10
-38.7653
 20
-13.6167
 30
0.0
 10
-38.7202
 20
-13.6445
 30
0.0
 10
-38.7202
 20
-13.6445
 30
0.0
 10
-38.7202
 20
-13.6445
 30
0.0
 10
-38.7202
 20
-12.6534
 30
0.0
 10
-38.7202
 20
-12.6534
 30
0.0
  0
SPLINE
  5
55
330
1F
100
AcDbEntity
  8
AXIS
 62
   250
100
AcDbSpline
210
0.0
220
0.0
230
1.0
 70
    11
 71
     3
 72
    92
 73
    88
 74
     0
 42
0.0000000001
 43
0.0000000001
 40
0.0
 40
0.0
 40
0.0
 40
0.0
 40
0.0434782608695652
 40
0.0434782608695652
 40
0.0434782608695652
 40
0.0434782608695652
 40
0.0869565217391304
 40
0.0869565217391304
 40
0.0869565217391304
 40
0.0869565217391304
 40
0.1304347826086956
 40
0.1304347826086956
 40
0.1304347826086956
 40
0.1304347826086956
 40
0.1739130434782609
 40
0.1739130434782609
 40
0.1739130434782609
 40
0.1739130434782609
 40
0.2173913043478261
 40
0.2173913043478261
 40
0.2173913043478261
 40
0.2173913043478261
 40
0.2608695652173913
 40
0.2608695652173913
 40
0.2608695652173913
 40
0.2608695652173913
 40
0.3043478260869565
 40
0.3043478260869565
 40
0.3043478260869565
 40
0.3043478260869565
 40
0.3478260869565217
 40
0.3478260869565217
 40
0.3478260869565217
 40
0.3478260869565217
 40
0.391304347826087
 40
0.391304347826087
 40
0.391304347826087
 40
0.391304347826087
 40
0.4347826086956522
 40
0.4347826086956522
 40
0.4347826086956522
 40
0.4347826086956522
 40
0.4782608695652174
 40
0.4782608695652174
 40
0.4782608695652174
 40
0.4782608695652174
 40
0.5217391304347826
 40
0.5217391304347826
 40
0.5217391304347826
 40
0.5217391304347826
 40
0.5652173913043478
 40
0.5652173913043478
 40
0.5652173913043478
 40
0.5652173913043478
 40
0.6086956521739131
 40
0.6086956521739131
 40
0.6086956521739131
 40
0.6086956521739131
 40
0.6521739130434783
 40
0.6521739130434783
 40
0.6521739130434783
 40
0.6521739130434783
 40
0.6956521739130435
 40
0.6956521739130435
 40
0.6956521739130435
 40
0.6956521739130435
 40
0.7391304347826086
 40
0.7391304347826086
 40
0.7391304347826086
 40
0.7391304347826086
 40
0.782608695652174
 40
0.782608695652174
 40
0.782608695652174
 40
0.782608695652174
 40
0.8260869565217391
 40
0.8260869565217391
 40
0.8260869565217391
 40
0.8260869565217391
 40
0.8695652173913043
 40
0.8695652173913043
 40
0.8695652173913043
 40
0.8695652173913043
 40
0.9130434782608695
 40
0.9130434782608695
 40
0.9130434782608695
 40
0.9130434782608695
 40
1.0
 40
1.0
 40
1.0
 40
1.0
 10
-39.0109
 20
-12.3877
 30
0.0
 10
-39.0109
 20
-12.3877
 30
0.0
 10
-39.033
 20
-12.1271
 30
0.0
 10
-39.033
 20
-12.1271
 30
0.0
 10
-39.033
 20
-12.1271
 30
0.0
 10
-38.906
 20
-12.1078
 30
0.0
 10
-38.811
 20
-12.0631
 30
0.0
 10
-38.747
 20
-11.993
 30
0.0
 10
-38.747
 20
-11.993
 30
0.0
 10
-38.683
 20
-11.9225
 30
0.0
 10
-38.651
 20
-11.8378
 30
0.0
 10
-38.651
 20
-11.7386
 30
0.0
 10
-38.651
 20
-11.7386
 30
0.0
 10
-38.651
 20
-11.6191
 30
0.0
 10
-38.6962
 20
-11.518
 30
0.0
 10
-38.786
 20
-11.4357
 30
0.0
 10
-38.786
 20
-11.4357
 30
0.0
 10
-38.8763
 20
-11.3529
 30
0.0
 10
-38.9958
 20
-11.3115
 30
0.0
 10
-39.1444
 20
-11.3115
 30
0.0
 10
-39.1444
 20
-11.3115
 30
0.0
 10
-39.286
 20
-11.3115
 30
0.0
 10
-39.3975
 20
-11.351
 30
0.0
 10
-39.4793
 20
-11.4305
 30
0.0
 10
-39.4793
 20
-11.4305
 30
0.0
 10
-39.5612
 20
-11.51
 30
0.0
 10
-39.6021
 20
-11.6139
 30
0.0
 10
-39.6021
 20
-11.7428
 30
0.0
 10
-39.6021
 20
-11.7428
 30
0.0
 10
-39.6021
 20
-11.8228
 30
0.0
 10
-39.5838
 20
-11.8947
 30
0.0
 10
-39.5476
 20
-11.9592
 30
0.0
 10
-39.5476
 20
-11.9592
 30
0.0
 10
-39.5113
 20
-12.0236
 30
0.0
 10
-39.4643
 20
-12.0739
 30
0.0
 10
-39.4064
 20
-12.1106
 30
0.0
 10
-39.4064
 20
-12.1106
 30
0.0
 10
-39.4064
 20
-12.1106
 30
0.0
 10
-39.4365
 20
-12.3435
 30
0.0
 10
-39.4365
 20
-12.3435
 30
0.0
 10
-39.4365
 20
-12.3435
 30
0.0
 10
-39.4365
 20
-12.3435
 30
0.0
 10
-40.4742
 20
-12.1478
 30
0.0
 10
-40.4742
 20
-12.1478
 30
0.0
 10
-40.4742
 20
-12.1478
 30
0.0
 10
-40.4742
 20
-12.1478
 30
0.0
 10
-40.4742
 20
-11.1431
 30
0.0
 10
-40.4742
 20
-11.1431
 30
0.0
 10
-40.4742
 20
-11.1431
 30
0.0
 10
-40.4742
 20
-11.1431
 30
0.0
 10
-40.2371
 20
-11.1431
 30
0.0
 10
-40.2371
 20
-11.1431
 30
0.0
 10
-40.2371
 20
-11.1431
 30
0.0
 10
-40.2371
 20
-11.1431
 30
0.0
 10
-40.2371
 20
-11.9493
 30
0.0
 10
-40.2371
 20
-11.9493
 30
0.0
 10
-40.2371
 20
-11.9493
 30
0.0
 10
-40.2371
 20
-11.9493
 30
0.0
 10
-39.6943
 20
-12.0584
 30
0.0
 10
-39.6943
 20
-12.0584
 30
0.0
 10
-39.6943
 20
-12.0584
 30
0.0
 10
-39.779
 20
-11.9371
 30
0.0
 10
-39.8213
 20
-11.8096
 30
0.0
 10
-39.8213
 20
-11.6765
 30
0.0
 10
-39.8213
 20
-11.6765
 30
0.0
 10
-39.8213
 20
-11.5001
 30
0.0
 10
-39.7602
 20
-11.3515
 30
0.0
 10
-39.6379
 20
-11.2301
 30
0.0
 10
-39.6379
 20
-11.2301
 30
0.0
 10
-39.5156
 20
-11.1088
 30
0.0
 10
-39.3585
 20
-11.0481
 30
0.0
 10
-39.1666
 20
-11.0481
 30
0.0
 10
-39.1666
 20
-11.0481
 30
0.0
 10
-38.9836
 20
-11.0481
 30
0.0
 10
-38.8255
 20
-11.1017
 30
0.0
 10
-38.6924
 20
-11.208
 30
0.0
 10
-38.6924
 20
-11.208
 30
0.0
 10
-38.5292
 20
-11.3378
 30
0.0
 10
-38.4474
 20
-11.5147
 30
0.0
 10
-38.4474
 20
-11.7386
 30
0.0
 10
-38.4474
 20
-11.7386
 30
0.0
 10
-38.4474
 20
-11.9225
 30
0.0
 10
-38.4986
 20
-12.0725
 30
0.0
 10
-38.6016
 20
-12.1887
 30
0.0
 10
-38.6016
 20
-12.1887
 30
0.0
 10
-38.7047
 20
-12.3049
 30
0.0
 10
-38.8411
 20
-12.3712
 30
0.0
 10
-39.0109
 20
-12.3877
 30
0.0
  0
SPLINE
  5
56
330
1F
100
AcDbEntity
  8
AXIS
 62
   250
100
AcDbSpline
210
0.0
220
0.0
230
1.0
 70
    11
 71
     3
 72
    44
 73
    40
 74
     0
 42
0.0000000001
 43
0.0000000001
 40
0.0
 40
0.0
 40
0.0
 40
0.0
 40
0.0909090909090909
 40
0.0909090909090909
 40
0.0909090909090909
 40
0.0909090909090909
 40
0.1818181818181818
 40
0.1818181818181818
 40
0.1818181818181818
 40
0.1818181818181818
 40
0.2727272727272727
 40
0.2727272727272727
 40
0.2727272727272727
 40
0.2727272727272727
 40
0.3636363636363636
 40
0.3636363636363636
 40
0.3636363636363636
 40
0.3636363636363636
 40
0.4545454545454545
 40
0.4545454545454545
 40
0.4545454545454545
 40
0.4545454545454545
 40
0.5454545454545454
 40
0.5454545454545454
 40
0.5454545454545454
 40
0.5454545454545454
 40
0.6363636363636364
 40
0.6363636363636364
 40
0.6363636363636364
 40
0.6363636363636364
 40
0.7272727272727273
 40
0.7272727272727273
 40
0.7272727272727273
 40
0.7272727272727273
 40
0.8181818181818182
 40
0.8181818181818182
 40
0.8181818181818182
 40
0.8181818181818182
 40
1.0
 40
1.0
 40
1.0
 40
1.0
 10
-37.8876
 20
-10.5867
 30
0.0
 10
-37.8876
 20
-10.5867
 30
0.0
 10
-37.8876
 20
-10.7645
 30
0.0
 10
-37.8876
 20
-10.7645
 30
0.0
 10
-37.8876
 20
-10.7645
 30
0.0
 10
-38.3288
 20
-10.4898
 30
0.0
 10
-38.77
 20
-10.3524
 30
0.0
 10
-39.2122
 20
-10.3524
 30
0.0
 10
-39.2122
 20
-10.3524
 30
0.0
 10
-39.3848
 20
-10.3524
 30
0.0
 10
-39.556
 20
-10.3722
 30
0.0
 10
-39.7263
 20
-10.4117
 30
0.0
 10
-39.7263
 20
-10.4117
 30
0.0
 10
-39.8636
 20
-10.4427
 30
0.0
 10
-39.9963
 20
-10.4865
 30
0.0
 10
-40.1228
 20
-10.5424
 30
0.0
 10
-40.1228
 20
-10.5424
 30
0.0
 10
-40.2056
 20
-10.5782
 30
0.0
 10
-40.3434
 20
-10.652
 30
0.0
 10
-40.5363
 20
-10.7645
 30
0.0
 10
-40.5363
 20
-10.7645
 30
0.0
 10
-40.5363
 20
-10.7645
 30
0.0
 10
-40.5363
 20
-10.5867
 30
0.0
 10
-40.5363
 20
-10.5867
 30
0.0
 10
-40.5363
 20
-10.5867
 30
0.0
 10
-40.3058
 20
-10.414
 30
0.0
 10
-40.0744
 20
-10.2861
 30
0.0
 10
-39.842
 20
-10.2033
 30
0.0
 10
-39.842
 20
-10.2033
 30
0.0
 10
-39.6416
 20
-10.1328
 30
0.0
 10
-39.4323
 20
-10.0975
 30
0.0
 10
-39.2136
 20
-10.0975
 30
0.0
 10
-39.2136
 20
-10.0975
 30
0.0
 10
-38.9652
 20
-10.0975
 30
0.0
 10
-38.7258
 20
-10.145
 30
0.0
 10
-38.4939
 20
-10.24
 30
0.0
 10
-38.4939
 20
-10.24
 30
0.0
 10
-38.2625
 20
-10.335
 30
0.0
 10
-38.0603
 20
-10.4507
 30
0.0
 10
-37.8876
 20
-10.5867
 30
0.0
  0
SPLINE
  5
57
330
1F
100
AcDbEntity
  8
AXIS
 62
   250
100
AcDbSpline
210
0.0
220
0.0
230
1.0
 70
    11
 71
     3
 72
   120
 73
   116
 74
     0
 42
0.0000000001
 43
0.0000000001
 40
0.0
 40
0.0
 40
0.0
 40
0.0
 40
0.0333333333333333
 40
0.0333333333333333
 40
0.0333333333333333
 40
0.0333333333333333
 40
0.0666666666666667
 40
0.0666666666666667
 40
0.0666666666666667
 40
0.0666666666666667
 40
0.1
 40
0.1
 40
0.1
 40
0.1
 40
0.1333333333333333
 40
0.1333333333333333
 40
0.1333333333333333
 40
0.1333333333333333
 40
0.1666666666666667
 40
0.1666666666666667
 40
0.1666666666666667
 40
0.1666666666666667
 40
0.2
 40
0.2
 40
0.2
 40
0.2
 40
0.2333333333333333
 40
0.2333333333333333
 40
0.2333333333333333
 40
0.2333333333333333
 40
0.2666666666666667
 40
0.2666666666666667
 40
0.2666666666666667
 40
0.2666666666666667
 40
0.3
 40
0.3
 40
0.3
 40
0.3
 40
0.3333333333333333
 40
0.3333333333333333
 40
0.3333333333333333
 40
0.3333333333333333
 40
0.3666666666666666
 40
0.3666666666666666
 40
0.3666666666666666
 40
0.3666666666666666
 40
0.4
 40
0.4
 40
0.4
 40
0.4
 40
0.4333333333333333
 40
0.4333333333333333
 40
0.4333333333333333
 40
0.4333333333333333
 40
0.4666666666666667
 40
0.4666666666666667
 40
0.4666666666666667
 40
0.4666666666666667
 40
0.5
 40
0.5
 40
0.5
 40
0.5
 40
0.5333333333333333
 40
0.5333333333333333
 40
0.5333333333333333
 40
0.5333333333333333
 40
0.5666666666666667
 40
0.5666666666666667
 40
0.5666666666666667
 40
0.5666666666666667
 40
0.6
 40
0.6
 40
0.6
 40
0.6
 40
0.6333333333333333
 40
0.6333333333333333
 40
0.6333333333333333
 40
0.6333333333333333
 40
0.6666666666666666
 40
0.6666666666666666
 40
0.6666666666666666
 40
0.6666666666666666
 40
0.7
 40
0.7
 40
0.7
 40
0.7
 40
0.7333333333333333
 40
0.7333333333333333
 40
0.7333333333333333
 40
0.7333333333333333
 40
0.7666666666666667
 40
0.7666666666666667
 40
0.7666666666666667
 40
0.7666666666666667
 40
0.8
 40
0.8
 40
0.8
 40
0.8
 40
0.8333333333333334
 40
0.8333333333333334
 40
0.8333333333333334
 40
0.8333333333333334
 40
0.8666666666666667
 40
0.8666666666666667
 40
0.8666666666666667
 40
0.8666666666666667
 40
0.9
 40
0.9
 40
0.9
 40
0.9
 40
0.9333333333333333
 40
0.9333333333333333
 40
0.9333333333333333
 40
0.9333333333333333
 40
1.0
 40
1.0
 40
1.0
 40
1.0
 10
-29.8764
 20
35.4726
 30
0.0
 10
-29.8764
 20
35.4726
 30
0.0
 10
-29.8764
 20
35.7092
 30
0.0
 10
-29.8764
 20
35.7092
 30
0.0
 10
-29.8764
 20
35.7092
 30
0.0
 10
-29.8764
 20
35.7092
 30
0.0
 10
-29.0208
 20
35.7106
 30
0.0
 10
-29.0208
 20
35.7106
 30
0.0
 10
-29.0208
 20
35.7106
 30
0.0
 10
-29.0208
 20
35.7106
 30
0.0
 10
-29.0208
 20
34.9613
 30
0.0
 10
-29.0208
 20
34.9613
 30
0.0
 10
-29.0208
 20
34.9613
 30
0.0
 10
-29.152
 20
34.8564
 30
0.0
 10
-29.2875
 20
34.7778
 30
0.0
 10
-29.4272
 20
34.7247
 30
0.0
 10
-29.4272
 20
34.7247
 30
0.0
 10
-29.5669
 20
34.672
 30
0.0
 10
-29.7103
 20
34.6457
 30
0.0
 10
-29.8571
 20
34.6457
 30
0.0
 10
-29.8571
 20
34.6457
 30
0.0
 10
-30.0556
 20
34.6457
 30
0.0
 10
-30.2362
 20
34.688
 30
0.0
 10
-30.398
 20
34.7731
 30
0.0
 10
-30.398
 20
34.7731
 30
0.0
 10
-30.5603
 20
34.8578
 30
0.0
 10
-30.6826
 20
34.981
 30
0.0
 10
-30.7654
 20
35.1414
 30
0.0
 10
-30.7654
 20
35.1414
 30
0.0
 10
-30.8482
 20
35.3023
 30
0.0
 10
-30.8896
 20
35.482
 30
0.0
 10
-30.8896
 20
35.6805
 30
0.0
 10
-30.8896
 20
35.6805
 30
0.0
 10
-30.8896
 20
35.8771
 30
0.0
 10
-30.8482
 20
36.0605
 30
0.0
 10
-30.7658
 20
36.2308
 30
0.0
 10
-30.7658
 20
36.2308
 30
0.0
 10
-30.684
 20
36.4015
 30
0.0
 10
-30.5655
 20
36.5281
 30
0.0
 10
-30.4112
 20
36.6109
 30
0.0
 10
-30.4112
 20
36.6109
 30
0.0
 10
-30.2569
 20
36.6932
 30
0.0
 10
-30.0791
 20
36.7346
 30
0.0
 10
-29.8778
 20
36.7346
 30
0.0
 10
-29.8778
 20
36.7346
 30
0.0
 10
-29.732
 20
36.7346
 30
0.0
 10
-29.5998
 20
36.711
 30
0.0
 10
-29.4817
 20
36.6635
 30
0.0
 10
-29.4817
 20
36.6635
 30
0.0
 10
-29.3637
 20
36.6165
 30
0.0
 10
-29.271
 20
36.5506
 30
0.0
 10
-29.2042
 20
36.466
 30
0.0
 10
-29.2042
 20
36.466
 30
0.0
 10
-29.137
 20
36.3813
 30
0.0
 10
-29.0862
 20
36.2713
 30
0.0
 10
-29.0509
 20
36.1353
 30
0.0
 10
-29.0509
 20
36.1353
 30
0.0
 10
-29.0509
 20
36.1353
 30
0.0
 10
-29.2922
 20
36.069
 30
0.0
 10
-29.2922
 20
36.069
 30
0.0
 10
-29.2922
 20
36.069
 30
0.0
 10
-29.3228
 20
36.172
 30
0.0
 10
-29.3604
 20
36.2529
 30
0.0
 10
-29.4051
 20
36.3117
 30
0.0
 10
-29.4051
 20
36.3117
 30
0.0
 10
-29.4502
 20
36.3705
 30
0.0
 10
-29.5147
 20
36.4175
 30
0.0
 10
-29.5984
 20
36.4528
 30
0.0
 10
-29.5984
 20
36.4528
 30
0.0
 10
-29.6817
 20
36.4881
 30
0.0
 10
-29.7748
 20
36.506
 30
0.0
 10
-29.8764
 20
36.506
 30
0.0
 10
-29.8764
 20
36.506
 30
0.0
 10
-29.9987
 20
36.506
 30
0.0
 10
-30.1045
 20
36.4871
 30
0.0
 10
-30.1934
 20
36.45
 30
0.0
 10
-30.1934
 20
36.45
 30
0.0
 10
-30.2828
 20
36.4128
 30
0.0
 10
-30.3543
 20
36.3639
 30
0.0
 10
-30.4093
 20
36.3032
 30
0.0
 10
-30.4093
 20
36.3032
 30
0.0
 10
-30.4639
 20
36.2426
 30
0.0
 10
-30.5062
 20
36.1762
 30
0.0
 10
-30.5368
 20
36.1033
 30
0.0
 10
-30.5368
 20
36.1033
 30
0.0
 10
-30.588
 20
35.9787
 30
0.0
 10
-30.6139
 20
35.8432
 30
0.0
 10
-30.6139
 20
35.6969
 30
0.0
 10
-30.6139
 20
35.6969
 30
0.0
 10
-30.6139
 20
35.5168
 30
0.0
 10
-30.5829
 20
35.3663
 30
0.0
 10
-30.5208
 20
35.2449
 30
0.0
 10
-30.5208
 20
35.2449
 30
0.0
 10
-30.4587
 20
35.1236
 30
0.0
 10
-30.3684
 20
35.0337
 30
0.0
 10
-30.2499
 20
34.9749
 30
0.0
 10
-30.2499
 20
34.9749
 30
0.0
 10
-30.1313
 20
34.9161
 30
0.0
 10
-30.0057
 20
34.8865
 30
0.0
 10
-29.8726
 20
34.8865
 30
0.0
 10
-29.8726
 20
34.8865
 30
0.0
 10
-29.7564
 20
34.8865
 30
0.0
 10
-29.6436
 20
34.9091
 30
0.0
 10
-29.5335
 20
34.9538
 30
0.0
 10
-29.5335
 20
34.9538
 30
0.0
 10
-29.4229
 20
34.998
 30
0.0
 10
-29.3397
 20
35.0455
 30
0.0
 10
-29.2828
 20
35.0963
 30
0.0
 10
-29.2828
 20
35.0963
 30
0.0
 10
-29.2828
 20
35.0963
 30
0.0
 10
-29.2828
 20
35.4726
 30
0.0
 10
-29.2828
 20
35.4726
 30
0.0
 10
-29.2828
 20
35.4726
 30
0.0
 10
-29.2828
 20
35.4726
 30
0.0
 10
-29.8764
 20
35.4726
 30
0.0
 10
-29.8764
 20
35.4726
 30
0.0
  0
SPLINE
  5
58
330
1F
100
AcDbEntity
  8
AXIS
 62
   250
100
AcDbSpline
210
0.0
220
0.0
230
1.0
 70
    11
 71
     3
 72
    92
 73
    88
 74
     0
 42
0.0000000001
 43
0.0000000001
 40
0.0
 40
0.0
 40
0.0
 40
0.0
 40
0.0434782608695652
 40
0.0434782608695652
 40
0.0434782608695652
 40
0.0434782608695652
 40
0.0869565217391304
 40
0.0869565217391304
 40
0.0869565217391304
 40
0.0869565217391304
 40
0.1304347826086956
 40
0.1304347826086956
 40
0.1304347826086956
 40
0.1304347826086956
 40
0.1739130434782609
 40
0.1739130434782609
 40
0.1739130434782609
 40
0.1739130434782609
 40
0.2173913043478261
 40
0.2173913043478261
 40
0.2173913043478261
 40
0.2173913043478261
 40
0.2608695652173913
 40
0.2608695652173913
 40
0.2608695652173913
 40
0.2608695652173913
 40
0.3043478260869565
 40
0.3043478260869565
 40
0.3043478260869565
 40
0.3043478260869565
 40
0.3478260869565217
 40
0.3478260869565217
 40
0.3478260869565217
 40
0.3478260869565217
 40
0.391304347826087
 40
0.391304347826087
 40
0.391304347826087
 40
0.391304347826087
 40
0.4347826086956522
 40
0.4347826086956522
 40
0.4347826086956522
 40
0.4347826086956522
 40
0.4782608695652174
 40
0.4782608695652174
 40
0.4782608695652174
 40
0.4782608695652174
 40
0.5217391304347826
 40
0.5217391304347826
 40
0.5217391304347826
 40
0.5217391304347826
 40
0.5652173913043478
 40
0.5652173913043478
 40
0.5652173913043478
 40
0.5652173913043478
 40
0.6086956521739131
 40
0.6086956521739131
 40
0.6086956521739131
 40
0.6086956521739131
 40
0.6521739130434783
 40
0.6521739130434783
 40
0.6521739130434783
 40
0.6521739130434783
 40
0.6956521739130435
 40
0.6956521739130435
 40
0.6956521739130435
 40
0.6956521739130435
 40
0.7391304347826086
 40
0.7391304347826086
 40
0.7391304347826086
 40
0.7391304347826086
 40
0.782608695652174
 40
0.782608695652174
 40
0.782608695652174
 40
0.782608695652174
 40
0.8260869565217391
 40
0.8260869565217391
 40
0.8260869565217391
 40
0.8260869565217391
 40
0.8695652173913043
 40
0.8695652173913043
 40
0.8695652173913043
 40
0.8695652173913043
 40
0.9130434782608695
 40
0.9130434782608695
 40
0.9130434782608695
 40
0.9130434782608695
 40
1.0
 40
1.0
 40
1.0
 40
1.0
 10
-27.9432
 20
35.2092
 30
0.0
 10
-27.9432
 20
35.2092
 30
0.0
 10
-27.6826
 20
35.2313
 30
0.0
 10
-27.6826
 20
35.2313
 30
0.0
 10
-27.6826
 20
35.2313
 30
0.0
 10
-27.6633
 20
35.1043
 30
0.0
 10
-27.6186
 20
35.0093
 30
0.0
 10
-27.5485
 20
34.9453
 30
0.0
 10
-27.5485
 20
34.9453
 30
0.0
 10
-27.478
 20
34.8813
 30
0.0
 10
-27.3933
 20
34.8493
 30
0.0
 10
-27.2941
 20
34.8493
 30
0.0
 10
-27.2941
 20
34.8493
 30
0.0
 10
-27.1746
 20
34.8493
 30
0.0
 10
-27.0735
 20
34.8945
 30
0.0
 10
-26.9912
 20
34.9843
 30
0.0
 10
-26.9912
 20
34.9843
 30
0.0
 10
-26.9084
 20
35.0746
 30
0.0
 10
-26.867
 20
35.1941
 30
0.0
 10
-26.867
 20
35.3427
 30
0.0
 10
-26.867
 20
35.3427
 30
0.0
 10
-26.867
 20
35.4843
 30
0.0
 10
-26.9065
 20
35.5958
 30
0.0
 10
-26.986
 20
35.6776
 30
0.0
 10
-26.986
 20
35.6776
 30
0.0
 10
-27.0655
 20
35.7595
 30
0.0
 10
-27.1694
 20
35.8004
 30
0.0
 10
-27.2983
 20
35.8004
 30
0.0
 10
-27.2983
 20
35.8004
 30
0.0
 10
-27.3783
 20
35.8004
 30
0.0
 10
-27.4502
 20
35.7821
 30
0.0
 10
-27.5147
 20
35.7459
 30
0.0
 10
-27.5147
 20
35.7459
 30
0.0
 10
-27.5791
 20
35.7096
 30
0.0
 10
-27.6294
 20
35.6626
 30
0.0
 10
-27.6661
 20
35.6047
 30
0.0
 10
-27.6661
 20
35.6047
 30
0.0
 10
-27.6661
 20
35.6047
 30
0.0
 10
-27.899
 20
35.6348
 30
0.0
 10
-27.899
 20
35.6348
 30
0.0
 10
-27.899
 20
35.6348
 30
0.0
 10
-27.899
 20
35.6348
 30
0.0
 10
-27.7033
 20
36.6725
 30
0.0
 10
-27.7033
 20
36.6725
 30
0.0
 10
-27.7033
 20
36.6725
 30
0.0
 10
-27.7033
 20
36.6725
 30
0.0
 10
-26.6986
 20
36.6725
 30
0.0
 10
-26.6986
 20
36.6725
 30
0.0
 10
-26.6986
 20
36.6725
 30
0.0
 10
-26.6986
 20
36.6725
 30
0.0
 10
-26.6986
 20
36.4354
 30
0.0
 10
-26.6986
 20
36.4354
 30
0.0
 10
-26.6986
 20
36.4354
 30
0.0
 10
-26.6986
 20
36.4354
 30
0.0
 10
-27.5048
 20
36.4354
 30
0.0
 10
-27.5048
 20
36.4354
 30
0.0
 10
-27.5048
 20
36.4354
 30
0.0
 10
-27.5048
 20
36.4354
 30
0.0
 10
-27.6139
 20
35.8926
 30
0.0
 10
-27.6139
 20
35.8926
 30
0.0
 10
-27.6139
 20
35.8926
 30
0.0
 10
-27.4926
 20
35.9773
 30
0.0
 10
-27.3651
 20
36.0196
 30
0.0
 10
-27.232
 20
36.0196
 30
0.0
 10
-27.232
 20
36.0196
 30
0.0
 10
-27.0556
 20
36.0196
 30
0.0
 10
-26.907
 20
35.9585
 30
0.0
 10
-26.7856
 20
35.8362
 30
0.0
 10
-26.7856
 20
35.8362
 30
0.0
 10
-26.6643
 20
35.7139
 30
0.0
 10
-26.6036
 20
35.5568
 30
0.0
 10
-26.6036
 20
35.3649
 30
0.0
 10
-26.6036
 20
35.3649
 30
0.0
 10
-26.6036
 20
35.1819
 30
0.0
 10
-26.6572
 20
35.0238
 30
0.0
 10
-26.7635
 20
34.8907
 30
0.0
 10
-26.7635
 20
34.8907
 30
0.0
 10
-26.8933
 20
34.7275
 30
0.0
 10
-27.0702
 20
34.6457
 30
0.0
 10
-27.2941
 20
34.6457
 30
0.0
 10
-27.2941
 20
34.6457
 30
0.0
 10
-27.478
 20
34.6457
 30
0.0
 10
-27.628
 20
34.6969
 30
0.0
 10
-27.7442
 20
34.7999
 30
0.0
 10
-27.7442
 20
34.7999
 30
0.0
 10
-27.8604
 20
34.903
 30
0.0
 10
-27.9267
 20
35.0394
 30
0.0
 10
-27.9432
 20
35.2092
 30
0.0
  0
SPLINE
  5
59
330
1F
100
AcDbEntity
  8
AXIS
 62
   250
100
AcDbSpline
210
0.0
220
0.0
230
1.0
 70
    11
 71
     3
 72
    20
 73
    16
 74
     0
 42
0.0000000001
 43
0.0000000001
 40
0.0
 40
0.0
 40
0.0
 40
0.0
 40
0.2
 40
0.2
 40
0.2
 40
0.2
 40
0.4
 40
0.4
 40
0.4
 40
0.4
 40
0.6
 40
0.6
 40
0.6
 40
0.6
 40
1.0
 40
1.0
 40
1.0
 40
1.0
 10
-26.4907
 20
34.6457
 30
0.0
 10
-26.4907
 20
34.6457
 30
0.0
 10
-25.9051
 20
36.7346
 30
0.0
 10
-25.9051
 20
36.7346
 30
0.0
 10
-25.9051
 20
36.7346
 30
0.0
 10
-25.9051
 20
36.7346
 30
0.0
 10
-25.7066
 20
36.7346
 30
0.0
 10
-25.7066
 20
36.7346
 30
0.0
 10
-25.7066
 20
36.7346
 30
0.0
 10
-25.7066
 20
36.7346
 30
0.0
 10
-26.2908
 20
34.6457
 30
0.0
 10
-26.2908
 20
34.6457
 30
0.0
 10
-26.2908
 20
34.6457
 30
0.0
 10
-26.2908
 20
34.6457
 30
0.0
 10
-26.4907
 20
34.6457
 30
0.0
 10
-26.4907
 20
34.6457
 30
0.0
  0
SPLINE
  5
5A
330
1F
100
AcDbEntity
  8
AXIS
 62
   250
100
AcDbSpline
210
0.0
220
0.0
230
1.0
 70
    11
 71
     3
 72
    48
 73
    44
 74
     0
 42
0.0000000001
 43
0.0000000001
 40
0.0
 40
0.0
 40
0.0
 40
0.0
 40
0.0833333333333333
 40
0.0833333333333333
 40
0.0833333333333333
 40
0.0833333333333333
 40
0.1666666666666667
 40
0.1666666666666667
 40
0.1666666666666667
 40
0.1666666666666667
 40
0.25
 40
0.25
 40
0.25
 40
0.25
 40
0.3333333333333333
 40
0.3333333333333333
 40
0.3333333333333333
 40
0.3333333333333333
 40
0.4166666666666667
 40
0.4166666666666667
 40
0.4166666666666667
 40
0.4166666666666667
 40
0.5
 40
0.5
 40
0.5
 40
0.5
 40
0.5833333333333334
 40
0.5833333333333334
 40
0.5833333333333334
 40
0.5833333333333334
 40
0.6666666666666666
 40
0.6666666666666666
 40
0.6666666666666666
 40
0.6666666666666666
 40
0.75
 40
0.75
 40
0.75
 40
0.75
 40
0.8333333333333334
 40
0.8333333333333334
 40
0.8333333333333334
 40
0.8333333333333334
 40
1.0
 40
1.0
 40
1.0
 40
1.0
 10
-24.7946
 20
34.68
 30
0.0
 10
-24.7946
 20
34.68
 30
0.0
 10
-24.7946
 20
35.1635
 30
0.0
 10
-24.7946
 20
35.1635
 30
0.0
 10
-24.7946
 20
35.1635
 30
0.0
 10
-24.7946
 20
35.1635
 30
0.0
 10
-25.6709
 20
35.1635
 30
0.0
 10
-25.6709
 20
35.1635
 30
0.0
 10
-25.6709
 20
35.1635
 30
0.0
 10
-25.6709
 20
35.1635
 30
0.0
 10
-25.6709
 20
35.3912
 30
0.0
 10
-25.6709
 20
35.3912
 30
0.0
 10
-25.6709
 20
35.3912
 30
0.0
 10
-25.6709
 20
35.3912
 30
0.0
 10
-24.7489
 20
36.7002
 30
0.0
 10
-24.7489
 20
36.7002
 30
0.0
 10
-24.7489
 20
36.7002
 30
0.0
 10
-24.7489
 20
36.7002
 30
0.0
 10
-24.5462
 20
36.7002
 30
0.0
 10
-24.5462
 20
36.7002
 30
0.0
 10
-24.5462
 20
36.7002
 30
0.0
 10
-24.5462
 20
36.7002
 30
0.0
 10
-24.5462
 20
35.3912
 30
0.0
 10
-24.5462
 20
35.3912
 30
0.0
 10
-24.5462
 20
35.3912
 30
0.0
 10
-24.5462
 20
35.3912
 30
0.0
 10
-24.2734
 20
35.3912
 30
0.0
 10
-24.2734
 20
35.3912
 30
0.0
 10
-24.2734
 20
35.3912
 30
0.0
 10
-24.2734
 20
35.3912
 30
0.0
 10
-24.2734
 20
35.1635
 30
0.0
 10
-24.2734
 20
35.1635
 30
0.0
 10
-24.2734
 20
35.1635
 30
0.0
 10
-24.2734
 20
35.1635
 30
0.0
 10
-24.5462
 20
35.1635
 30
0.0
 10
-24.5462
 20
35.1635
 30
0.0
 10
-24.5462
 20
35.1635
 30
0.0
 10
-24.5462
 20
35.1635
 30
0.0
 10
-24.5462
 20
34.68
 30
0.0
 10
-24.5462
 20
34.68
 30
0.0
 10
-24.5462
 20
34.68
 30
0.0
 10
-24.5462
 20
34.68
 30
0.0
 10
-24.7946
 20
34.68
 30
0.0
 10
-24.7946
 20
34.68
 30
0.0
  0
SPLINE
  5
5B
330
1F
100
AcDbEntity
  8
AXIS
 62
   250
100
AcDbSpline
210
0.0
220
0.0
230
1.0
 70
    11
 71
     3
 72
    16
 73
    12
 74
     0
 42
0.0000000001
 43
0.0000000001
 40
0.0
 40
0.0
 40
0.0
 40
0.0
 40
0.25
 40
0.25
 40
0.25
 40
0.25
 40
0.5
 40
0.5
 40
0.5
 40
0.5
 40
1.0
 40
1.0
 40
1.0
 40
1.0
 10
-24.7946
 20
35.3912
 30
0.0
 10
-24.7946
 20
35.3912
 30
0.0
 10
-24.7946
 20
36.3018
 30
0.0
 10
-24.7946
 20
36.3018
 30
0.0
 10
-24.7946
 20
36.3018
 30
0.0
 10
-24.7946
 20
36.3018
 30
0.0
 10
-25.4267
 20
35.3912
 30
0.0
 10
-25.4267
 20
35.3912
 30
0.0
 10
-25.4267
 20
35.3912
 30
0.0
 10
-25.4267
 20
35.3912
 30
0.0
 10
-24.7946
 20
35.3912
 30
0.0
 10
-24.7946
 20
35.3912
 30
0.0
  0
SPLINE
  5
5C
330
1F
100
AcDbEntity
  8
AXIS
 62
   250
100
AcDbSpline
210
0.0
220
0.0
230
1.0
 70
    11
 71
     3
 72
    28
 73
    24
 74
     0
 42
0.0000000001
 43
0.0000000001
 40
0.0
 40
0.0
 40
0.0
 40
0.0
 40
0.1428571428571428
 40
0.1428571428571428
 40
0.1428571428571428
 40
0.1428571428571428
 40
0.2857142857142857
 40
0.2857142857142857
 40
0.2857142857142857
 40
0.2857142857142857
 40
0.4285714285714285
 40
0.4285714285714285
 40
0.4285714285714285
 40
0.4285714285714285
 40
0.5714285714285714
 40
0.5714285714285714
 40
0.5714285714285714
 40
0.5714285714285714
 40
0.7142857142857143
 40
0.7142857142857143
 40
0.7142857142857143
 40
0.7142857142857143
 40
1.0
 40
1.0
 40
1.0
 40
1.0
 10
-23.9385
 20
35.9848
 30
0.0
 10
-23.9385
 20
35.9848
 30
0.0
 10
-24.0076
 20
36.3696
 30
0.0
 10
-24.0076
 20
36.3696
 30
0.0
 10
-24.0076
 20
36.3696
 30
0.0
 10
-24.0076
 20
36.3696
 30
0.0
 10
-24.0076
 20
36.7002
 30
0.0
 10
-24.0076
 20
36.7002
 30
0.0
 10
-24.0076
 20
36.7002
 30
0.0
 10
-24.0076
 20
36.7002
 30
0.0
 10
-23.725
 20
36.7002
 30
0.0
 10
-23.725
 20
36.7002
 30
0.0
 10
-23.725
 20
36.7002
 30
0.0
 10
-23.725
 20
36.7002
 30
0.0
 10
-23.725
 20
36.3696
 30
0.0
 10
-23.725
 20
36.3696
 30
0.0
 10
-23.725
 20
36.3696
 30
0.0
 10
-23.725
 20
36.3696
 30
0.0
 10
-23.787
 20
35.9848
 30
0.0
 10
-23.787
 20
35.9848
 30
0.0
 10
-23.787
 20
35.9848
 30
0.0
 10
-23.787
 20
35.9848
 30
0.0
 10
-23.9385
 20
35.9848
 30
0.0
 10
-23.9385
 20
35.9848
 30
0.0
  0
SPLINE
  5
5D
330
1F
100
AcDbEntity
  8
AXIS
 62
   250
100
AcDbSpline
210
0.0
220
0.0
230
1.0
 70
    11
 71
     3
 72
    28
 73
    24
 74
     0
 42
0.0000000001
 43
0.0000000001
 40
0.0
 40
0.0
 40
0.0
 40
0.0
 40
0.1428571428571428
 40
0.1428571428571428
 40
0.1428571428571428
 40
0.1428571428571428
 40
0.2857142857142857
 40
0.2857142857142857
 40
0.2857142857142857
 40
0.2857142857142857
 40
0.4285714285714285
 40
0.4285714285714285
 40
0.4285714285714285
 40
0.4285714285714285
 40
0.5714285714285714
 40
0.5714285714285714
 40
0.5714285714285714
 40
0.5714285714285714
 40
0.7142857142857143
 40
0.7142857142857143
 40
0.7142857142857143
 40
0.7142857142857143
 40
1.0
 40
1.0
 40
1.0
 40
1.0
 10
-23.4822
 20
35.9848
 30
0.0
 10
-23.4822
 20
35.9848
 30
0.0
 10
-23.55
 20
36.3696
 30
0.0
 10
-23.55
 20
36.3696
 30
0.0
 10
-23.55
 20
36.3696
 30
0.0
 10
-23.55
 20
36.3696
 30
0.0
 10
-23.55
 20
36.7002
 30
0.0
 10
-23.55
 20
36.7002
 30
0.0
 10
-23.55
 20
36.7002
 30
0.0
 10
-23.55
 20
36.7002
 30
0.0
 10
-23.2673
 20
36.7002
 30
0.0
 10
-23.2673
 20
36.7002
 30
0.0
 10
-23.2673
 20
36.7002
 30
0.0
 10
-23.2673
 20
36.7002
 30
0.0
 10
-23.2673
 20
36.3696
 30
0.0
 10
-23.2673
 20
36.3696
 30
0.0
 10
-23.2673
 20
36.3696
 30
0.0
 10
-23.2673
 20
36.3696
 30
0.0
 10
-23.3336
 20
35.9848
 30
0.0
 10
-23.3336
 20
35.9848
 30
0.0
 10
-23.3336
 20
35.9848
 30
0.0
 10
-23.3336
 20
35.9848
 30
0.0
 10
-23.4822
 20
35.9848
 30
0.0
 10
-23.4822
 20
35.9848
 30
0.0
  0
SPLINE
  5
5E
330
1F
100
AcDbEntity
  8
AXIS
 62
   250
100
AcDbSpline
210
0.0
220
0.0
230
1.0
 70
    11
 71
     3
 72
    80
 73
    76
 74
     0
 42
0.0000000001
 43
0.0000000001
 40
0.0
 40
0.0
 40
0.0
 40
0.0
 40
0.05
 40
0.05
 40
0.05
 40
0.05
 40
0.1
 40
0.1
 40
0.1
 40
0.1
 40
0.15
 40
0.15
 40
0.15
 40
0.15
 40
0.2
 40
0.2
 40
0.2
 40
0.2
 40
0.25
 40
0.25
 40
0.25
 40
0.25
 40
0.3
 40
0.3
 40
0.3
 40
0.3
 40
0.35
 40
0.35
 40
0.35
 40
0.35
 40
0.4
 40
0.4
 40
0.4
 40
0.4
 40
0.45
 40
0.45
 40
0.45
 40
0.45
 40
0.5
 40
0.5
 40
0.5
 40
0.5
 40
0.55
 40
0.55
 40
0.55
 40
0.55
 40
0.6
 40
0.6
 40
0.6
 40
0.6
 40
0.65
 40
0.65
 40
0.65
 40
0.65
 40
0.7
 40
0.7
 40
0.7
 40
0.7
 40
0.75
 40
0.75
 40
0.75
 40
0.75
 40
0.8
 40
0.8
 40
0.8
 40
0.8
 40
0.85
 40
0.85
 40
0.85
 40
0.85
 40
0.9
 40
0.9
 40
0.9
 40
0.9
 40
1.0
 40
1.0
 40
1.0
 40
1.0
 10
-44.288
 20
8.6742
 30
0.0
 10
-44.288
 20
8.6742
 30
0.0
 10
-44.2687
 20
8.4278
 30
0.0
 10
-44.2687
 20
8.4278
 30
0.0
 10
-44.2687
 20
8.4278
 30
0.0
 10
-44.3661
 20
8.4057
 30
0.0
 10
-44.4371
 20
8.3746
 30
0.0
 10
-44.4808
 20
8.3342
 30
0.0
 10
-44.4808
 20
8.3342
 30
0.0
 10
-44.5519
 20
8.2669
 30
0.0
 10
-44.5872
 20
8.1841
 30
0.0
 10
-44.5872
 20
8.0858
 30
0.0
 10
-44.5872
 20
8.0858
 30
0.0
 10
-44.5872
 20
8.0068
 30
0.0
 10
-44.565
 20
7.9377
 30
0.0
 10
-44.5208
 20
7.8779
 30
0.0
 10
-44.5208
 20
7.8779
 30
0.0
 10
-44.4639
 20
7.7998
 30
0.0
 10
-44.3807
 20
7.7382
 30
0.0
 10
-44.2715
 20
7.6931
 30
0.0
 10
-44.2715
 20
7.6931
 30
0.0
 10
-44.1624
 20
7.6484
 30
0.0
 10
-44.0067
 20
7.6249
 30
0.0
 10
-43.8045
 20
7.623
 30
0.0
 10
-43.8045
 20
7.623
 30
0.0
 10
-43.8952
 20
7.6827
 30
0.0
 10
-43.963
 20
7.7556
 30
0.0
 10
-44.0072
 20
7.8422
 30
0.0
 10
-44.0072
 20
7.8422
 30
0.0
 10
-44.0509
 20
7.9282
 30
0.0
 10
-44.073
 20
8.019
 30
0.0
 10
-44.073
 20
8.1136
 30
0.0
 10
-44.073
 20
8.1136
 30
0.0
 10
-44.073
 20
8.2791
 30
0.0
 10
-44.0124
 20
8.4198
 30
0.0
 10
-43.8905
 20
8.536
 30
0.0
 10
-43.8905
 20
8.536
 30
0.0
 10
-43.7687
 20
8.6521
 30
0.0
 10
-43.6116
 20
8.7105
 30
0.0
 10
-43.4188
 20
8.7105
 30
0.0
 10
-43.4188
 20
8.7105
 30
0.0
 10
-43.2918
 20
8.7105
 30
0.0
 10
-43.1742
 20
8.6827
 30
0.0
 10
-43.065
 20
8.6281
 30
0.0
 10
-43.065
 20
8.6281
 30
0.0
 10
-42.9564
 20
8.5736
 30
0.0
 10
-42.8727
 20
8.4983
 30
0.0
 10
-42.8148
 20
8.4028
 30
0.0
 10
-42.8148
 20
8.4028
 30
0.0
 10
-42.757
 20
8.3074
 30
0.0
 10
-42.7283
 20
8.1992
 30
0.0
 10
-42.7283
 20
8.0778
 30
0.0
 10
-42.7283
 20
8.0778
 30
0.0
 10
-42.7283
 20
7.8709
 30
0.0
 10
-42.804
 20
7.7025
 30
0.0
 10
-42.9564
 20
7.5722
 30
0.0
 10
-42.9564
 20
7.5722
 30
0.0
 10
-43.1083
 20
7.4414
 30
0.0
 10
-43.359
 20
7.3765
 30
0.0
 10
-43.708
 20
7.3765
 30
0.0
 10
-43.708
 20
7.3765
 30
0.0
 10
-44.0984
 20
7.3765
 30
0.0
 10
-44.3821
 20
7.4485
 30
0.0
 10
-44.5594
 20
7.5929
 30
0.0
 10
-44.5594
 20
7.5929
 30
0.0
 10
-44.7137
 20
7.7185
 30
0.0
 10
-44.7913
 20
7.8878
 30
0.0
 10
-44.7913
 20
8.1013
 30
0.0
 10
-44.7913
 20
8.1013
 30
0.0
 10
-44.7913
 20
8.2599
 30
0.0
 10
-44.7466
 20
8.3901
 30
0.0
 10
-44.6572
 20
8.4917
 30
0.0
 10
-44.6572
 20
8.4917
 30
0.0
 10
-44.5683
 20
8.5933
 30
0.0
 10
-44.4451
 20
8.654
 30
0.0
 10
-44.288
 20
8.6742
 30
0.0
  0
SPLINE
  5
5F
330
1F
100
AcDbEntity
  8
AXIS
 62
   250
100
AcDbSpline
210
0.0
220
0.0
230
1.0
 70
    11
 71
     3
 72
    40
 73
    36
 74
     0
 42
0.0000000001
 43
0.0000000001
 40
0.0
 40
0.0
 40
0.0
 40
0.0
 40
0.1
 40
0.1
 40
0.1
 40
0.1
 40
0.2
 40
0.2
 40
0.2
 40
0.2
 40
0.3
 40
0.3
 40
0.3
 40
0.3
 40
0.4
 40
0.4
 40
0.4
 40
0.4
 40
0.5
 40
0.5
 40
0.5
 40
0.5
 40
0.6
 40
0.6
 40
0.6
 40
0.6
 40
0.7
 40
0.7
 40
0.7
 40
0.7
 40
0.8
 40
0.8
 40
0.8
 40
0.8
 40
1.0
 40
1.0
 40
1.0
 40
1.0
 10
-43.4174
 20
7.6615
 30
0.0
 10
-43.3317
 20
7.6615
 30
0.0
 10
-43.2499
 20
7.6799
 30
0.0
 10
-43.1718
 20
7.7161
 30
0.0
 10
-43.1718
 20
7.7161
 30
0.0
 10
-43.0937
 20
7.7523
 30
0.0
 10
-43.0345
 20
7.8031
 30
0.0
 10
-42.9936
 20
7.868
 30
0.0
 10
-42.9936
 20
7.868
 30
0.0
 10
-42.9526
 20
7.9334
 30
0.0
 10
-42.9319
 20
8.0021
 30
0.0
 10
-42.9319
 20
8.0736
 30
0.0
 10
-42.9319
 20
8.0736
 30
0.0
 10
-42.9319
 20
8.1785
 30
0.0
 10
-42.9743
 20
8.2683
 30
0.0
 10
-43.0589
 20
8.3436
 30
0.0
 10
-43.0589
 20
8.3436
 30
0.0
 10
-43.1436
 20
8.4188
 30
0.0
 10
-43.2584
 20
8.4565
 30
0.0
 10
-43.4032
 20
8.4565
 30
0.0
 10
-43.4032
 20
8.4565
 30
0.0
 10
-43.5429
 20
8.4565
 30
0.0
 10
-43.653
 20
8.4193
 30
0.0
 10
-43.7334
 20
8.345
 30
0.0
 10
-43.7334
 20
8.345
 30
0.0
 10
-43.8139
 20
8.2707
 30
0.0
 10
-43.8539
 20
8.1771
 30
0.0
 10
-43.8539
 20
8.0642
 30
0.0
 10
-43.8539
 20
8.0642
 30
0.0
 10
-43.8539
 20
7.9518
 30
0.0
 10
-43.8139
 20
7.8567
 30
0.0
 10
-43.7334
 20
7.7787
 30
0.0
 10
-43.7334
 20
7.7787
 30
0.0
 10
-43.653
 20
7.7006
 30
0.0
 10
-43.5476
 20
7.6615
 30
0.0
 10
-43.4174
 20
7.6615
 30
0.0
  0
SPLINE
  5
60
330
1F
100
AcDbEntity
  8
AXIS
 62
   250
100
AcDbSpline
210
0.0
220
0.0
230
1.0
 70
    11
 71
     3
 72
    52
 73
    48
 74
     0
 42
0.0000000001
 43
0.0000000001
 40
0.0
 40
0.0
 40
0.0
 40
0.0
 40
0.0769230769230769
 40
0.0769230769230769
 40
0.0769230769230769
 40
0.0769230769230769
 40
0.1538461538461539
 40
0.1538461538461539
 40
0.1538461538461539
 40
0.1538461538461539
 40
0.2307692307692308
 40
0.2307692307692308
 40
0.2307692307692308
 40
0.2307692307692308
 40
0.3076923076923077
 40
0.3076923076923077
 40
0.3076923076923077
 40
0.3076923076923077
 40
0.3846153846153846
 40
0.3846153846153846
 40
0.3846153846153846
 40
0.3846153846153846
 40
0.4615384615384616
 40
0.4615384615384616
 40
0.4615384615384616
 40
0.4615384615384616
 40
0.5384615384615384
 40
0.5384615384615384
 40
0.5384615384615384
 40
0.5384615384615384
 40
0.6153846153846154
 40
0.6153846153846154
 40
0.6153846153846154
 40
0.6153846153846154
 40
0.6923076923076923
 40
0.6923076923076923
 40
0.6923076923076923
 40
0.6923076923076923
 40
0.7692307692307693
 40
0.7692307692307693
 40
0.7692307692307693
 40
0.7692307692307693
 40
0.8461538461538461
 40
0.8461538461538461
 40
0.8461538461538461
 40
0.8461538461538461
 40
1.0
 40
1.0
 40
1.0
 40
1.0
 10
-43.7588
 20
8.9569
 30
0.0
 10
-43.9978
 20
8.9569
 30
0.0
 10
-44.1902
 20
8.9814
 30
0.0
 10
-44.3355
 20
9.0308
 30
0.0
 10
-44.3355
 20
9.0308
 30
0.0
 10
-44.4813
 20
9.0797
 30
0.0
 10
-44.5937
 20
9.1531
 30
0.0
 10
-44.6728
 20
9.25
 30
0.0
 10
-44.6728
 20
9.25
 30
0.0
 10
-44.7518
 20
9.3469
 30
0.0
 10
-44.7913
 20
9.4687
 30
0.0
 10
-44.7913
 20
9.6154
 30
0.0
 10
-44.7913
 20
9.6154
 30
0.0
 10
-44.7913
 20
9.7241
 30
0.0
 10
-44.7692
 20
9.8191
 30
0.0
 10
-44.7254
 20
9.9009
 30
0.0
 10
-44.7254
 20
9.9009
 30
0.0
 10
-44.6822
 20
9.9828
 30
0.0
 10
-44.6191
 20
10.0501
 30
0.0
 10
-44.5368
 20
10.1037
 30
0.0
 10
-44.5368
 20
10.1037
 30
0.0
 10
-44.4545
 20
10.1568
 30
0.0
 10
-44.3543
 20
10.1987
 30
0.0
 10
-44.2363
 20
10.2288
 30
0.0
 10
-44.2363
 20
10.2288
 30
0.0
 10
-44.1182
 20
10.2594
 30
0.0
 10
-43.9592
 20
10.2744
 30
0.0
 10
-43.7588
 20
10.2744
 30
0.0
 10
-43.7588
 20
10.2744
 30
0.0
 10
-43.5218
 20
10.2744
 30
0.0
 10
-43.3308
 20
10.25
 30
0.0
 10
-43.185
 20
10.2015
 30
0.0
 10
-43.185
 20
10.2015
 30
0.0
 10
-43.0392
 20
10.1526
 30
0.0
 10
-42.9268
 20
10.0797
 30
0.0
 10
-42.8473
 20
9.9828
 30
0.0
 10
-42.8473
 20
9.9828
 30
0.0
 10
-42.7678
 20
9.8859
 30
0.0
 10
-42.7283
 20
9.7636
 30
0.0
 10
-42.7283
 20
9.6154
 30
0.0
 10
-42.7283
 20
9.6154
 30
0.0
 10
-42.7283
 20
9.4207
 30
0.0
 10
-42.7979
 20
9.2678
 30
0.0
 10
-42.9376
 20
9.1568
 30
0.0
 10
-42.9376
 20
9.1568
 30
0.0
 10
-43.1055
 20
9.0237
 30
0.0
 10
-43.3797
 20
8.9569
 30
0.0
 10
-43.7588
 20
8.9569
 30
0.0
  0
SPLINE
  5
61
330
1F
100
AcDbEntity
  8
AXIS
 62
   250
100
AcDbSpline
210
0.0
220
0.0
230
1.0
 70
    11
 71
     3
 72
    36
 73
    32
 74
     0
 42
0.0000000001
 43
0.0000000001
 40
0.0
 40
0.0
 40
0.0
 40
0.0
 40
0.1111111111111111
 40
0.1111111111111111
 40
0.1111111111111111
 40
0.1111111111111111
 40
0.2222222222222222
 40
0.2222222222222222
 40
0.2222222222222222
 40
0.2222222222222222
 40
0.3333333333333333
 40
0.3333333333333333
 40
0.3333333333333333
 40
0.3333333333333333
 40
0.4444444444444444
 40
0.4444444444444444
 40
0.4444444444444444
 40
0.4444444444444444
 40
0.5555555555555556
 40
0.5555555555555556
 40
0.5555555555555556
 40
0.5555555555555556
 40
0.6666666666666666
 40
0.6666666666666666
 40
0.6666666666666666
 40
0.6666666666666666
 40
0.7777777777777778
 40
0.7777777777777778
 40
0.7777777777777778
 40
0.7777777777777778
 40
1.0
 40
1.0
 40
1.0
 40
1.0
 10
-43.7588
 20
9.2119
 30
0.0
 10
-43.4272
 20
9.2119
 30
0.0
 10
-43.2066
 20
9.2509
 30
0.0
 10
-43.0966
 20
9.3285
 30
0.0
 10
-43.0966
 20
9.3285
 30
0.0
 10
-42.987
 20
9.4061
 30
0.0
 10
-42.9319
 20
9.5016
 30
0.0
 10
-42.9319
 20
9.6154
 30
0.0
 10
-42.9319
 20
9.6154
 30
0.0
 10
-42.9319
 20
9.7297
 30
0.0
 10
-42.9874
 20
9.8252
 30
0.0
 10
-43.0975
 20
9.9028
 30
0.0
 10
-43.0975
 20
9.9028
 30
0.0
 10
-43.2076
 20
9.9804
 30
0.0
 10
-43.4282
 20
10.0195
 30
0.0
 10
-43.7588
 20
10.0195
 30
0.0
 10
-43.7588
 20
10.0195
 30
0.0
 10
-44.0914
 20
10.0195
 30
0.0
 10
-44.3125
 20
9.9804
 30
0.0
 10
-44.4216
 20
9.9028
 30
0.0
 10
-44.4216
 20
9.9028
 30
0.0
 10
-44.5312
 20
9.8252
 30
0.0
 10
-44.5857
 20
9.7288
 30
0.0
 10
-44.5857
 20
9.6131
 30
0.0
 10
-44.5857
 20
9.6131
 30
0.0
 10
-44.5857
 20
9.4988
 30
0.0
 10
-44.5373
 20
9.408
 30
0.0
 10
-44.4409
 20
9.3398
 30
0.0
 10
-44.4409
 20
9.3398
 30
0.0
 10
-44.3181
 20
9.2547
 30
0.0
 10
-44.0904
 20
9.2119
 30
0.0
 10
-43.7588
 20
9.2119
 30
0.0
  0
SPLINE
  5
62
330
1F
100
AcDbEntity
  8
AXIS
 62
   250
100
AcDbSpline
210
0.0
220
0.0
230
1.0
 70
    11
 71
     3
 72
    20
 73
    16
 74
     0
 42
0.0000000001
 43
0.0000000001
 40
0.0
 40
0.0
 40
0.0
 40
0.0
 40
0.2
 40
0.2
 40
0.2
 40
0.2
 40
0.4
 40
0.4
 40
0.4
 40
0.4
 40
0.6
 40
0.6
 40
0.6
 40
0.6
 40
1.0
 40
1.0
 40
1.0
 40
1.0
 10
-44.0331
 20
11.8261
 30
0.0
 10
-44.0331
 20
11.8261
 30
0.0
 10
-44.3158
 20
11.8261
 30
0.0
 10
-44.3158
 20
11.8261
 30
0.0
 10
-44.3158
 20
11.8261
 30
0.0
 10
-44.3158
 20
11.8261
 30
0.0
 10
-44.3158
 20
12.1084
 30
0.0
 10
-44.3158
 20
12.1084
 30
0.0
 10
-44.3158
 20
12.1084
 30
0.0
 10
-44.3158
 20
12.1084
 30
0.0
 10
-44.0331
 20
12.1084
 30
0.0
 10
-44.0331
 20
12.1084
 30
0.0
 10
-44.0331
 20
12.1084
 30
0.0
 10
-44.0331
 20
12.1084
 30
0.0
 10
-44.0331
 20
11.8261
 30
0.0
 10
-44.0331
 20
11.8261
 30
0.0
  0
SPLINE
  5
63
330
1F
100
AcDbEntity
  8
AXIS
 62
   250
100
AcDbSpline
210
0.0
220
0.0
230
1.0
 70
    11
 71
     3
 72
    20
 73
    16
 74
     0
 42
0.0000000001
 43
0.0000000001
 40
0.0
 40
0.0
 40
0.0
 40
0.0
 40
0.2
 40
0.2
 40
0.2
 40
0.2
 40
0.4
 40
0.4
 40
0.4
 40
0.4
 40
0.6
 40
0.6
 40
0.6
 40
0.6
 40
1.0
 40
1.0
 40
1.0
 40
1.0
 10
-43.6431
 20
12.6347
 30
0.0
 10
-43.6431
 20
12.6347
 30
0.0
 10
-43.6431
 20
11.3012
 30
0.0
 10
-43.6431
 20
11.3012
 30
0.0
 10
-43.6431
 20
11.3012
 30
0.0
 10
-43.6431
 20
11.3012
 30
0.0
 10
-43.8745
 20
11.3012
 30
0.0
 10
-43.8745
 20
11.3012
 30
0.0
 10
-43.8745
 20
11.3012
 30
0.0
 10
-43.8745
 20
11.3012
 30
0.0
 10
-43.8745
 20
12.6347
 30
0.0
 10
-43.8745
 20
12.6347
 30
0.0
 10
-43.8745
 20
12.6347
 30
0.0
 10
-43.8745
 20
12.6347
 30
0.0
 10
-43.6431
 20
12.6347
 30
0.0
 10
-43.6431
 20
12.6347
 30
0.0
  0
SPLINE
  5
64
330
1F
100
AcDbEntity
  8
AXIS
 62
   250
100
AcDbSpline
210
0.0
220
0.0
230
1.0
 70
    11
 71
     3
 72
    20
 73
    16
 74
     0
 42
0.0000000001
 43
0.0000000001
 40
0.0
 40
0.0
 40
0.0
 40
0.0
 40
0.2
 40
0.2
 40
0.2
 40
0.2
 40
0.4
 40
0.4
 40
0.4
 40
0.4
 40
0.6
 40
0.6
 40
0.6
 40
0.6
 40
1.0
 40
1.0
 40
1.0
 40
1.0
 10
-43.2024
 20
11.8261
 30
0.0
 10
-43.2024
 20
11.8261
 30
0.0
 10
-43.4846
 20
11.8261
 30
0.0
 10
-43.4846
 20
11.8261
 30
0.0
 10
-43.4846
 20
11.8261
 30
0.0
 10
-43.4846
 20
11.8261
 30
0.0
 10
-43.4846
 20
12.1084
 30
0.0
 10
-43.4846
 20
12.1084
 30
0.0
 10
-43.4846
 20
12.1084
 30
0.0
 10
-43.4846
 20
12.1084
 30
0.0
 10
-43.2024
 20
12.1084
 30
0.0
 10
-43.2024
 20
12.1084
 30
0.0
 10
-43.2024
 20
12.1084
 30
0.0
 10
-43.2024
 20
12.1084
 30
0.0
 10
-43.2024
 20
11.8261
 30
0.0
 10
-43.2024
 20
11.8261
 30
0.0
  0
SPLINE
  5
65
330
1F
100
AcDbEntity
  8
AXIS
 62
   250
100
AcDbSpline
210
0.0
220
0.0
230
1.0
 70
    11
 71
     3
 72
    40
 73
    36
 74
     0
 42
0.0000000001
 43
0.0000000001
 40
0.0
 40
0.0
 40
0.0
 40
0.0
 40
0.1
 40
0.1
 40
0.1
 40
0.1
 40
0.2
 40
0.2
 40
0.2
 40
0.2
 40
0.3
 40
0.3
 40
0.3
 40
0.3
 40
0.4
 40
0.4
 40
0.4
 40
0.4
 40
0.5
 40
0.5
 40
0.5
 40
0.5
 40
0.6
 40
0.6
 40
0.6
 40
0.6
 40
0.7
 40
0.7
 40
0.7
 40
0.7
 40
0.8
 40
0.8
 40
0.8
 40
0.8
 40
1.0
 40
1.0
 40
1.0
 40
1.0
 10
-42.7626
 20
14.5778
 30
0.0
 10
-42.7626
 20
14.5778
 30
0.0
 10
-42.7626
 20
14.3299
 30
0.0
 10
-42.7626
 20
14.3299
 30
0.0
 10
-42.7626
 20
14.3299
 30
0.0
 10
-42.7626
 20
14.3299
 30
0.0
 10
-44.343
 20
14.3299
 30
0.0
 10
-44.343
 20
14.3299
 30
0.0
 10
-44.343
 20
14.3299
 30
0.0
 10
-44.2861
 20
14.2701
 30
0.0
 10
-44.2292
 20
14.1921
 30
0.0
 10
-44.1723
 20
14.0952
 30
0.0
 10
-44.1723
 20
14.0952
 30
0.0
 10
-44.1154
 20
13.9978
 30
0.0
 10
-44.0726
 20
13.9108
 30
0.0
 10
-44.0443
 20
13.8336
 30
0.0
 10
-44.0443
 20
13.8336
 30
0.0
 10
-44.0443
 20
13.8336
 30
0.0
 10
-44.2838
 20
13.8336
 30
0.0
 10
-44.2838
 20
13.8336
 30
0.0
 10
-44.2838
 20
13.8336
 30
0.0
 10
-44.3491
 20
13.9724
 30
0.0
 10
-44.4282
 20
14.0938
 30
0.0
 10
-44.5208
 20
14.1977
 30
0.0
 10
-44.5208
 20
14.1977
 30
0.0
 10
-44.614
 20
14.3012
 30
0.0
 10
-44.7038
 20
14.375
 30
0.0
 10
-44.7913
 20
14.4183
 30
0.0
 10
-44.7913
 20
14.4183
 30
0.0
 10
-44.7913
 20
14.4183
 30
0.0
 10
-44.7913
 20
14.5778
 30
0.0
 10
-44.7913
 20
14.5778
 30
0.0
 10
-44.7913
 20
14.5778
 30
0.0
 10
-44.7913
 20
14.5778
 30
0.0
 10
-42.7626
 20
14.5778
 30
0.0
 10
-42.7626
 20
14.5778
 30
0.0
  0
SPLINE
  5
66
330
1F
100
AcDbEntity
  8
AXIS
 62
   250
100
AcDbSpline
210
0.0
220
0.0
230
1.0
 70
    11
 71
     3
 72
    80
 73
    76
 74
     0
 42
0.0000000001
 43
0.0000000001
 40
0.0
 40
0.0
 40
0.0
 40
0.0
 40
0.05
 40
0.05
 40
0.05
 40
0.05
 40
0.1
 40
0.1
 40
0.1
 40
0.1
 40
0.15
 40
0.15
 40
0.15
 40
0.15
 40
0.2
 40
0.2
 40
0.2
 40
0.2
 40
0.25
 40
0.25
 40
0.25
 40
0.25
 40
0.3
 40
0.3
 40
0.3
 40
0.3
 40
0.35
 40
0.35
 40
0.35
 40
0.35
 40
0.4
 40
0.4
 40
0.4
 40
0.4
 40
0.45
 40
0.45
 40
0.45
 40
0.45
 40
0.5
 40
0.5
 40
0.5
 40
0.5
 40
0.55
 40
0.55
 40
0.55
 40
0.55
 40
0.6
 40
0.6
 40
0.6
 40
0.6
 40
0.65
 40
0.65
 40
0.65
 40
0.65
 40
0.7
 40
0.7
 40
0.7
 40
0.7
 40
0.75
 40
0.75
 40
0.75
 40
0.75
 40
0.8
 40
0.8
 40
0.8
 40
0.8
 40
0.85
 40
0.85
 40
0.85
 40
0.85
 40
0.9
 40
0.9
 40
0.9
 40
0.9
 40
1.0
 40
1.0
 40
1.0
 40
1.0
 10
-44.288
 20
16.5001
 30
0.0
 10
-44.288
 20
16.5001
 30
0.0
 10
-44.2687
 20
16.2537
 30
0.0
 10
-44.2687
 20
16.2537
 30
0.0
 10
-44.2687
 20
16.2537
 30
0.0
 10
-44.3661
 20
16.2316
 30
0.0
 10
-44.4371
 20
16.2005
 30
0.0
 10
-44.4808
 20
16.1601
 30
0.0
 10
-44.4808
 20
16.1601
 30
0.0
 10
-44.5519
 20
16.0928
 30
0.0
 10
-44.5872
 20
16.01
 30
0.0
 10
-44.5872
 20
15.9117
 30
0.0
 10
-44.5872
 20
15.9117
 30
0.0
 10
-44.5872
 20
15.8327
 30
0.0
 10
-44.565
 20
15.7636
 30
0.0
 10
-44.5208
 20
15.7038
 30
0.0
 10
-44.5208
 20
15.7038
 30
0.0
 10
-44.4639
 20
15.6257
 30
0.0
 10
-44.3807
 20
15.5641
 30
0.0
 10
-44.2715
 20
15.519
 30
0.0
 10
-44.2715
 20
15.519
 30
0.0
 10
-44.1624
 20
15.4743
 30
0.0
 10
-44.0067
 20
15.4508
 30
0.0
 10
-43.8045
 20
15.4489
 30
0.0
 10
-43.8045
 20
15.4489
 30
0.0
 10
-43.8952
 20
15.5086
 30
0.0
 10
-43.963
 20
15.5815
 30
0.0
 10
-44.0072
 20
15.6681
 30
0.0
 10
-44.0072
 20
15.6681
 30
0.0
 10
-44.0509
 20
15.7541
 30
0.0
 10
-44.073
 20
15.8449
 30
0.0
 10
-44.073
 20
15.9395
 30
0.0
 10
-44.073
 20
15.9395
 30
0.0
 10
-44.073
 20
16.105
 30
0.0
 10
-44.0124
 20
16.2457
 30
0.0
 10
-43.8905
 20
16.3619
 30
0.0
 10
-43.8905
 20
16.3619
 30
0.0
 10
-43.7687
 20
16.478
 30
0.0
 10
-43.6116
 20
16.5364
 30
0.0
 10
-43.4188
 20
16.5364
 30
0.0
 10
-43.4188
 20
16.5364
 30
0.0
 10
-43.2918
 20
16.5364
 30
0.0
 10
-43.1742
 20
16.5086
 30
0.0
 10
-43.065
 20
16.454
 30
0.0
 10
-43.065
 20
16.454
 30
0.0
 10
-42.9564
 20
16.3995
 30
0.0
 10
-42.8727
 20
16.3242
 30
0.0
 10
-42.8148
 20
16.2287
 30
0.0
 10
-42.8148
 20
16.2287
 30
0.0
 10
-42.757
 20
16.1333
 30
0.0
 10
-42.7283
 20
16.0251
 30
0.0
 10
-42.7283
 20
15.9037
 30
0.0
 10
-42.7283
 20
15.9037
 30
0.0
 10
-42.7283
 20
15.6968
 30
0.0
 10
-42.804
 20
15.5284
 30
0.0
 10
-42.9564
 20
15.3981
 30
0.0
 10
-42.9564
 20
15.3981
 30
0.0
 10
-43.1083
 20
15.2673
 30
0.0
 10
-43.359
 20
15.2024
 30
0.0
 10
-43.708
 20
15.2024
 30
0.0
 10
-43.708
 20
15.2024
 30
0.0
 10
-44.0984
 20
15.2024
 30
0.0
 10
-44.3821
 20
15.2744
 30
0.0
 10
-44.5594
 20
15.4188
 30
0.0
 10
-44.5594
 20
15.4188
 30
0.0
 10
-44.7137
 20
15.5444
 30
0.0
 10
-44.7913
 20
15.7137
 30
0.0
 10
-44.7913
 20
15.9272
 30
0.0
 10
-44.7913
 20
15.9272
 30
0.0
 10
-44.7913
 20
16.0858
 30
0.0
 10
-44.7466
 20
16.216
 30
0.0
 10
-44.6572
 20
16.3176
 30
0.0
 10
-44.6572
 20
16.3176
 30
0.0
 10
-44.5683
 20
16.4192
 30
0.0
 10
-44.4451
 20
16.4799
 30
0.0
 10
-44.288
 20
16.5001
 30
0.0
  0
SPLINE
  5
67
330
1F
100
AcDbEntity
  8
AXIS
 62
   250
100
AcDbSpline
210
0.0
220
0.0
230
1.0
 70
    11
 71
     3
 72
    40
 73
    36
 74
     0
 42
0.0000000001
 43
0.0000000001
 40
0.0
 40
0.0
 40
0.0
 40
0.0
 40
0.1
 40
0.1
 40
0.1
 40
0.1
 40
0.2
 40
0.2
 40
0.2
 40
0.2
 40
0.3
 40
0.3
 40
0.3
 40
0.3
 40
0.4
 40
0.4
 40
0.4
 40
0.4
 40
0.5
 40
0.5
 40
0.5
 40
0.5
 40
0.6
 40
0.6
 40
0.6
 40
0.6
 40
0.7
 40
0.7
 40
0.7
 40
0.7
 40
0.8
 40
0.8
 40
0.8
 40
0.8
 40
1.0
 40
1.0
 40
1.0
 40
1.0
 10
-43.4174
 20
15.4874
 30
0.0
 10
-43.3317
 20
15.4874
 30
0.0
 10
-43.2499
 20
15.5058
 30
0.0
 10
-43.1718
 20
15.542
 30
0.0
 10
-43.1718
 20
15.542
 30
0.0
 10
-43.0937
 20
15.5782
 30
0.0
 10
-43.0345
 20
15.629
 30
0.0
 10
-42.9936
 20
15.6939
 30
0.0
 10
-42.9936
 20
15.6939
 30
0.0
 10
-42.9526
 20
15.7593
 30
0.0
 10
-42.9319
 20
15.828
 30
0.0
 10
-42.9319
 20
15.8995
 30
0.0
 10
-42.9319
 20
15.8995
 30
0.0
 10
-42.9319
 20
16.0044
 30
0.0
 10
-42.9743
 20
16.0942
 30
0.0
 10
-43.0589
 20
16.1695
 30
0.0
 10
-43.0589
 20
16.1695
 30
0.0
 10
-43.1436
 20
16.2447
 30
0.0
 10
-43.2584
 20
16.2824
 30
0.0
 10
-43.4032
 20
16.2824
 30
0.0
 10
-43.4032
 20
16.2824
 30
0.0
 10
-43.5429
 20
16.2824
 30
0.0
 10
-43.653
 20
16.2452
 30
0.0
 10
-43.7334
 20
16.1709
 30
0.0
 10
-43.7334
 20
16.1709
 30
0.0
 10
-43.8139
 20
16.0966
 30
0.0
 10
-43.8539
 20
16.003
 30
0.0
 10
-43.8539
 20
15.8901
 30
0.0
 10
-43.8539
 20
15.8901
 30
0.0
 10
-43.8539
 20
15.7777
 30
0.0
 10
-43.8139
 20
15.6826
 30
0.0
 10
-43.7334
 20
15.6046
 30
0.0
 10
-43.7334
 20
15.6046
 30
0.0
 10
-43.653
 20
15.5265
 30
0.0
 10
-43.5476
 20
15.4874
 30
0.0
 10
-43.4174
 20
15.4874
 30
0.0
  0
SPLINE
  5
68
330
1F
100
AcDbEntity
  8
AXIS
 62
   250
100
AcDbSpline
210
0.0
220
0.0
230
1.0
 70
    11
 71
     3
 72
    52
 73
    48
 74
     0
 42
0.0000000001
 43
0.0000000001
 40
0.0
 40
0.0
 40
0.0
 40
0.0
 40
0.0769230769230769
 40
0.0769230769230769
 40
0.0769230769230769
 40
0.0769230769230769
 40
0.1538461538461539
 40
0.1538461538461539
 40
0.1538461538461539
 40
0.1538461538461539
 40
0.2307692307692308
 40
0.2307692307692308
 40
0.2307692307692308
 40
0.2307692307692308
 40
0.3076923076923077
 40
0.3076923076923077
 40
0.3076923076923077
 40
0.3076923076923077
 40
0.3846153846153846
 40
0.3846153846153846
 40
0.3846153846153846
 40
0.3846153846153846
 40
0.4615384615384616
 40
0.4615384615384616
 40
0.4615384615384616
 40
0.4615384615384616
 40
0.5384615384615384
 40
0.5384615384615384
 40
0.5384615384615384
 40
0.5384615384615384
 40
0.6153846153846154
 40
0.6153846153846154
 40
0.6153846153846154
 40
0.6153846153846154
 40
0.6923076923076923
 40
0.6923076923076923
 40
0.6923076923076923
 40
0.6923076923076923
 40
0.7692307692307693
 40
0.7692307692307693
 40
0.7692307692307693
 40
0.7692307692307693
 40
0.8461538461538461
 40
0.8461538461538461
 40
0.8461538461538461
 40
0.8461538461538461
 40
1.0
 40
1.0
 40
1.0
 40
1.0
 10
-43.7588
 20
16.7828
 30
0.0
 10
-43.9978
 20
16.7828
 30
0.0
 10
-44.1902
 20
16.8073
 30
0.0
 10
-44.3355
 20
16.8567
 30
0.0
 10
-44.3355
 20
16.8567
 30
0.0
 10
-44.4813
 20
16.9056
 30
0.0
 10
-44.5937
 20
16.979
 30
0.0
 10
-44.6728
 20
17.0759
 30
0.0
 10
-44.6728
 20
17.0759
 30
0.0
 10
-44.7518
 20
17.1728
 30
0.0
 10
-44.7913
 20
17.2946
 30
0.0
 10
-44.7913
 20
17.4413
 30
0.0
 10
-44.7913
 20
17.4413
 30
0.0
 10
-44.7913
 20
17.55
 30
0.0
 10
-44.7692
 20
17.645
 30
0.0
 10
-44.7254
 20
17.7268
 30
0.0
 10
-44.7254
 20
17.7268
 30
0.0
 10
-44.6822
 20
17.8087
 30
0.0
 10
-44.6191
 20
17.876
 30
0.0
 10
-44.5368
 20
17.9296
 30
0.0
 10
-44.5368
 20
17.9296
 30
0.0
 10
-44.4545
 20
17.9827
 30
0.0
 10
-44.3543
 20
18.0246
 30
0.0
 10
-44.2363
 20
18.0547
 30
0.0
 10
-44.2363
 20
18.0547
 30
0.0
 10
-44.1182
 20
18.0853
 30
0.0
 10
-43.9592
 20
18.1003
 30
0.0
 10
-43.7588
 20
18.1003
 30
0.0
 10
-43.7588
 20
18.1003
 30
0.0
 10
-43.5218
 20
18.1003
 30
0.0
 10
-43.3308
 20
18.0759
 30
0.0
 10
-43.185
 20
18.0274
 30
0.0
 10
-43.185
 20
18.0274
 30
0.0
 10
-43.0392
 20
17.9785
 30
0.0
 10
-42.9268
 20
17.9056
 30
0.0
 10
-42.8473
 20
17.8087
 30
0.0
 10
-42.8473
 20
17.8087
 30
0.0
 10
-42.7678
 20
17.7118
 30
0.0
 10
-42.7283
 20
17.5895
 30
0.0
 10
-42.7283
 20
17.4413
 30
0.0
 10
-42.7283
 20
17.4413
 30
0.0
 10
-42.7283
 20
17.2466
 30
0.0
 10
-42.7979
 20
17.0937
 30
0.0
 10
-42.9376
 20
16.9827
 30
0.0
 10
-42.9376
 20
16.9827
 30
0.0
 10
-43.1055
 20
16.8496
 30
0.0
 10
-43.3797
 20
16.7828
 30
0.0
 10
-43.7588
 20
16.7828
 30
0.0
  0
SPLINE
  5
69
330
1F
100
AcDbEntity
  8
AXIS
 62
   250
100
AcDbSpline
210
0.0
220
0.0
230
1.0
 70
    11
 71
     3
 72
    36
 73
    32
 74
     0
 42
0.0000000001
 43
0.0000000001
 40
0.0
 40
0.0
 40
0.0
 40
0.0
 40
0.1111111111111111
 40
0.1111111111111111
 40
0.1111111111111111
 40
0.1111111111111111
 40
0.2222222222222222
 40
0.2222222222222222
 40
0.2222222222222222
 40
0.2222222222222222
 40
0.3333333333333333
 40
0.3333333333333333
 40
0.3333333333333333
 40
0.3333333333333333
 40
0.4444444444444444
 40
0.4444444444444444
 40
0.4444444444444444
 40
0.4444444444444444
 40
0.5555555555555556
 40
0.5555555555555556
 40
0.5555555555555556
 40
0.5555555555555556
 40
0.6666666666666666
 40
0.6666666666666666
 40
0.6666666666666666
 40
0.6666666666666666
 40
0.7777777777777778
 40
0.7777777777777778
 40
0.7777777777777778
 40
0.7777777777777778
 40
1.0
 40
1.0
 40
1.0
 40
1.0
 10
-43.7588
 20
17.0378
 30
0.0
 10
-43.4272
 20
17.0378
 30
0.0
 10
-43.2066
 20
17.0768
 30
0.0
 10
-43.0966
 20
17.1544
 30
0.0
 10
-43.0966
 20
17.1544
 30
0.0
 10
-42.987
 20
17.232
 30
0.0
 10
-42.9319
 20
17.3275
 30
0.0
 10
-42.9319
 20
17.4413
 30
0.0
 10
-42.9319
 20
17.4413
 30
0.0
 10
-42.9319
 20
17.5556
 30
0.0
 10
-42.9874
 20
17.6511
 30
0.0
 10
-43.0975
 20
17.7287
 30
0.0
 10
-43.0975
 20
17.7287
 30
0.0
 10
-43.2076
 20
17.8063
 30
0.0
 10
-43.4282
 20
17.8454
 30
0.0
 10
-43.7588
 20
17.8454
 30
0.0
 10
-43.7588
 20
17.8454
 30
0.0
 10
-44.0914
 20
17.8454
 30
0.0
 10
-44.3125
 20
17.8063
 30
0.0
 10
-44.4216
 20
17.7287
 30
0.0
 10
-44.4216
 20
17.7287
 30
0.0
 10
-44.5312
 20
17.6511
 30
0.0
 10
-44.5857
 20
17.5547
 30
0.0
 10
-44.5857
 20
17.439
 30
0.0
 10
-44.5857
 20
17.439
 30
0.0
 10
-44.5857
 20
17.3247
 30
0.0
 10
-44.5373
 20
17.2339
 30
0.0
 10
-44.4409
 20
17.1657
 30
0.0
 10
-44.4409
 20
17.1657
 30
0.0
 10
-44.3181
 20
17.0806
 30
0.0
 10
-44.0904
 20
17.0378
 30
0.0
 10
-43.7588
 20
17.0378
 30
0.0
  0
SPLINE
  5
6A
330
1F
100
AcDbEntity
  8
AXIS
 62
   250
100
AcDbSpline
210
0.0
220
0.0
230
1.0
 70
    11
 71
     3
 72
   116
 73
   112
 74
     0
 42
0.0000000001
 43
0.0000000001
 40
0.0
 40
0.0
 40
0.0
 40
0.0
 40
0.0344827586206897
 40
0.0344827586206897
 40
0.0344827586206897
 40
0.0344827586206897
 40
0.0689655172413793
 40
0.0689655172413793
 40
0.0689655172413793
 40
0.0689655172413793
 40
0.103448275862069
 40
0.103448275862069
 40
0.103448275862069
 40
0.103448275862069
 40
0.1379310344827586
 40
0.1379310344827586
 40
0.1379310344827586
 40
0.1379310344827586
 40
0.1724137931034483
 40
0.1724137931034483
 40
0.1724137931034483
 40
0.1724137931034483
 40
0.2068965517241379
 40
0.2068965517241379
 40
0.2068965517241379
 40
0.2068965517241379
 40
0.2413793103448276
 40
0.2413793103448276
 40
0.2413793103448276
 40
0.2413793103448276
 40
0.2758620689655172
 40
0.2758620689655172
 40
0.2758620689655172
 40
0.2758620689655172
 40
0.3103448275862069
 40
0.3103448275862069
 40
0.3103448275862069
 40
0.3103448275862069
 40
0.3448275862068966
 40
0.3448275862068966
 40
0.3448275862068966
 40
0.3448275862068966
 40
0.3793103448275862
 40
0.3793103448275862
 40
0.3793103448275862
 40
0.3793103448275862
 40
0.4137931034482759
 40
0.4137931034482759
 40
0.4137931034482759
 40
0.4137931034482759
 40
0.4482758620689655
 40
0.4482758620689655
 40
0.4482758620689655
 40
0.4482758620689655
 40
0.4827586206896552
 40
0.4827586206896552
 40
0.4827586206896552
 40
0.4827586206896552
 40
0.5172413793103449
 40
0.5172413793103449
 40
0.5172413793103449
 40
0.5172413793103449
 40
0.5517241379310345
 40
0.5517241379310345
 40
0.5517241379310345
 40
0.5517241379310345
 40
0.5862068965517241
 40
0.5862068965517241
 40
0.5862068965517241
 40
0.5862068965517241
 40
0.6206896551724138
 40
0.6206896551724138
 40
0.6206896551724138
 40
0.6206896551724138
 40
0.6551724137931034
 40
0.6551724137931034
 40
0.6551724137931034
 40
0.6551724137931034
 40
0.6896551724137931
 40
0.6896551724137931
 40
0.6896551724137931
 40
0.6896551724137931
 40
0.7241379310344828
 40
0.7241379310344828
 40
0.7241379310344828
 40
0.7241379310344828
 40
0.7586206896551724
 40
0.7586206896551724
 40
0.7586206896551724
 40
0.7586206896551724
 40
0.7931034482758621
 40
0.7931034482758621
 40
0.7931034482758621
 40
0.7931034482758621
 40
0.8275862068965517
 40
0.8275862068965517
 40
0.8275862068965517
 40
0.8275862068965517
 40
0.8620689655172413
 40
0.8620689655172413
 40
0.8620689655172413
 40
0.8620689655172413
 40
0.896551724137931
 40
0.896551724137931
 40
0.896551724137931
 40
0.896551724137931
 40
0.9310344827586207
 40
0.9310344827586207
 40
0.9310344827586207
 40
0.9310344827586207
 40
1.0
 40
1.0
 40
1.0
 40
1.0
 10
-0.2604
 20
-35.11
 30
0.0
 10
-0.2604
 20
-35.11
 30
0.0
 10
-0.2604
 20
-33.6467
 30
0.0
 10
-0.2604
 20
-33.6467
 30
0.0
 10
-0.2604
 20
-33.6467
 30
0.0
 10
-0.2604
 20
-33.6467
 30
0.0
 10
-0.0389
 20
-33.6467
 30
0.0
 10
-0.0389
 20
-33.6467
 30
0.0
 10
-0.0389
 20
-33.6467
 30
0.0
 10
-0.0389
 20
-33.6467
 30
0.0
 10
-0.0389
 20
-33.8518
 30
0.0
 10
-0.0389
 20
-33.8518
 30
0.0
 10
-0.0389
 20
-33.8518
 30
0.0
 10
0.0072
 20
-33.7803
 30
0.0
 10
0.0684
 20
-33.7224
 30
0.0
 10
0.1446
 20
-33.6791
 30
0.0
 10
0.1446
 20
-33.6791
 30
0.0
 10
0.2208
 20
-33.6354
 30
0.0
 10
0.3078
 20
-33.6133
 30
0.0
 10
0.4051
 20
-33.6133
 30
0.0
 10
0.4051
 20
-33.6133
 30
0.0
 10
0.5133
 20
-33.6133
 30
0.0
 10
0.6022
 20
-33.6359
 30
0.0
 10
0.6714
 20
-33.681
 30
0.0
 10
0.6714
 20
-33.681
 30
0.0
 10
0.741
 20
-33.7262
 30
0.0
 10
0.7899
 20
-33.7887
 30
0.0
 10
0.8181
 20
-33.8696
 30
0.0
 10
0.8181
 20
-33.8696
 30
0.0
 10
0.9343
 20
-33.6989
 30
0.0
 10
1.0848
 20
-33.6133
 30
0.0
 10
1.2701
 20
-33.6133
 30
0.0
 10
1.2701
 20
-33.6133
 30
0.0
 10
1.4155
 20
-33.6133
 30
0.0
 10
1.527
 20
-33.6537
 30
0.0
 10
1.605
 20
-33.7342
 30
0.0
 10
1.605
 20
-33.7342
 30
0.0
 10
1.6831
 20
-33.8146
 30
0.0
 10
1.7222
 20
-33.9383
 30
0.0
 10
1.7222
 20
-34.1053
 30
0.0
 10
1.7222
 20
-34.1053
 30
0.0
 10
1.7222
 20
-34.1053
 30
0.0
 10
1.7222
 20
-35.11
 30
0.0
 10
1.7222
 20
-35.11
 30
0.0
 10
1.7222
 20
-35.11
 30
0.0
 10
1.7222
 20
-35.11
 30
0.0
 10
1.4757
 20
-35.11
 30
0.0
 10
1.4757
 20
-35.11
 30
0.0
 10
1.4757
 20
-35.11
 30
0.0
 10
1.4757
 20
-35.11
 30
0.0
 10
1.4757
 20
-34.1881
 30
0.0
 10
1.4757
 20
-34.1881
 30
0.0
 10
1.4757
 20
-34.1881
 30
0.0
 10
1.4757
 20
-34.0888
 30
0.0
 10
1.4677
 20
-34.0173
 30
0.0
 10
1.4517
 20
-33.9736
 30
0.0
 10
1.4517
 20
-33.9736
 30
0.0
 10
1.4352
 20
-33.9303
 30
0.0
 10
1.4061
 20
-33.895
 30
0.0
 10
1.3642
 20
-33.8682
 30
0.0
 10
1.3642
 20
-33.8682
 30
0.0
 10
1.3219
 20
-33.8419
 30
0.0
 10
1.272
 20
-33.8283
 30
0.0
 10
1.2151
 20
-33.8283
 30
0.0
 10
1.2151
 20
-33.8283
 30
0.0
 10
1.1121
 20
-33.8283
 30
0.0
 10
1.027
 20
-33.8626
 30
0.0
 10
0.9588
 20
-33.9313
 30
0.0
 10
0.9588
 20
-33.9313
 30
0.0
 10
0.891
 20
-33.9995
 30
0.0
 10
0.8567
 20
-34.1091
 30
0.0
 10
0.8567
 20
-34.2596
 30
0.0
 10
0.8567
 20
-34.2596
 30
0.0
 10
0.8567
 20
-34.2596
 30
0.0
 10
0.8567
 20
-35.11
 30
0.0
 10
0.8567
 20
-35.11
 30
0.0
 10
0.8567
 20
-35.11
 30
0.0
 10
0.8567
 20
-35.11
 30
0.0
 10
0.6088
 20
-35.11
 30
0.0
 10
0.6088
 20
-35.11
 30
0.0
 10
0.6088
 20
-35.11
 30
0.0
 10
0.6088
 20
-35.11
 30
0.0
 10
0.6088
 20
-34.1594
 30
0.0
 10
0.6088
 20
-34.1594
 30
0.0
 10
0.6088
 20
-34.1594
 30
0.0
 10
0.6088
 20
-34.0489
 30
0.0
 10
0.5886
 20
-33.9661
 30
0.0
 10
0.5481
 20
-33.911
 30
0.0
 10
0.5481
 20
-33.911
 30
0.0
 10
0.5077
 20
-33.856
 30
0.0
 10
0.4418
 20
-33.8283
 30
0.0
 10
0.3496
 20
-33.8283
 30
0.0
 10
0.3496
 20
-33.8283
 30
0.0
 10
0.28
 20
-33.8283
 30
0.0
 10
0.2156
 20
-33.8466
 30
0.0
 10
0.1563
 20
-33.8838
 30
0.0
 10
0.1563
 20
-33.8838
 30
0.0
 10
0.097
 20
-33.9204
 30
0.0
 10
0.0538
 20
-33.9741
 30
0.0
 10
0.0274
 20
-34.0446
 30
0.0
 10
0.0274
 20
-34.0446
 30
0.0
 10
0.0006
 20
-34.1156
 30
0.0
 10
-0.0126
 20
-34.2177
 30
0.0
 10
-0.0126
 20
-34.3508
 30
0.0
 10
-0.0126
 20
-34.3508
 30
0.0
 10
-0.0126
 20
-34.3508
 30
0.0
 10
-0.0126
 20
-35.11
 30
0.0
 10
-0.0126
 20
-35.11
 30
0.0
 10
-0.0126
 20
-35.11
 30
0.0
 10
-0.0126
 20
-35.11
 30
0.0
 10
-0.2604
 20
-35.11
 30
0.0
 10
-0.2604
 20
-35.11
 30
0.0
  0
SPLINE
  5
6B
330
1F
100
AcDbEntity
  8
AXIS
 62
   250
100
AcDbSpline
210
0.0
220
0.0
230
1.0
 70
    11
 71
     3
 72
   112
 73
   108
 74
     0
 42
0.0000000001
 43
0.0000000001
 40
0.0
 40
0.0
 40
0.0
 40
0.0
 40
0.0357142857142857
 40
0.0357142857142857
 40
0.0357142857142857
 40
0.0357142857142857
 40
0.0714285714285714
 40
0.0714285714285714
 40
0.0714285714285714
 40
0.0714285714285714
 40
0.1071428571428571
 40
0.1071428571428571
 40
0.1071428571428571
 40
0.1071428571428571
 40
0.1428571428571428
 40
0.1428571428571428
 40
0.1428571428571428
 40
0.1428571428571428
 40
0.1785714285714286
 40
0.1785714285714286
 40
0.1785714285714286
 40
0.1785714285714286
 40
0.2142857142857143
 40
0.2142857142857143
 40
0.2142857142857143
 40
0.2142857142857143
 40
0.25
 40
0.25
 40
0.25
 40
0.25
 40
0.2857142857142857
 40
0.2857142857142857
 40
0.2857142857142857
 40
0.2857142857142857
 40
0.3214285714285715
 40
0.3214285714285715
 40
0.3214285714285715
 40
0.3214285714285715
 40
0.3571428571428572
 40
0.3571428571428572
 40
0.3571428571428572
 40
0.3571428571428572
 40
0.3928571428571428
 40
0.3928571428571428
 40
0.3928571428571428
 40
0.3928571428571428
 40
0.4285714285714285
 40
0.4285714285714285
 40
0.4285714285714285
 40
0.4285714285714285
 40
0.4642857142857143
 40
0.4642857142857143
 40
0.4642857142857143
 40
0.4642857142857143
 40
0.5
 40
0.5
 40
0.5
 40
0.5
 40
0.5357142857142857
 40
0.5357142857142857
 40
0.5357142857142857
 40
0.5357142857142857
 40
0.5714285714285714
 40
0.5714285714285714
 40
0.5714285714285714
 40
0.5714285714285714
 40
0.6071428571428571
 40
0.6071428571428571
 40
0.6071428571428571
 40
0.6071428571428571
 40
0.6428571428571429
 40
0.6428571428571429
 40
0.6428571428571429
 40
0.6428571428571429
 40
0.6785714285714286
 40
0.6785714285714286
 40
0.6785714285714286
 40
0.6785714285714286
 40
0.7142857142857143
 40
0.7142857142857143
 40
0.7142857142857143
 40
0.7142857142857143
 40
0.75
 40
0.75
 40
0.75
 40
0.75
 40
0.7857142857142857
 40
0.7857142857142857
 40
0.7857142857142857
 40
0.7857142857142857
 40
0.8214285714285714
 40
0.8214285714285714
 40
0.8214285714285714
 40
0.8214285714285714
 40
0.8571428571428571
 40
0.8571428571428571
 40
0.8571428571428571
 40
0.8571428571428571
 40
0.8928571428571429
 40
0.8928571428571429
 40
0.8928571428571429
 40
0.8928571428571429
 40
0.9285714285714286
 40
0.9285714285714286
 40
0.9285714285714286
 40
0.9285714285714286
 40
1.0
 40
1.0
 40
1.0
 40
1.0
 10
3.0453
 20
-34.9294
 30
0.0
 10
2.9531
 20
-35.0075
 30
0.0
 10
2.8647
 20
-35.0625
 30
0.0
 10
2.78
 20
-35.0949
 30
0.0
 10
2.78
 20
-35.0949
 30
0.0
 10
2.6949
 20
-35.1269
 30
0.0
 10
2.6036
 20
-35.1429
 30
0.0
 10
2.5063
 20
-35.1429
 30
0.0
 10
2.5063
 20
-35.1429
 30
0.0
 10
2.3454
 20
-35.1429
 30
0.0
 10
2.2222
 20
-35.1039
 30
0.0
 10
2.1356
 20
-35.0253
 30
0.0
 10
2.1356
 20
-35.0253
 30
0.0
 10
2.0495
 20
-34.9468
 30
0.0
 10
2.0063
 20
-34.8461
 30
0.0
 10
2.0063
 20
-34.7243
 30
0.0
 10
2.0063
 20
-34.7243
 30
0.0
 10
2.0063
 20
-34.6523
 30
0.0
 10
2.0223
 20
-34.587
 30
0.0
 10
2.0552
 20
-34.5277
 30
0.0
 10
2.0552
 20
-34.5277
 30
0.0
 10
2.0876
 20
-34.4684
 30
0.0
 10
2.1304
 20
-34.4209
 30
0.0
 10
2.1831
 20
-34.3852
 30
0.0
 10
2.1831
 20
-34.3852
 30
0.0
 10
2.2363
 20
-34.3494
 30
0.0
 10
2.2955
 20
-34.3221
 30
0.0
 10
2.3619
 20
-34.3038
 30
0.0
 10
2.3619
 20
-34.3038
 30
0.0
 10
2.4103
 20
-34.2911
 30
0.0
 10
2.4837
 20
-34.2784
 30
0.0
 10
2.582
 20
-34.2666
 30
0.0
 10
2.582
 20
-34.2666
 30
0.0
 10
2.7824
 20
-34.2426
 30
0.0
 10
2.9301
 20
-34.2144
 30
0.0
 10
3.0246
 20
-34.181
 30
0.0
 10
3.0246
 20
-34.181
 30
0.0
 10
3.0256
 20
-34.1472
 30
0.0
 10
3.026
 20
-34.1255
 30
0.0
 10
3.026
 20
-34.1166
 30
0.0
 10
3.026
 20
-34.1166
 30
0.0
 10
3.026
 20
-34.0155
 30
0.0
 10
3.0025
 20
-33.944
 30
0.0
 10
2.9555
 20
-33.903
 30
0.0
 10
2.9555
 20
-33.903
 30
0.0
 10
2.8924
 20
-33.8466
 30
0.0
 10
2.7979
 20
-33.8188
 30
0.0
 10
2.6732
 20
-33.8188
 30
0.0
 10
2.6732
 20
-33.8188
 30
0.0
 10
2.5566
 20
-33.8188
 30
0.0
 10
2.4705
 20
-33.8391
 30
0.0
 10
2.4145
 20
-33.88
 30
0.0
 10
2.4145
 20
-33.88
 30
0.0
 10
2.359
 20
-33.9209
 30
0.0
 10
2.3181
 20
-33.9933
 30
0.0
 10
2.2913
 20
-34.0973
 30
0.0
 10
2.2913
 20
-34.0973
 30
0.0
 10
2.2913
 20
-34.0973
 30
0.0
 10
2.0491
 20
-34.0639
 30
0.0
 10
2.0491
 20
-34.0639
 30
0.0
 10
2.0491
 20
-34.0639
 30
0.0
 10
2.0712
 20
-33.9604
 30
0.0
 10
2.1074
 20
-33.8762
 30
0.0
 10
2.1577
 20
-33.8127
 30
0.0
 10
2.1577
 20
-33.8127
 30
0.0
 10
2.2081
 20
-33.7488
 30
0.0
 10
2.2814
 20
-33.6994
 30
0.0
 10
2.3769
 20
-33.665
 30
0.0
 10
2.3769
 20
-33.665
 30
0.0
 10
2.4724
 20
-33.6307
 30
0.0
 10
2.5829
 20
-33.6133
 30
0.0
 10
2.709
 20
-33.6133
 30
0.0
 10
2.709
 20
-33.6133
 30
0.0
 10
2.8341
 20
-33.6133
 30
0.0
 10
2.9352
 20
-33.6283
 30
0.0
 10
3.0133
 20
-33.6575
 30
0.0
 10
3.0133
 20
-33.6575
 30
0.0
 10
3.0914
 20
-33.6871
 30
0.0
 10
3.1488
 20
-33.7238
 30
0.0
 10
3.1859
 20
-33.7685
 30
0.0
 10
3.1859
 20
-33.7685
 30
0.0
 10
3.2226
 20
-33.8132
 30
0.0
 10
3.248
 20
-33.8692
 30
0.0
 10
3.2631
 20
-33.9374
 30
0.0
 10
3.2631
 20
-33.9374
 30
0.0
 10
3.2711
 20
-33.9797
 30
0.0
 10
3.2753
 20
-34.0559
 30
0.0
 10
3.2753
 20
-34.166
 30
0.0
 10
3.2753
 20
-34.166
 30
0.0
 10
3.2753
 20
-34.166
 30
0.0
 10
3.2753
 20
-34.4966
 30
0.0
 10
3.2753
 20
-34.4966
 30
0.0
 10
3.2753
 20
-34.4966
 30
0.0
 10
3.2753
 20
-34.7276
 30
0.0
 10
3.2805
 20
-34.8734
 30
0.0
 10
3.2913
 20
-34.9341
 30
0.0
 10
3.2913
 20
-34.9341
 30
0.0
 10
3.3017
 20
-34.9952
 30
0.0
 10
3.3228
 20
-35.054
 30
0.0
 10
3.3539
 20
-35.11
 30
0.0
 10
3.3539
 20
-35.11
 30
0.0
 10
3.3539
 20
-35.11
 30
0.0
 10
3.0947
 20
-35.11
 30
0.0
 10
3.0947
 20
-35.11
 30
0.0
 10
3.0947
 20
-35.11
 30
0.0
 10
3.0693
 20
-35.0587
 30
0.0
 10
3.0524
 20
-34.9985
 30
0.0
 10
3.0453
 20
-34.9294
 30
0.0
  0
SPLINE
  5
6C
330
1F
100
AcDbEntity
  8
AXIS
 62
   250
100
AcDbSpline
210
0.0
220
0.0
230
1.0
 70
    11
 71
     3
 72
    44
 73
    40
 74
     0
 42
0.0000000001
 43
0.0000000001
 40
0.0
 40
0.0
 40
0.0
 40
0.0
 40
0.0909090909090909
 40
0.0909090909090909
 40
0.0909090909090909
 40
0.0909090909090909
 40
0.1818181818181818
 40
0.1818181818181818
 40
0.1818181818181818
 40
0.1818181818181818
 40
0.2727272727272727
 40
0.2727272727272727
 40
0.2727272727272727
 40
0.2727272727272727
 40
0.3636363636363636
 40
0.3636363636363636
 40
0.3636363636363636
 40
0.3636363636363636
 40
0.4545454545454545
 40
0.4545454545454545
 40
0.4545454545454545
 40
0.4545454545454545
 40
0.5454545454545454
 40
0.5454545454545454
 40
0.5454545454545454
 40
0.5454545454545454
 40
0.6363636363636364
 40
0.6363636363636364
 40
0.6363636363636364
 40
0.6363636363636364
 40
0.7272727272727273
 40
0.7272727272727273
 40
0.7272727272727273
 40
0.7272727272727273
 40
0.8181818181818182
 40
0.8181818181818182
 40
0.8181818181818182
 40
0.8181818181818182
 40
1.0
 40
1.0
 40
1.0
 40
1.0
 10
3.0246
 20
-34.3753
 30
0.0
 10
2.9343
 20
-34.4124
 30
0.0
 10
2.7993
 20
-34.4435
 30
0.0
 10
2.6196
 20
-34.4694
 30
0.0
 10
2.6196
 20
-34.4694
 30
0.0
 10
2.5176
 20
-34.4839
 30
0.0
 10
2.4451
 20
-34.5004
 30
0.0
 10
2.4033
 20
-34.5187
 30
0.0
 10
2.4033
 20
-34.5187
 30
0.0
 10
2.3609
 20
-34.5371
 30
0.0
 10
2.328
 20
-34.5639
 30
0.0
 10
2.3054
 20
-34.5997
 30
0.0
 10
2.3054
 20
-34.5997
 30
0.0
 10
2.2824
 20
-34.6349
 30
0.0
 10
2.2706
 20
-34.674
 30
0.0
 10
2.2706
 20
-34.7172
 30
0.0
 10
2.2706
 20
-34.7172
 30
0.0
 10
2.2706
 20
-34.7836
 30
0.0
 10
2.296
 20
-34.8386
 30
0.0
 10
2.3459
 20
-34.8828
 30
0.0
 10
2.3459
 20
-34.8828
 30
0.0
 10
2.3957
 20
-34.9266
 30
0.0
 10
2.4691
 20
-34.9487
 30
0.0
 10
2.5655
 20
-34.9487
 30
0.0
 10
2.5655
 20
-34.9487
 30
0.0
 10
2.661
 20
-34.9487
 30
0.0
 10
2.7462
 20
-34.928
 30
0.0
 10
2.8205
 20
-34.8861
 30
0.0
 10
2.8205
 20
-34.8861
 30
0.0
 10
2.8948
 20
-34.8442
 30
0.0
 10
2.9498
 20
-34.7869
 30
0.0
 10
2.9846
 20
-34.7144
 30
0.0
 10
2.9846
 20
-34.7144
 30
0.0
 10
3.0114
 20
-34.6584
 30
0.0
 10
3.0246
 20
-34.5757
 30
0.0
 10
3.0246
 20
-34.4665
 30
0.0
 10
3.0246
 20
-34.4665
 30
0.0
 10
3.0246
 20
-34.4665
 30
0.0
 10
3.0246
 20
-34.3753
 30
0.0
 10
3.0246
 20
-34.3753
 30
0.0
  0
SPLINE
  5
6D
330
1F
100
AcDbEntity
  8
AXIS
 62
   250
100
AcDbSpline
210
0.0
220
0.0
230
1.0
 70
    11
 71
     3
 72
    64
 73
    60
 74
     0
 42
0.0000000001
 43
0.0000000001
 40
0.0
 40
0.0
 40
0.0
 40
0.0
 40
0.0625
 40
0.0625
 40
0.0625
 40
0.0625
 40
0.125
 40
0.125
 40
0.125
 40
0.125
 40
0.1875
 40
0.1875
 40
0.1875
 40
0.1875
 40
0.25
 40
0.25
 40
0.25
 40
0.25
 40
0.3125
 40
0.3125
 40
0.3125
 40
0.3125
 40
0.375
 40
0.375
 40
0.375
 40
0.375
 40
0.4375
 40
0.4375
 40
0.4375
 40
0.4375
 40
0.5
 40
0.5
 40
0.5
 40
0.5
 40
0.5625
 40
0.5625
 40
0.5625
 40
0.5625
 40
0.625
 40
0.625
 40
0.625
 40
0.625
 40
0.6875
 40
0.6875
 40
0.6875
 40
0.6875
 40
0.75
 40
0.75
 40
0.75
 40
0.75
 40
0.8125
 40
0.8125
 40
0.8125
 40
0.8125
 40
0.875
 40
0.875
 40
0.875
 40
0.875
 40
1.0
 40
1.0
 40
1.0
 40
1.0
 10
3.4945
 20
-35.11
 30
0.0
 10
3.4945
 20
-35.11
 30
0.0
 10
4.0293
 20
-34.3494
 30
0.0
 10
4.0293
 20
-34.3494
 30
0.0
 10
4.0293
 20
-34.3494
 30
0.0
 10
4.0293
 20
-34.3494
 30
0.0
 10
3.5345
 20
-33.6467
 30
0.0
 10
3.5345
 20
-33.6467
 30
0.0
 10
3.5345
 20
-33.6467
 30
0.0
 10
3.5345
 20
-33.6467
 30
0.0
 10
3.8444
 20
-33.6467
 30
0.0
 10
3.8444
 20
-33.6467
 30
0.0
 10
3.8444
 20
-33.6467
 30
0.0
 10
3.8444
 20
-33.6467
 30
0.0
 10
4.0693
 20
-33.9896
 30
0.0
 10
4.0693
 20
-33.9896
 30
0.0
 10
4.0693
 20
-33.9896
 30
0.0
 10
4.1111
 20
-34.055
 30
0.0
 10
4.1455
 20
-34.1095
 30
0.0
 10
4.1709
 20
-34.1537
 30
0.0
 10
4.1709
 20
-34.1537
 30
0.0
 10
4.2113
 20
-34.0931
 30
0.0
 10
4.2485
 20
-34.0394
 30
0.0
 10
4.2828
 20
-33.9924
 30
0.0
 10
4.2828
 20
-33.9924
 30
0.0
 10
4.2828
 20
-33.9924
 30
0.0
 10
4.5293
 20
-33.6467
 30
0.0
 10
4.5293
 20
-33.6467
 30
0.0
 10
4.5293
 20
-33.6467
 30
0.0
 10
4.5293
 20
-33.6467
 30
0.0
 10
4.8256
 20
-33.6467
 30
0.0
 10
4.8256
 20
-33.6467
 30
0.0
 10
4.8256
 20
-33.6467
 30
0.0
 10
4.8256
 20
-33.6467
 30
0.0
 10
4.32
 20
-34.3358
 30
0.0
 10
4.32
 20
-34.3358
 30
0.0
 10
4.32
 20
-34.3358
 30
0.0
 10
4.32
 20
-34.3358
 30
0.0
 10
4.8642
 20
-35.11
 30
0.0
 10
4.8642
 20
-35.11
 30
0.0
 10
4.8642
 20
-35.11
 30
0.0
 10
4.8642
 20
-35.11
 30
0.0
 10
4.5599
 20
-35.11
 30
0.0
 10
4.5599
 20
-35.11
 30
0.0
 10
4.5599
 20
-35.11
 30
0.0
 10
4.5599
 20
-35.11
 30
0.0
 10
4.2593
 20
-34.6552
 30
0.0
 10
4.2593
 20
-34.6552
 30
0.0
 10
4.2593
 20
-34.6552
 30
0.0
 10
4.2593
 20
-34.6552
 30
0.0
 10
4.1794
 20
-34.5324
 30
0.0
 10
4.1794
 20
-34.5324
 30
0.0
 10
4.1794
 20
-34.5324
 30
0.0
 10
4.1794
 20
-34.5324
 30
0.0
 10
3.7951
 20
-35.11
 30
0.0
 10
3.7951
 20
-35.11
 30
0.0
 10
3.7951
 20
-35.11
 30
0.0
 10
3.7951
 20
-35.11
 30
0.0
 10
3.4945
 20
-35.11
 30
0.0
 10
3.4945
 20
-35.11
 30
0.0
  0
SPLINE
  5
6E
330
1F
100
AcDbEntity
  8
AXIS
 62
   250
100
AcDbSpline
210
0.0
220
0.0
230
1.0
 70
    11
 71
     3
 72
   124
 73
   120
 74
     0
 42
0.0000000001
 43
0.0000000001
 40
0.0
 40
0.0
 40
0.0
 40
0.0
 40
0.032258064516129
 40
0.032258064516129
 40
0.032258064516129
 40
0.032258064516129
 40
0.0645161290322581
 40
0.0645161290322581
 40
0.0645161290322581
 40
0.0645161290322581
 40
0.0967741935483871
 40
0.0967741935483871
 40
0.0967741935483871
 40
0.0967741935483871
 40
0.1290322580645161
 40
0.1290322580645161
 40
0.1290322580645161
 40
0.1290322580645161
 40
0.1612903225806452
 40
0.1612903225806452
 40
0.1612903225806452
 40
0.1612903225806452
 40
0.1935483870967742
 40
0.1935483870967742
 40
0.1935483870967742
 40
0.1935483870967742
 40
0.2258064516129032
 40
0.2258064516129032
 40
0.2258064516129032
 40
0.2258064516129032
 40
0.2580645161290323
 40
0.2580645161290323
 40
0.2580645161290323
 40
0.2580645161290323
 40
0.2903225806451613
 40
0.2903225806451613
 40
0.2903225806451613
 40
0.2903225806451613
 40
0.3225806451612903
 40
0.3225806451612903
 40
0.3225806451612903
 40
0.3225806451612903
 40
0.3548387096774194
 40
0.3548387096774194
 40
0.3548387096774194
 40
0.3548387096774194
 40
0.3870967741935484
 40
0.3870967741935484
 40
0.3870967741935484
 40
0.3870967741935484
 40
0.4193548387096774
 40
0.4193548387096774
 40
0.4193548387096774
 40
0.4193548387096774
 40
0.4516129032258064
 40
0.4516129032258064
 40
0.4516129032258064
 40
0.4516129032258064
 40
0.4838709677419355
 40
0.4838709677419355
 40
0.4838709677419355
 40
0.4838709677419355
 40
0.5161290322580645
 40
0.5161290322580645
 40
0.5161290322580645
 40
0.5161290322580645
 40
0.5483870967741935
 40
0.5483870967741935
 40
0.5483870967741935
 40
0.5483870967741935
 40
0.5806451612903226
 40
0.5806451612903226
 40
0.5806451612903226
 40
0.5806451612903226
 40
0.6129032258064516
 40
0.6129032258064516
 40
0.6129032258064516
 40
0.6129032258064516
 40
0.6451612903225806
 40
0.6451612903225806
 40
0.6451612903225806
 40
0.6451612903225806
 40
0.6774193548387096
 40
0.6774193548387096
 40
0.6774193548387096
 40
0.6774193548387096
 40
0.7096774193548387
 40
0.7096774193548387
 40
0.7096774193548387
 40
0.7096774193548387
 40
0.7419354838709677
 40
0.7419354838709677
 40
0.7419354838709677
 40
0.7419354838709677
 40
0.7741935483870968
 40
0.7741935483870968
 40
0.7741935483870968
 40
0.7741935483870968
 40
0.8064516129032258
 40
0.8064516129032258
 40
0.8064516129032258
 40
0.8064516129032258
 40
0.8387096774193549
 40
0.8387096774193549
 40
0.8387096774193549
 40
0.8387096774193549
 40
0.8709677419354839
 40
0.8709677419354839
 40
0.8709677419354839
 40
0.8709677419354839
 40
0.9032258064516129
 40
0.9032258064516129
 40
0.9032258064516129
 40
0.9032258064516129
 40
0.9354838709677419
 40
0.9354838709677419
 40
0.9354838709677419
 40
0.9354838709677419
 40
1.0
 40
1.0
 40
1.0
 40
1.0
 10
5.7875
 20
-34.5766
 30
0.0
 10
5.7875
 20
-34.5766
 30
0.0
 10
6.0354
 20
-34.5437
 30
0.0
 10
6.0354
 20
-34.5437
 30
0.0
 10
6.0354
 20
-34.5437
 30
0.0
 10
6.0641
 20
-34.6843
 30
0.0
 10
6.1126
 20
-34.7854
 30
0.0
 10
6.1808
 20
-34.8475
 30
0.0
 10
6.1808
 20
-34.8475
 30
0.0
 10
6.2494
 20
-34.9096
 30
0.0
 10
6.3327
 20
-34.9407
 30
0.0
 10
6.431
 20
-34.9407
 30
0.0
 10
6.431
 20
-34.9407
 30
0.0
 10
6.5476
 20
-34.9407
 30
0.0
 10
6.6464
 20
-34.9002
 30
0.0
 10
6.7269
 20
-34.8193
 30
0.0
 10
6.7269
 20
-34.8193
 30
0.0
 10
6.8068
 20
-34.7384
 30
0.0
 10
6.8473
 20
-34.6382
 30
0.0
 10
6.8473
 20
-34.5187
 30
0.0
 10
6.8473
 20
-34.5187
 30
0.0
 10
6.8473
 20
-34.4049
 30
0.0
 10
6.8101
 20
-34.3108
 30
0.0
 10
6.7358
 20
-34.237
 30
0.0
 10
6.7358
 20
-34.237
 30
0.0
 10
6.661
 20
-34.1632
 30
0.0
 10
6.5665
 20
-34.126
 30
0.0
 10
6.4517
 20
-34.126
 30
0.0
 10
6.4517
 20
-34.126
 30
0.0
 10
6.4047
 20
-34.126
 30
0.0
 10
6.3463
 20
-34.1354
 30
0.0
 10
6.2767
 20
-34.1537
 30
0.0
 10
6.2767
 20
-34.1537
 30
0.0
 10
6.2767
 20
-34.1537
 30
0.0
 10
6.3045
 20
-33.936
 30
0.0
 10
6.3045
 20
-33.936
 30
0.0
 10
6.3045
 20
-33.936
 30
0.0
 10
6.3209
 20
-33.9378
 30
0.0
 10
6.3341
 20
-33.9388
 30
0.0
 10
6.3444
 20
-33.9388
 30
0.0
 10
6.3444
 20
-33.9388
 30
0.0
 10
6.4498
 20
-33.9388
 30
0.0
 10
6.5448
 20
-33.911
 30
0.0
 10
6.6295
 20
-33.856
 30
0.0
 10
6.6295
 20
-33.856
 30
0.0
 10
6.7142
 20
-33.801
 30
0.0
 10
6.7565
 20
-33.7158
 30
0.0
 10
6.7565
 20
-33.6011
 30
0.0
 10
6.7565
 20
-33.6011
 30
0.0
 10
6.7565
 20
-33.5103
 30
0.0
 10
6.7254
 20
-33.4346
 30
0.0
 10
6.6638
 20
-33.3753
 30
0.0
 10
6.6638
 20
-33.3753
 30
0.0
 10
6.6022
 20
-33.3156
 30
0.0
 10
6.5227
 20
-33.2854
 30
0.0
 10
6.4253
 20
-33.2854
 30
0.0
 10
6.4253
 20
-33.2854
 30
0.0
 10
6.3289
 20
-33.2854
 30
0.0
 10
6.2485
 20
-33.316
 30
0.0
 10
6.1845
 20
-33.3762
 30
0.0
 10
6.1845
 20
-33.3762
 30
0.0
 10
6.1201
 20
-33.4369
 30
0.0
 10
6.0787
 20
-33.5282
 30
0.0
 10
6.0603
 20
-33.6495
 30
0.0
 10
6.0603
 20
-33.6495
 30
0.0
 10
6.0603
 20
-33.6495
 30
0.0
 10
5.8125
 20
-33.6053
 30
0.0
 10
5.8125
 20
-33.6053
 30
0.0
 10
5.8125
 20
-33.6053
 30
0.0
 10
5.8426
 20
-33.4388
 30
0.0
 10
5.9117
 20
-33.3099
 30
0.0
 10
6.019
 20
-33.2187
 30
0.0
 10
6.019
 20
-33.2187
 30
0.0
 10
6.1267
 20
-33.1274
 30
0.0
 10
6.2603
 20
-33.0813
 30
0.0
 10
6.4202
 20
-33.0813
 30
0.0
 10
6.4202
 20
-33.0813
 30
0.0
 10
6.5302
 20
-33.0813
 30
0.0
 10
6.6318
 20
-33.1053
 30
0.0
 10
6.7245
 20
-33.1523
 30
0.0
 10
6.7245
 20
-33.1523
 30
0.0
 10
6.8172
 20
-33.1998
 30
0.0
 10
6.8882
 20
-33.2643
 30
0.0
 10
6.9376
 20
-33.3461
 30
0.0
 10
6.9376
 20
-33.3461
 30
0.0
 10
6.9865
 20
-33.428
 30
0.0
 10
7.0114
 20
-33.5145
 30
0.0
 10
7.0114
 20
-33.6067
 30
0.0
 10
7.0114
 20
-33.6067
 30
0.0
 10
7.0114
 20
-33.6937
 30
0.0
 10
6.9879
 20
-33.7732
 30
0.0
 10
6.9409
 20
-33.8452
 30
0.0
 10
6.9409
 20
-33.8452
 30
0.0
 10
6.8938
 20
-33.9167
 30
0.0
 10
6.8247
 20
-33.9736
 30
0.0
 10
6.733
 20
-34.0159
 30
0.0
 10
6.733
 20
-34.0159
 30
0.0
 10
6.8524
 20
-34.0432
 30
0.0
 10
6.9451
 20
-34.1006
 30
0.0
 10
7.0114
 20
-34.1876
 30
0.0
 10
7.0114
 20
-34.1876
 30
0.0
 10
7.0773
 20
-34.2742
 30
0.0
 10
7.1102
 20
-34.3828
 30
0.0
 10
7.1102
 20
-34.5131
 30
0.0
 10
7.1102
 20
-34.5131
 30
0.0
 10
7.1102
 20
-34.6895
 30
0.0
 10
7.0462
 20
-34.8391
 30
0.0
 10
6.9174
 20
-34.9618
 30
0.0
 10
6.9174
 20
-34.9618
 30
0.0
 10
6.7889
 20
-35.0846
 30
0.0
 10
6.6262
 20
-35.1457
 30
0.0
 10
6.4296
 20
-35.1457
 30
0.0
 10
6.4296
 20
-35.1457
 30
0.0
 10
6.2523
 20
-35.1457
 30
0.0
 10
6.105
 20
-35.0931
 30
0.0
 10
5.9879
 20
-34.9872
 30
0.0
 10
5.9879
 20
-34.9872
 30
0.0
 10
5.8708
 20
-34.8819
 30
0.0
 10
5.804
 20
-34.745
 30
0.0
 10
5.7875
 20
-34.5766
 30
0.0
  0
SPLINE
  5
6F
330
1F
100
AcDbEntity
  8
AXIS
 62
   250
100
AcDbSpline
210
0.0
220
0.0
230
1.0
 70
    11
 71
     3
 72
    92
 73
    88
 74
     0
 42
0.0000000001
 43
0.0000000001
 40
0.0
 40
0.0
 40
0.0
 40
0.0
 40
0.0434782608695652
 40
0.0434782608695652
 40
0.0434782608695652
 40
0.0434782608695652
 40
0.0869565217391304
 40
0.0869565217391304
 40
0.0869565217391304
 40
0.0869565217391304
 40
0.1304347826086956
 40
0.1304347826086956
 40
0.1304347826086956
 40
0.1304347826086956
 40
0.1739130434782609
 40
0.1739130434782609
 40
0.1739130434782609
 40
0.1739130434782609
 40
0.2173913043478261
 40
0.2173913043478261
 40
0.2173913043478261
 40
0.2173913043478261
 40
0.2608695652173913
 40
0.2608695652173913
 40
0.2608695652173913
 40
0.2608695652173913
 40
0.3043478260869565
 40
0.3043478260869565
 40
0.3043478260869565
 40
0.3043478260869565
 40
0.3478260869565217
 40
0.3478260869565217
 40
0.3478260869565217
 40
0.3478260869565217
 40
0.391304347826087
 40
0.391304347826087
 40
0.391304347826087
 40
0.391304347826087
 40
0.4347826086956522
 40
0.4347826086956522
 40
0.4347826086956522
 40
0.4347826086956522
 40
0.4782608695652174
 40
0.4782608695652174
 40
0.4782608695652174
 40
0.4782608695652174
 40
0.5217391304347826
 40
0.5217391304347826
 40
0.5217391304347826
 40
0.5217391304347826
 40
0.5652173913043478
 40
0.5652173913043478
 40
0.5652173913043478
 40
0.5652173913043478
 40
0.6086956521739131
 40
0.6086956521739131
 40
0.6086956521739131
 40
0.6086956521739131
 40
0.6521739130434783
 40
0.6521739130434783
 40
0.6521739130434783
 40
0.6521739130434783
 40
0.6956521739130435
 40
0.6956521739130435
 40
0.6956521739130435
 40
0.6956521739130435
 40
0.7391304347826086
 40
0.7391304347826086
 40
0.7391304347826086
 40
0.7391304347826086
 40
0.782608695652174
 40
0.782608695652174
 40
0.782608695652174
 40
0.782608695652174
 40
0.8260869565217391
 40
0.8260869565217391
 40
0.8260869565217391
 40
0.8260869565217391
 40
0.8695652173913043
 40
0.8695652173913043
 40
0.8695652173913043
 40
0.8695652173913043
 40
0.9130434782608695
 40
0.9130434782608695
 40
0.9130434782608695
 40
0.9130434782608695
 40
1.0
 40
1.0
 40
1.0
 40
1.0
 10
8.6596
 20
-34.8715
 30
0.0
 10
8.6596
 20
-34.8715
 30
0.0
 10
8.6596
 20
-35.11
 30
0.0
 10
8.6596
 20
-35.11
 30
0.0
 10
8.6596
 20
-35.11
 30
0.0
 10
8.6596
 20
-35.11
 30
0.0
 10
7.3242
 20
-35.11
 30
0.0
 10
7.3242
 20
-35.11
 30
0.0
 10
7.3242
 20
-35.11
 30
0.0
 10
7.3223
 20
-35.0503
 30
0.0
 10
7.3317
 20
-34.9929
 30
0.0
 10
7.3529
 20
-34.9378
 30
0.0
 10
7.3529
 20
-34.9378
 30
0.0
 10
7.3868
 20
-34.8466
 30
0.0
 10
7.4413
 20
-34.7572
 30
0.0
 10
7.5161
 20
-34.6688
 30
0.0
 10
7.5161
 20
-34.6688
 30
0.0
 10
7.5914
 20
-34.5808
 30
0.0
 10
7.6996
 20
-34.4788
 30
0.0
 10
7.8407
 20
-34.3631
 30
0.0
 10
7.8407
 20
-34.3631
 30
0.0
 10
8.0603
 20
-34.1829
 30
0.0
 10
8.209
 20
-34.0404
 30
0.0
 10
8.2861
 20
-33.935
 30
0.0
 10
8.2861
 20
-33.935
 30
0.0
 10
8.3632
 20
-33.8301
 30
0.0
 10
8.4018
 20
-33.7304
 30
0.0
 10
8.4018
 20
-33.6368
 30
0.0
 10
8.4018
 20
-33.6368
 30
0.0
 10
8.4018
 20
-33.5385
 30
0.0
 10
8.3665
 20
-33.4557
 30
0.0
 10
8.2965
 20
-33.388
 30
0.0
 10
8.2965
 20
-33.388
 30
0.0
 10
8.2259
 20
-33.3207
 30
0.0
 10
8.1342
 20
-33.2869
 30
0.0
 10
8.0213
 20
-33.2869
 30
0.0
 10
8.0213
 20
-33.2869
 30
0.0
 10
7.9018
 20
-33.2869
 30
0.0
 10
7.8063
 20
-33.3226
 30
0.0
 10
7.7348
 20
-33.3946
 30
0.0
 10
7.7348
 20
-33.3946
 30
0.0
 10
7.6629
 20
-33.4661
 30
0.0
 10
7.6267
 20
-33.5653
 30
0.0
 10
7.6257
 20
-33.6918
 30
0.0
 10
7.6257
 20
-33.6918
 30
0.0
 10
7.6257
 20
-33.6918
 30
0.0
 10
7.3708
 20
-33.666
 30
0.0
 10
7.3708
 20
-33.666
 30
0.0
 10
7.3708
 20
-33.666
 30
0.0
 10
7.3882
 20
-33.4755
 30
0.0
 10
7.454
 20
-33.3306
 30
0.0
 10
7.5679
 20
-33.2309
 30
0.0
 10
7.5679
 20
-33.2309
 30
0.0
 10
7.6817
 20
-33.1312
 30
0.0
 10
7.835
 20
-33.0813
 30
0.0
 10
8.0269
 20
-33.0813
 30
0.0
 10
8.0269
 20
-33.0813
 30
0.0
 10
8.2207
 20
-33.0813
 30
0.0
 10
8.3741
 20
-33.1354
 30
0.0
 10
8.487
 20
-33.2426
 30
0.0
 10
8.487
 20
-33.2426
 30
0.0
 10
8.6003
 20
-33.3504
 30
0.0
 10
8.6568
 20
-33.4835
 30
0.0
 10
8.6568
 20
-33.6425
 30
0.0
 10
8.6568
 20
-33.6425
 30
0.0
 10
8.6568
 20
-33.7234
 30
0.0
 10
8.6403
 20
-33.8029
 30
0.0
 10
8.6069
 20
-33.8809
 30
0.0
 10
8.6069
 20
-33.8809
 30
0.0
 10
8.574
 20
-33.959
 30
0.0
 10
8.5189
 20
-34.0413
 30
0.0
 10
8.4423
 20
-34.1274
 30
0.0
 10
8.4423
 20
-34.1274
 30
0.0
 10
8.3656
 20
-34.214
 30
0.0
 10
8.2381
 20
-34.3325
 30
0.0
 10
8.0599
 20
-34.483
 30
0.0
 10
8.0599
 20
-34.483
 30
0.0
 10
7.9112
 20
-34.6081
 30
0.0
 10
7.8157
 20
-34.6928
 30
0.0
 10
7.7734
 20
-34.7375
 30
0.0
 10
7.7734
 20
-34.7375
 30
0.0
 10
7.7311
 20
-34.7817
 30
0.0
 10
7.6963
 20
-34.8264
 30
0.0
 10
7.6685
 20
-34.8715
 30
0.0
 10
7.6685
 20
-34.8715
 30
0.0
 10
7.6685
 20
-34.8715
 30
0.0
 10
8.6596
 20
-34.8715
 30
0.0
 10
8.6596
 20
-34.8715
 30
0.0
  0
SPLINE
  5
70
330
1F
100
AcDbEntity
  8
AXIS
 62
   250
100
AcDbSpline
210
0.0
220
0.0
230
1.0
 70
    11
 71
     3
 72
    52
 73
    48
 74
     0
 42
0.0000000001
 43
0.0000000001
 40
0.0
 40
0.0
 40
0.0
 40
0.0
 40
0.0769230769230769
 40
0.0769230769230769
 40
0.0769230769230769
 40
0.0769230769230769
 40
0.1538461538461539
 40
0.1538461538461539
 40
0.1538461538461539
 40
0.1538461538461539
 40
0.2307692307692308
 40
0.2307692307692308
 40
0.2307692307692308
 40
0.2307692307692308
 40
0.3076923076923077
 40
0.3076923076923077
 40
0.3076923076923077
 40
0.3076923076923077
 40
0.3846153846153846
 40
0.3846153846153846
 40
0.3846153846153846
 40
0.3846153846153846
 40
0.4615384615384616
 40
0.4615384615384616
 40
0.4615384615384616
 40
0.4615384615384616
 40
0.5384615384615384
 40
0.5384615384615384
 40
0.5384615384615384
 40
0.5384615384615384
 40
0.6153846153846154
 40
0.6153846153846154
 40
0.6153846153846154
 40
0.6153846153846154
 40
0.6923076923076923
 40
0.6923076923076923
 40
0.6923076923076923
 40
0.6923076923076923
 40
0.7692307692307693
 40
0.7692307692307693
 40
0.7692307692307693
 40
0.7692307692307693
 40
0.8461538461538461
 40
0.8461538461538461
 40
0.8461538461538461
 40
0.8461538461538461
 40
1.0
 40
1.0
 40
1.0
 40
1.0
 10
8.9253
 20
-34.1138
 30
0.0
 10
8.9253
 20
-33.8748
 30
0.0
 10
8.9498
 20
-33.6824
 30
0.0
 10
8.9992
 20
-33.5371
 30
0.0
 10
8.9992
 20
-33.5371
 30
0.0
 10
9.0481
 20
-33.3913
 30
0.0
 10
9.1215
 20
-33.2789
 30
0.0
 10
9.2184
 20
-33.1998
 30
0.0
 10
9.2184
 20
-33.1998
 30
0.0
 10
9.3153
 20
-33.1208
 30
0.0
 10
9.4371
 20
-33.0813
 30
0.0
 10
9.5838
 20
-33.0813
 30
0.0
 10
9.5838
 20
-33.0813
 30
0.0
 10
9.6925
 20
-33.0813
 30
0.0
 10
9.7875
 20
-33.1034
 30
0.0
 10
9.8693
 20
-33.1472
 30
0.0
 10
9.8693
 20
-33.1472
 30
0.0
 10
9.9512
 20
-33.1904
 30
0.0
 10
10.0185
 20
-33.2535
 30
0.0
 10
10.0721
 20
-33.3358
 30
0.0
 10
10.0721
 20
-33.3358
 30
0.0
 10
10.1252
 20
-33.4181
 30
0.0
 10
10.1671
 20
-33.5183
 30
0.0
 10
10.1972
 20
-33.6363
 30
0.0
 10
10.1972
 20
-33.6363
 30
0.0
 10
10.2278
 20
-33.7544
 30
0.0
 10
10.2428
 20
-33.9134
 30
0.0
 10
10.2428
 20
-34.1138
 30
0.0
 10
10.2428
 20
-34.1138
 30
0.0
 10
10.2428
 20
-34.3508
 30
0.0
 10
10.2184
 20
-34.5418
 30
0.0
 10
10.1699
 20
-34.6876
 30
0.0
 10
10.1699
 20
-34.6876
 30
0.0
 10
10.121
 20
-34.8334
 30
0.0
 10
10.0481
 20
-34.9458
 30
0.0
 10
9.9512
 20
-35.0253
 30
0.0
 10
9.9512
 20
-35.0253
 30
0.0
 10
9.8543
 20
-35.1048
 30
0.0
 10
9.732
 20
-35.1443
 30
0.0
 10
9.5838
 20
-35.1443
 30
0.0
 10
9.5838
 20
-35.1443
 30
0.0
 10
9.3891
 20
-35.1443
 30
0.0
 10
9.2362
 20
-35.0747
 30
0.0
 10
9.1252
 20
-34.935
 30
0.0
 10
9.1252
 20
-34.935
 30
0.0
 10
8.9921
 20
-34.7671
 30
0.0
 10
8.9253
 20
-34.4929
 30
0.0
 10
8.9253
 20
-34.1138
 30
0.0
  0
SPLINE
  5
71
330
1F
100
AcDbEntity
  8
AXIS
 62
   250
100
AcDbSpline
210
0.0
220
0.0
230
1.0
 70
    11
 71
     3
 72
    36
 73
    32
 74
     0
 42
0.0000000001
 43
0.0000000001
 40
0.0
 40
0.0
 40
0.0
 40
0.0
 40
0.1111111111111111
 40
0.1111111111111111
 40
0.1111111111111111
 40
0.1111111111111111
 40
0.2222222222222222
 40
0.2222222222222222
 40
0.2222222222222222
 40
0.2222222222222222
 40
0.3333333333333333
 40
0.3333333333333333
 40
0.3333333333333333
 40
0.3333333333333333
 40
0.4444444444444444
 40
0.4444444444444444
 40
0.4444444444444444
 40
0.4444444444444444
 40
0.5555555555555556
 40
0.5555555555555556
 40
0.5555555555555556
 40
0.5555555555555556
 40
0.6666666666666666
 40
0.6666666666666666
 40
0.6666666666666666
 40
0.6666666666666666
 40
0.7777777777777778
 40
0.7777777777777778
 40
0.7777777777777778
 40
0.7777777777777778
 40
1.0
 40
1.0
 40
1.0
 40
1.0
 10
9.1803
 20
-34.1138
 30
0.0
 10
9.1803
 20
-34.4454
 30
0.0
 10
9.2193
 20
-34.666
 30
0.0
 10
9.2969
 20
-34.776
 30
0.0
 10
9.2969
 20
-34.776
 30
0.0
 10
9.3745
 20
-34.8856
 30
0.0
 10
9.47
 20
-34.9407
 30
0.0
 10
9.5838
 20
-34.9407
 30
0.0
 10
9.5838
 20
-34.9407
 30
0.0
 10
9.6981
 20
-34.9407
 30
0.0
 10
9.7936
 20
-34.8852
 30
0.0
 10
9.8712
 20
-34.7751
 30
0.0
 10
9.8712
 20
-34.7751
 30
0.0
 10
9.9488
 20
-34.665
 30
0.0
 10
9.9879
 20
-34.4444
 30
0.0
 10
9.9879
 20
-34.1138
 30
0.0
 10
9.9879
 20
-34.1138
 30
0.0
 10
9.9879
 20
-33.7812
 30
0.0
 10
9.9488
 20
-33.5601
 30
0.0
 10
9.8712
 20
-33.451
 30
0.0
 10
9.8712
 20
-33.451
 30
0.0
 10
9.7936
 20
-33.3414
 30
0.0
 10
9.6972
 20
-33.2869
 30
0.0
 10
9.5815
 20
-33.2869
 30
0.0
 10
9.5815
 20
-33.2869
 30
0.0
 10
9.4672
 20
-33.2869
 30
0.0
 10
9.3764
 20
-33.3353
 30
0.0
 10
9.3082
 20
-33.4317
 30
0.0
 10
9.3082
 20
-33.4317
 30
0.0
 10
9.2231
 20
-33.5545
 30
0.0
 10
9.1803
 20
-33.7822
 30
0.0
 10
9.1803
 20
-34.1138
 30
0.0
  0
SPLINE
  5
72
330
1F
100
AcDbEntity
  8
AXIS
 62
   250
100
AcDbSpline
210
0.0
220
0.0
230
1.0
 70
    24
 71
     3
 72
     8
 73
     4
 74
     0
 42
0.0000000001
 43
0.0000000001
 40
0.0
 40
0.0
 40
0.0
 40
0.0
 40
1.0
 40
1.0
 40
1.0
 40
1.0
 10
33.6819
 20
-13.7103
 30
0.0
 10
33.6819
 20
-13.7103
 30
0.0
 10
44.5715
 20
-13.7103
 30
0.0
 10
44.5715
 20
-13.7103
 30
0.0
  0
SPLINE
  5
73
330
1F
100
AcDbEntity
  8
AXIS
 62
   250
100
AcDbSpline
210
0.0
220
0.0
230
1.0
 70
    24
 71
     3
 72
     8
 73
     4
 74
     0
 42
0.0000000001
 43
0.0000000001
 40
0.0
 40
0.0
 40
0.0
 40
0.0
 40
1.0
 40
1.0
 40
1.0
 40
1.0
 10
33.8099
 20
4.6354
 30
0.0
 10
33.8099
 20
4.6354
 30
0.0
 10
44.5715
 20
4.6354
 30
0.0
 10
44.5715
 20
4.6354
 30
0.0
  0
SPLINE
  5
74
330
1F
100
AcDbEntity
  8
AXIS
 62
   250
100
AcDbSpline
210
0.0
220
0.0
230
1.0
 70
    24
 71
     3
 72
     8
 73
     4
 74
     0
 42
0.0000000001
 43
0.0000000001
 40
0.0
 40
0.0
 40
0.0
 40
0.0
 40
1.0
 40
1.0
 40
1.0
 40
1.0
 10
44.3093
 20
4.6354
 30
0.0
 10
44.3093
 20
4.6354
 30
0.0
 10
44.3093
 20
-13.1458
 30
0.0
 10
44.3093
 20
-13.1458
 30
0.0
  0
SPLINE
  5
75
330
1F
100
AcDbEntity
  8
AXIS
 62
   250
100
AcDbSpline
210
0.0
220
0.0
230
1.0
 70
    24
 71
     3
 72
     8
 73
     4
 74
     0
 42
0.0000000001
 43
0.0000000001
 40
0.0
 40
0.0
 40
0.0
 40
0.0
 40
1.0
 40
1.0
 40
1.0
 40
1.0
 10
20.6472
 20
-8.7307
 30
0.0
 10
20.6472
 20
-8.7307
 30
0.0
 10
19.9451
 20
-8.7307
 30
0.0
 10
19.9451
 20
-8.7307
 30
0.0
  0
SPLINE
  5
76
330
1F
100
AcDbEntity
  8
AXIS
 62
   250
100
AcDbSpline
210
0.0
220
0.0
230
1.0
 70
    24
 71
     3
 72
     8
 73
     4
 74
     0
 42
0.0000000001
 43
0.0000000001
 40
0.0
 40
0.0
 40
0.0
 40
0.0
 40
1.0
 40
1.0
 40
1.0
 40
1.0
 10
20.4142
 20
-0.3441
 30
0.0
 10
20.4142
 20
-0.3441
 30
0.0
 10
19.9451
 20
-0.3441
 30
0.0
 10
19.9451
 20
-0.3441
 30
0.0
  0
SPLINE
  5
77
330
1F
100
AcDbEntity
  8
AXIS
 62
   250
100
AcDbSpline
210
0.0
220
0.0
230
1.0
 70
    24
 71
     3
 72
     8
 73
     4
 74
     0
 42
0.0000000001
 43
0.0000000001
 40
0.0
 40
0.0
 40
0.0
 40
0.0
 40
1.0
 40
1.0
 40
1.0
 40
1.0
 10
20.2069
 20
11.2989
 30
0.0
 10
20.2069
 20
11.2989
 30
0.0
 10
20.2069
 20
-12.8283
 30
0.0
 10
20.2069
 20
-12.8283
 30
0.0
  0
SPLINE
  5
78
330
1F
100
AcDbEntity
  8
AXIS
 62
   250
100
AcDbSpline
210
0.0
220
0.0
230
1.0
 70
    24
 71
     3
 72
     8
 73
     4
 74
     0
 42
0.0000000001
 43
0.0000000001
 40
0.0
 40
0.0
 40
0.0
 40
0.0
 40
1.0
 40
1.0
 40
1.0
 40
1.0
 10
-20.7423
 20
-28.6648
 30
0.0
 10
-20.7423
 20
-28.6648
 30
0.0
 10
-20.7423
 20
-33.3177
 30
0.0
 10
-20.7423
 20
-33.3177
 30
0.0
  0
SPLINE
  5
79
330
1F
100
AcDbEntity
  8
AXIS
 62
   250
100
AcDbSpline
210
0.0
220
0.0
230
1.0
 70
    24
 71
     3
 72
     8
 73
     4
 74
     0
 42
0.0000000001
 43
0.0000000001
 40
0.0
 40
0.0
 40
0.0
 40
0.0
 40
1.0
 40
1.0
 40
1.0
 40
1.0
 10
-33.8459
 20
-28.693
 30
0.0
 10
-33.8459
 20
-28.693
 30
0.0
 10
-33.8459
 20
-33.4023
 30
0.0
 10
-33.8459
 20
-33.4023
 30
0.0
  0
SPLINE
  5
7A
330
1F
100
AcDbEntity
  8
AXIS
 62
   250
100
AcDbSpline
210
0.0
220
0.0
230
1.0
 70
    24
 71
     3
 72
     8
 73
     4
 74
     0
 42
0.0000000001
 43
0.0000000001
 40
0.0
 40
0.0
 40
0.0
 40
0.0
 40
1.0
 40
1.0
 40
1.0
 40
1.0
 10
-37.6706
 20
-32.9038
 30
0.0
 10
-37.6706
 20
-32.9038
 30
0.0
 10
-16.6769
 20
-32.9038
 30
0.0
 10
-16.6769
 20
-32.9038
 30
0.0
  0
SPLINE
  5
7B
330
1F
100
AcDbEntity
  8
AXIS
 62
   250
100
AcDbSpline
210
0.0
220
0.0
230
1.0
 70
    24
 71
     3
 72
     8
 73
     4
 74
     0
 42
0.0000000001
 43
0.0000000001
 40
0.0
 40
0.0
 40
0.0
 40
0.0
 40
1.0
 40
1.0
 40
1.0
 40
1.0
 10
-34.3991
 20
-28.1248
 30
0.0
 10
-34.3991
 20
-28.1248
 30
0.0
 10
-43.3637
 20
-28.1248
 30
0.0
 10
-43.3637
 20
-28.1248
 30
0.0
  0
SPLINE
  5
7C
330
1F
100
AcDbEntity
  8
AXIS
 62
   250
100
AcDbSpline
210
0.0
220
0.0
230
1.0
 70
    24
 71
     3
 72
     8
 73
     4
 74
     0
 42
0.0000000001
 43
0.0000000001
 40
0.0
 40
0.0
 40
0.0
 40
0.0
 40
1.0
 40
1.0
 40
1.0
 40
1.0
 10
-37.4915
 20
6.2866
 30
0.0
 10
-37.4915
 20
6.2866
 30
0.0
 10
-37.4915
 20
-27.4783
 30
0.0
 10
-37.4915
 20
-27.4783
 30
0.0
  0
SPLINE
  5
7D
330
1F
100
AcDbEntity
  8
AXIS
 62
   250
100
AcDbSpline
210
0.0
220
0.0
230
1.0
 70
    24
 71
     3
 72
     8
 73
     4
 74
     0
 42
0.0000000001
 43
0.0000000001
 40
0.0
 40
0.0
 40
0.0
 40
0.0
 40
1.0
 40
1.0
 40
1.0
 40
1.0
 10
-22.0525
 20
31.0582
 30
0.0
 10
-22.0525
 20
31.0582
 30
0.0
 10
-22.0525
 20
34.9896
 30
0.0
 10
-22.0525
 20
34.9896
 30
0.0
  0
SPLINE
  5
7E
330
1F
100
AcDbEntity
  8
AXIS
 62
   250
100
AcDbSpline
210
0.0
220
0.0
230
1.0
 70
    24
 71
     3
 72
     8
 73
     4
 74
     0
 42
0.0000000001
 43
0.0000000001
 40
0.0
 40
0.0
 40
0.0
 40
0.0
 40
1.0
 40
1.0
 40
1.0
 40
1.0
 10
-32.5358
 20
31.0582
 30
0.0
 10
-32.5358
 20
31.0582
 30
0.0
 10
-32.5358
 20
34.9481
 30
0.0
 10
-32.5358
 20
34.9481
 30
0.0
  0
SPLINE
  5
7F
330
1F
100
AcDbEntity
  8
AXIS
 62
   250
100
AcDbSpline
210
0.0
220
0.0
230
1.0
 70
    24
 71
     3
 72
     8
 73
     4
 74
     0
 42
0.0000000001
 43
0.0000000001
 40
0.0
 40
0.0
 40
0.0
 40
0.0
 40
1.0
 40
1.0
 40
1.0
 40
1.0
 10
-17.8588
 20
34.2375
 30
0.0
 10
-17.8588
 20
34.2375
 30
0.0
 10
-36.3822
 20
34.2375
 30
0.0
 10
-36.3822
 20
34.2375
 30
0.0
  0
SPLINE
  5
80
330
1F
100
AcDbEntity
  8
AXIS
 62
   250
100
AcDbSpline
210
0.0
220
0.0
230
1.0
 70
    24
 71
     3
 72
     8
 73
     4
 74
     0
 42
0.0000000001
 43
0.0000000001
 40
0.0
 40
0.0
 40
0.0
 40
0.0
 40
1.0
 40
1.0
 40
1.0
 40
1.0
 10
-34.1344
 20
30.5884
 30
0.0
 10
-34.1344
 20
30.5884
 30
0.0
 10
-42.4014
 20
30.5884
 30
0.0
 10
-42.4014
 20
30.5884
 30
0.0
  0
SPLINE
  5
81
330
1F
100
AcDbEntity
  8
AXIS
 62
   250
100
AcDbSpline
210
0.0
220
0.0
230
1.0
 70
    24
 71
     3
 72
     8
 73
     4
 74
     0
 42
0.0000000001
 43
0.0000000001
 40
0.0
 40
0.0
 40
0.0
 40
0.0
 40
1.0
 40
1.0
 40
1.0
 40
1.0
 10
-27.2942
 20
-33.4399
 30
0.0
 10
-27.2942
 20
-33.4399
 30
0.0
 10
-27.2942
 20
-36.6563
 30
0.0
 10
-27.2942
 20
-36.6563
 30
0.0
  0
SPLINE
  5
82
330
1F
100
AcDbEntity
  8
AXIS
 62
   250
100
AcDbSpline
210
0.0
220
0.0
230
1.0
 70
    24
 71
     3
 72
     8
 73
     4
 74
     0
 42
0.0000000001
 43
0.0000000001
 40
0.0
 40
0.0
 40
0.0
 40
0.0
 40
1.0
 40
1.0
 40
1.0
 40
1.0
 10
38.2259
 20
-9.276
 30
0.0
 10
38.2259
 20
-9.276
 30
0.0
 10
38.2259
 20
-36.7347
 30
0.0
 10
38.2259
 20
-36.7347
 30
0.0
  0
SPLINE
  5
83
330
1F
100
AcDbEntity
  8
AXIS
 62
   250
100
AcDbSpline
210
0.0
220
0.0
230
1.0
 70
    24
 71
     3
 72
     8
 73
     4
 74
     0
 42
0.0000000001
 43
0.0000000001
 40
0.0
 40
0.0
 40
0.0
 40
0.0
 40
1.0
 40
1.0
 40
1.0
 40
1.0
 10
-27.2942
 20
-35.7847
 30
0.0
 10
-27.2942
 20
-35.7847
 30
0.0
 10
37.6451
 20
-35.7847
 30
0.0
 10
37.6451
 20
-35.7847
 30
0.0
  0
SPLINE
  5
84
330
1F
100
AcDbEntity
  8
AXIS
 62
   250
100
AcDbSpline
210
0.0
220
0.0
230
1.0
 70
    11
 71
     3
 72
    20
 73
    16
 74
     0
 42
0.0000000001
 43
0.0000000001
 40
0.0
 40
0.0
 40
0.0
 40
0.0
 40
0.2
 40
0.2
 40
0.2
 40
0.2
 40
0.4
 40
0.4
 40
0.4
 40
0.4
 40
0.6
 40
0.6
 40
0.6
 40
0.6
 40
1.0
 40
1.0
 40
1.0
 40
1.0
 10
43.8223
 20
-10.6033
 30
0.0
 10
43.8223
 20
-10.6033
 30
0.0
 10
44.2457
 20
-13.6033
 30
0.0
 10
44.2457
 20
-13.6033
 30
0.0
 10
44.2457
 20
-13.6033
 30
0.0
 10
44.2457
 20
-13.6033
 30
0.0
 10
44.3397
 20
-13.6033
 30
0.0
 10
44.3397
 20
-13.6033
 30
0.0
 10
44.3397
 20
-13.6033
 30
0.0
 10
44.3397
 20
-13.6033
 30
0.0
 10
44.7913
 20
-10.6033
 30
0.0
 10
44.7913
 20
-10.6033
 30
0.0
 10
44.7913
 20
-10.6033
 30
0.0
 10
44.7913
 20
-10.6033
 30
0.0
 10
43.8223
 20
-10.6033
 30
0.0
 10
43.8223
 20
-10.6033
 30
0.0
  0
SPLINE
  5
85
330
1F
100
AcDbEntity
  8
AXIS
 62
   250
100
AcDbSpline
210
0.0
220
0.0
230
1.0
 70
    11
 71
     3
 72
    20
 73
    16
 74
     0
 42
0.0000000001
 43
0.0000000001
 40
0.0
 40
0.0
 40
0.0
 40
0.0
 40
0.2
 40
0.2
 40
0.2
 40
0.2
 40
0.4
 40
0.4
 40
0.4
 40
0.4
 40
0.6
 40
0.6
 40
0.6
 40
0.6
 40
1.0
 40
1.0
 40
1.0
 40
1.0
 10
44.7749
 20
1.5785
 30
0.0
 10
44.7749
 20
1.5785
 30
0.0
 10
44.3515
 20
4.5786
 30
0.0
 10
44.3515
 20
4.5786
 30
0.0
 10
44.3515
 20
4.5786
 30
0.0
 10
44.3515
 20
4.5786
 30
0.0
 10
44.2575
 20
4.5786
 30
0.0
 10
44.2575
 20
4.5786
 30
0.0
 10
44.2575
 20
4.5786
 30
0.0
 10
44.2575
 20
4.5786
 30
0.0
 10
43.8059
 20
1.5785
 30
0.0
 10
43.8059
 20
1.5785
 30
0.0
 10
43.8059
 20
1.5785
 30
0.0
 10
43.8059
 20
1.5785
 30
0.0
 10
44.7749
 20
1.5785
 30
0.0
 10
44.7749
 20
1.5785
 30
0.0
  0
SPLINE
  5
86
330
1F
100
AcDbEntity
  8
AXIS
 62
   250
100
AcDbSpline
210
0.0
220
0.0
230
1.0
 70
    11
 71
     3
 72
    20
 73
    16
 74
     0
 42
0.0000000001
 43
0.0000000001
 40
0.0
 40
0.0
 40
0.0
 40
0.0
 40
0.2
 40
0.2
 40
0.2
 40
0.2
 40
0.4
 40
0.4
 40
0.4
 40
0.4
 40
0.6
 40
0.6
 40
0.6
 40
0.6
 40
1.0
 40
1.0
 40
1.0
 40
1.0
 10
19.736
 20
2.8804
 30
0.0
 10
19.736
 20
2.8804
 30
0.0
 10
20.1594
 20
-0.1196
 30
0.0
 10
20.1594
 20
-0.1196
 30
0.0
 10
20.1594
 20
-0.1196
 30
0.0
 10
20.1594
 20
-0.1196
 30
0.0
 10
20.2534
 20
-0.1196
 30
0.0
 10
20.2534
 20
-0.1196
 30
0.0
 10
20.2534
 20
-0.1196
 30
0.0
 10
20.2534
 20
-0.1196
 30
0.0
 10
20.7049
 20
2.8804
 30
0.0
 10
20.7049
 20
2.8804
 30
0.0
 10
20.7049
 20
2.8804
 30
0.0
 10
20.7049
 20
2.8804
 30
0.0
 10
19.736
 20
2.8804
 30
0.0
 10
19.736
 20
2.8804
 30
0.0
  0
SPLINE
  5
87
330
1F
100
AcDbEntity
  8
AXIS
 62
   250
100
AcDbSpline
210
0.0
220
0.0
230
1.0
 70
    11
 71
     3
 72
    20
 73
    16
 74
     0
 42
0.0000000001
 43
0.0000000001
 40
0.0
 40
0.0
 40
0.0
 40
0.0
 40
0.2
 40
0.2
 40
0.2
 40
0.2
 40
0.4
 40
0.4
 40
0.4
 40
0.4
 40
0.6
 40
0.6
 40
0.6
 40
0.6
 40
1.0
 40
1.0
 40
1.0
 40
1.0
 10
20.6915
 20
-11.8834
 30
0.0
 10
20.6915
 20
-11.8834
 30
0.0
 10
20.2681
 20
-8.8833
 30
0.0
 10
20.2681
 20
-8.8833
 30
0.0
 10
20.2681
 20
-8.8833
 30
0.0
 10
20.2681
 20
-8.8833
 30
0.0
 10
20.1741
 20
-8.8833
 30
0.0
 10
20.1741
 20
-8.8833
 30
0.0
 10
20.1741
 20
-8.8833
 30
0.0
 10
20.1741
 20
-8.8833
 30
0.0
 10
19.7225
 20
-11.8834
 30
0.0
 10
19.7225
 20
-11.8834
 30
0.0
 10
19.7225
 20
-11.8834
 30
0.0
 10
19.7225
 20
-11.8834
 30
0.0
 10
20.6915
 20
-11.8834
 30
0.0
 10
20.6915
 20
-11.8834
 30
0.0
  0
SPLINE
  5
88
330
1F
100
AcDbEntity
  8
AXIS
 62
   250
100
AcDbSpline
210
0.0
220
0.0
230
1.0
 70
    11
 71
     3
 72
    20
 73
    16
 74
     0
 42
0.0000000001
 43
0.0000000001
 40
0.0
 40
0.0
 40
0.0
 40
0.0
 40
0.2
 40
0.2
 40
0.2
 40
0.2
 40
0.4
 40
0.4
 40
0.4
 40
0.4
 40
0.6
 40
0.6
 40
0.6
 40
0.6
 40
1.0
 40
1.0
 40
1.0
 40
1.0
 10
-24.1916
 20
-35.3138
 30
0.0
 10
-24.1916
 20
-35.3138
 30
0.0
 10
-27.1917
 20
-35.7372
 30
0.0
 10
-27.1917
 20
-35.7372
 30
0.0
 10
-27.1917
 20
-35.7372
 30
0.0
 10
-27.1917
 20
-35.7372
 30
0.0
 10
-27.1917
 20
-35.8312
 30
0.0
 10
-27.1917
 20
-35.8312
 30
0.0
 10
-27.1917
 20
-35.8312
 30
0.0
 10
-27.1917
 20
-35.8312
 30
0.0
 10
-24.1916
 20
-36.2828
 30
0.0
 10
-24.1916
 20
-36.2828
 30
0.0
 10
-24.1916
 20
-36.2828
 30
0.0
 10
-24.1916
 20
-36.2828
 30
0.0
 10
-24.1916
 20
-35.3138
 30
0.0
 10
-24.1916
 20
-35.3138
 30
0.0
  0
SPLINE
  5
89
330
1F
100
AcDbEntity
  8
AXIS
 62
   250
100
AcDbSpline
210
0.0
220
0.0
230
1.0
 70
    11
 71
     3
 72
    20
 73
    16
 74
     0
 42
0.0000000001
 43
0.0000000001
 40
0.0
 40
0.0
 40
0.0
 40
0.0
 40
0.2
 40
0.2
 40
0.2
 40
0.2
 40
0.4
 40
0.4
 40
0.4
 40
0.4
 40
0.6
 40
0.6
 40
0.6
 40
0.6
 40
1.0
 40
1.0
 40
1.0
 40
1.0
 10
35.0955
 20
-36.2789
 30
0.0
 10
35.0955
 20
-36.2789
 30
0.0
 10
38.0955
 20
-35.8555
 30
0.0
 10
38.0955
 20
-35.8555
 30
0.0
 10
38.0955
 20
-35.8555
 30
0.0
 10
38.0955
 20
-35.8555
 30
0.0
 10
38.0955
 20
-35.7614
 30
0.0
 10
38.0955
 20
-35.7614
 30
0.0
 10
38.0955
 20
-35.7614
 30
0.0
 10
38.0955
 20
-35.7614
 30
0.0
 10
35.0955
 20
-35.3099
 30
0.0
 10
35.0955
 20
-35.3099
 30
0.0
 10
35.0955
 20
-35.3099
 30
0.0
 10
35.0955
 20
-35.3099
 30
0.0
 10
35.0955
 20
-36.2789
 30
0.0
 10
35.0955
 20
-36.2789
 30
0.0
  0
SPLINE
  5
8A
330
1F
100
AcDbEntity
  8
AXIS
 62
   250
100
AcDbSpline
210
0.0
220
0.0
230
1.0
 70
    11
 71
     3
 72
    20
 73
    16
 74
     0
 42
0.0000000001
 43
0.0000000001
 40
0.0
 40
0.0
 40
0.0
 40
0.0
 40
0.2
 40
0.2
 40
0.2
 40
0.2
 40
0.4
 40
0.4
 40
0.4
 40
0.4
 40
0.6
 40
0.6
 40
0.6
 40
0.6
 40
1.0
 40
1.0
 40
1.0
 40
1.0
 10
-37.9577
 20
-25.0149
 30
0.0
 10
-37.9577
 20
-25.0149
 30
0.0
 10
-37.5343
 20
-28.0148
 30
0.0
 10
-37.5343
 20
-28.0148
 30
0.0
 10
-37.5343
 20
-28.0148
 30
0.0
 10
-37.5343
 20
-28.0148
 30
0.0
 10
-37.4403
 20
-28.0148
 30
0.0
 10
-37.4403
 20
-28.0148
 30
0.0
 10
-37.4403
 20
-28.0148
 30
0.0
 10
-37.4403
 20
-28.0148
 30
0.0
 10
-36.9887
 20
-25.0149
 30
0.0
 10
-36.9887
 20
-25.0149
 30
0.0
 10
-36.9887
 20
-25.0149
 30
0.0
 10
-36.9887
 20
-25.0149
 30
0.0
 10
-37.9577
 20
-25.0149
 30
0.0
 10
-37.9577
 20
-25.0149
 30
0.0
  0
SPLINE
  5
8B
330
1F
100
AcDbEntity
  8
AXIS
 62
   250
100
AcDbSpline
210
0.0
220
0.0
230
1.0
 70
    11
 71
     3
 72
    20
 73
    16
 74
     0
 42
0.0000000001
 43
0.0000000001
 40
0.0
 40
0.0
 40
0.0
 40
0.0
 40
0.2
 40
0.2
 40
0.2
 40
0.2
 40
0.4
 40
0.4
 40
0.4
 40
0.4
 40
0.6
 40
0.6
 40
0.6
 40
0.6
 40
1.0
 40
1.0
 40
1.0
 40
1.0
 10
-42.5467
 20
-1.387
 30
0.0
 10
-42.5467
 20
-1.387
 30
0.0
 10
-42.1233
 20
-4.387
 30
0.0
 10
-42.1233
 20
-4.387
 30
0.0
 10
-42.1233
 20
-4.387
 30
0.0
 10
-42.1233
 20
-4.387
 30
0.0
 10
-42.0293
 20
-4.387
 30
0.0
 10
-42.0293
 20
-4.387
 30
0.0
 10
-42.0293
 20
-4.387
 30
0.0
 10
-42.0293
 20
-4.387
 30
0.0
 10
-41.5777
 20
-1.387
 30
0.0
 10
-41.5777
 20
-1.387
 30
0.0
 10
-41.5777
 20
-1.387
 30
0.0
 10
-41.5777
 20
-1.387
 30
0.0
 10
-42.5467
 20
-1.387
 30
0.0
 10
-42.5467
 20
-1.387
 30
0.0
  0
SPLINE
  5
8C
330
1F
100
AcDbEntity
  8
AXIS
 62
   250
100
AcDbSpline
210
0.0
220
0.0
230
1.0
 70
    11
 71
     3
 72
    20
 73
    16
 74
     0
 42
0.0000000001
 43
0.0000000001
 40
0.0
 40
0.0
 40
0.0
 40
0.0
 40
0.2
 40
0.2
 40
0.2
 40
0.2
 40
0.4
 40
0.4
 40
0.4
 40
0.4
 40
0.6
 40
0.6
 40
0.6
 40
0.6
 40
1.0
 40
1.0
 40
1.0
 40
1.0
 10
-37.0367
 20
3.3578
 30
0.0
 10
-37.0367
 20
3.3578
 30
0.0
 10
-37.46
 20
6.3578
 30
0.0
 10
-37.46
 20
6.3578
 30
0.0
 10
-37.46
 20
6.3578
 30
0.0
 10
-37.46
 20
6.3578
 30
0.0
 10
-37.5541
 20
6.3578
 30
0.0
 10
-37.5541
 20
6.3578
 30
0.0
 10
-37.5541
 20
6.3578
 30
0.0
 10
-37.5541
 20
6.3578
 30
0.0
 10
-38.0056
 20
3.3578
 30
0.0
 10
-38.0056
 20
3.3578
 30
0.0
 10
-38.0056
 20
3.3578
 30
0.0
 10
-38.0056
 20
3.3578
 30
0.0
 10
-37.0367
 20
3.3578
 30
0.0
 10
-37.0367
 20
3.3578
 30
0.0
  0
SPLINE
  5
8D
330
1F
100
AcDbEntity
  8
AXIS
 62
   250
100
AcDbSpline
210
0.0
220
0.0
230
1.0
 70
    11
 71
     3
 72
    20
 73
    16
 74
     0
 42
0.0000000001
 43
0.0000000001
 40
0.0
 40
0.0
 40
0.0
 40
0.0
 40
0.2
 40
0.2
 40
0.2
 40
0.2
 40
0.4
 40
0.4
 40
0.4
 40
0.4
 40
0.6
 40
0.6
 40
0.6
 40
0.6
 40
1.0
 40
1.0
 40
1.0
 40
1.0
 10
-41.5773
 20
27.4923
 30
0.0
 10
-41.5773
 20
27.4923
 30
0.0
 10
-42.0007
 20
30.4923
 30
0.0
 10
-42.0007
 20
30.4923
 30
0.0
 10
-42.0007
 20
30.4923
 30
0.0
 10
-42.0007
 20
30.4923
 30
0.0
 10
-42.0948
 20
30.4923
 30
0.0
 10
-42.0948
 20
30.4923
 30
0.0
 10
-42.0948
 20
30.4923
 30
0.0
 10
-42.0948
 20
30.4923
 30
0.0
 10
-42.5463
 20
27.4923
 30
0.0
 10
-42.5463
 20
27.4923
 30
0.0
 10
-42.5463
 20
27.4923
 30
0.0
 10
-42.5463
 20
27.4923
 30
0.0
 10
-41.5773
 20
27.4923
 30
0.0
 10
-41.5773
 20
27.4923
 30
0.0
  0
SPLINE
  5
8E
330
1F
100
AcDbEntity
  8
AXIS
 62
   250
100
AcDbSpline
210
0.0
220
0.0
230
1.0
 70
    11
 71
     3
 72
    20
 73
    16
 74
     0
 42
0.0000000001
 43
0.0000000001
 40
0.0
 40
0.0
 40
0.0
 40
0.0
 40
0.2
 40
0.2
 40
0.2
 40
0.2
 40
0.4
 40
0.4
 40
0.4
 40
0.4
 40
0.6
 40
0.6
 40
0.6
 40
0.6
 40
1.0
 40
1.0
 40
1.0
 40
1.0
 10
-17.5618
 20
-32.4302
 30
0.0
 10
-17.5618
 20
-32.4302
 30
0.0
 10
-20.5617
 20
-32.8536
 30
0.0
 10
-20.5617
 20
-32.8536
 30
0.0
 10
-20.5617
 20
-32.8536
 30
0.0
 10
-20.5617
 20
-32.8536
 30
0.0
 10
-20.5617
 20
-32.9476
 30
0.0
 10
-20.5617
 20
-32.9476
 30
0.0
 10
-20.5617
 20
-32.9476
 30
0.0
 10
-20.5617
 20
-32.9476
 30
0.0
 10
-17.5618
 20
-33.3991
 30
0.0
 10
-17.5618
 20
-33.3991
 30
0.0
 10
-17.5618
 20
-33.3991
 30
0.0
 10
-17.5618
 20
-33.3991
 30
0.0
 10
-17.5618
 20
-32.4302
 30
0.0
 10
-17.5618
 20
-32.4302
 30
0.0
  0
SPLINE
  5
8F
330
1F
100
AcDbEntity
  8
AXIS
 62
   250
100
AcDbSpline
210
0.0
220
0.0
230
1.0
 70
    11
 71
     3
 72
    20
 73
    16
 74
     0
 42
0.0000000001
 43
0.0000000001
 40
0.0
 40
0.0
 40
0.0
 40
0.0
 40
0.2
 40
0.2
 40
0.2
 40
0.2
 40
0.4
 40
0.4
 40
0.4
 40
0.4
 40
0.6
 40
0.6
 40
0.6
 40
0.6
 40
1.0
 40
1.0
 40
1.0
 40
1.0
 10
-36.8479
 20
-33.3704
 30
0.0
 10
-36.8479
 20
-33.3704
 30
0.0
 10
-33.8479
 20
-32.947
 30
0.0
 10
-33.8479
 20
-32.947
 30
0.0
 10
-33.8479
 20
-32.947
 30
0.0
 10
-33.8479
 20
-32.947
 30
0.0
 10
-33.8479
 20
-32.853
 30
0.0
 10
-33.8479
 20
-32.853
 30
0.0
 10
-33.8479
 20
-32.853
 30
0.0
 10
-33.8479
 20
-32.853
 30
0.0
 10
-36.8479
 20
-32.4014
 30
0.0
 10
-36.8479
 20
-32.4014
 30
0.0
 10
-36.8479
 20
-32.4014
 30
0.0
 10
-36.8479
 20
-32.4014
 30
0.0
 10
-36.8479
 20
-33.3704
 30
0.0
 10
-36.8479
 20
-33.3704
 30
0.0
  0
SPLINE
  5
90
330
1F
100
AcDbEntity
  8
AXIS
 62
   250
100
AcDbSpline
210
0.0
220
0.0
230
1.0
 70
    11
 71
     3
 72
    20
 73
    16
 74
     0
 42
0.0000000001
 43
0.0000000001
 40
0.0
 40
0.0
 40
0.0
 40
0.0
 40
0.2
 40
0.2
 40
0.2
 40
0.2
 40
0.4
 40
0.4
 40
0.4
 40
0.4
 40
0.6
 40
0.6
 40
0.6
 40
0.6
 40
1.0
 40
1.0
 40
1.0
 40
1.0
 10
-18.9718
 20
34.7273
 30
0.0
 10
-18.9718
 20
34.7273
 30
0.0
 10
-21.9718
 20
34.3039
 30
0.0
 10
-21.9718
 20
34.3039
 30
0.0
 10
-21.9718
 20
34.3039
 30
0.0
 10
-21.9718
 20
34.3039
 30
0.0
 10
-21.9718
 20
34.2099
 30
0.0
 10
-21.9718
 20
34.2099
 30
0.0
 10
-21.9718
 20
34.2099
 30
0.0
 10
-21.9718
 20
34.2099
 30
0.0
 10
-18.9718
 20
33.7584
 30
0.0
 10
-18.9718
 20
33.7584
 30
0.0
 10
-18.9718
 20
33.7584
 30
0.0
 10
-18.9718
 20
33.7584
 30
0.0
 10
-18.9718
 20
34.7273
 30
0.0
 10
-18.9718
 20
34.7273
 30
0.0
  0
SPLINE
  5
91
330
1F
100
AcDbEntity
  8
AXIS
 62
   250
100
AcDbSpline
210
0.0
220
0.0
230
1.0
 70
    11
 71
     3
 72
    20
 73
    16
 74
     0
 42
0.0000000001
 43
0.0000000001
 40
0.0
 40
0.0
 40
0.0
 40
0.0
 40
0.2
 40
0.2
 40
0.2
 40
0.2
 40
0.4
 40
0.4
 40
0.4
 40
0.4
 40
0.6
 40
0.6
 40
0.6
 40
0.6
 40
1.0
 40
1.0
 40
1.0
 40
1.0
 10
-35.5938
 20
33.7854
 30
0.0
 10
-35.5938
 20
33.7854
 30
0.0
 10
-32.5939
 20
34.2088
 30
0.0
 10
-32.5939
 20
34.2088
 30
0.0
 10
-32.5939
 20
34.2088
 30
0.0
 10
-32.5939
 20
34.2088
 30
0.0
 10
-32.5939
 20
34.3028
 30
0.0
 10
-32.5939
 20
34.3028
 30
0.0
 10
-32.5939
 20
34.3028
 30
0.0
 10
-32.5939
 20
34.3028
 30
0.0
 10
-35.5938
 20
34.7544
 30
0.0
 10
-35.5938
 20
34.7544
 30
0.0
 10
-35.5938
 20
34.7544
 30
0.0
 10
-35.5938
 20
34.7544
 30
0.0
 10
-35.5938
 20
33.7854
 30
0.0
 10
-35.5938
 20
33.7854
 30
0.0
  0
SPLINE
  5
92
330
1F
100
AcDbEntity
  8
AXIS
 62
   250
100
AcDbSpline
210
0.0
220
0.0
230
1.0
 70
    11
 71
     3
 72
    12
 73
     8
 74
     0
 42
0.0000000001
 43
0.0000000001
 40
0.0
 40
0.0
 40
0.0
 40
0.0
 40
0.3333333333333333
 40
0.3333333333333333
 40
0.3333333333333333
 40
0.3333333333333333
 40
1.0
 40
1.0
 40
1.0
 40
1.0
 10
30.5253
 20
-13.7103
 30
0.0
 10
30.2358
 20
-13.7103
 30
0.0
 10
30.0011
 20
-13.4756
 30
0.0
 10
30.0011
 20
-13.186
 30
0.0
 10
30.0011
 20
-13.186
 30
0.0
 10
30.0011
 20
-13.186
 30
0.0
 10
30.5253
 20
-13.7103
 30
0.0
 10
30.5253
 20
-13.7103
 30
0.0
  0
SPLINE
  5
93
330
1F
100
AcDbEntity
  8
AXIS
 62
   250
100
AcDbSpline
210
0.0
220
0.0
230
1.0
 70
    11
 71
     3
 72
    12
 73
     8
 74
     0
 42
0.0000000001
 43
0.0000000001
 40
0.0
 40
0.0
 40
0.0
 40
0.0
 40
0.3333333333333333
 40
0.3333333333333333
 40
0.3333333333333333
 40
0.3333333333333333
 40
1.0
 40
1.0
 40
1.0
 40
1.0
 10
30.0011
 20
4.1113
 30
0.0
 10
30.0011
 20
4.4008
 30
0.0
 10
30.2358
 20
4.6354
 30
0.0
 10
30.5253
 20
4.6354
 30
0.0
 10
30.5253
 20
4.6354
 30
0.0
 10
30.5253
 20
4.6354
 30
0.0
 10
30.0011
 20
4.1113
 30
0.0
 10
30.0011
 20
4.1113
 30
0.0
  0
SPLINE
  5
94
330
1F
100
AcDbEntity
  8
AXIS
 62
   250
100
AcDbSpline
210
0.0
220
0.0
230
1.0
 70
    11
 71
     3
 72
    36
 73
    32
 74
     0
 42
0.0000000001
 43
0.0000000001
 40
0.0
 40
0.0
 40
0.0
 40
0.0
 40
0.1111111111111111
 40
0.1111111111111111
 40
0.1111111111111111
 40
0.1111111111111111
 40
0.2222222222222222
 40
0.2222222222222222
 40
0.2222222222222222
 40
0.2222222222222222
 40
0.3333333333333333
 40
0.3333333333333333
 40
0.3333333333333333
 40
0.3333333333333333
 40
0.4444444444444444
 40
0.4444444444444444
 40
0.4444444444444444
 40
0.4444444444444444
 40
0.5555555555555556
 40
0.5555555555555556
 40
0.5555555555555556
 40
0.5555555555555556
 40
0.6666666666666666
 40
0.6666666666666666
 40
0.6666666666666666
 40
0.6666666666666666
 40
0.7777777777777778
 40
0.7777777777777778
 40
0.7777777777777778
 40
0.7777777777777778
 40
1.0
 40
1.0
 40
1.0
 40
1.0
 10
33.1459
 20
-13.7103
 30
0.0
 10
33.1459
 20
-13.7103
 30
0.0
 10
33.1459
 20
4.6354
 30
0.0
 10
33.1459
 20
4.6354
 30
0.0
 10
33.1459
 20
4.6354
 30
0.0
 10
33.1459
 20
4.6354
 30
0.0
 10
30.5253
 20
4.6354
 30
0.0
 10
30.5253
 20
4.6354
 30
0.0
 10
30.5253
 20
4.6354
 30
0.0
 10
30.5253
 20
4.6354
 30
0.0
 10
33.1459
 20
4.6354
 30
0.0
 10
33.1459
 20
4.6354
 30
0.0
 10
33.1459
 20
4.6354
 30
0.0
 10
33.1459
 20
4.6354
 30
0.0
 10
33.1459
 20
-13.7103
 30
0.0
 10
33.1459
 20
-13.7103
 30
0.0
 10
33.1459
 20
-13.7103
 30
0.0
 10
33.1459
 20
-13.7103
 30
0.0
 10
30.6253
 20
-13.7103
 30
0.0
 10
30.6253
 20
-13.7103
 30
0.0
 10
30.6253
 20
-13.7103
 30
0.0
 10
30.6253
 20
-13.7103
 30
0.0
 10
30.5253
 20
-13.7103
 30
0.0
 10
30.5253
 20
-13.7103
 30
0.0
 10
30.5253
 20
-13.7103
 30
0.0
 10
30.5253
 20
-13.7103
 30
0.0
 10
30.6253
 20
-13.7103
 30
0.0
 10
30.6253
 20
-13.7103
 30
0.0
 10
30.6253
 20
-13.7103
 30
0.0
 10
30.6253
 20
-13.7103
 30
0.0
 10
33.1459
 20
-13.7103
 30
0.0
 10
33.1459
 20
-13.7103
 30
0.0
  0
SPLINE
  5
95
330
1F
100
AcDbEntity
  8
AXIS
 62
   250
100
AcDbSpline
210
0.0
220
0.0
230
1.0
 70
    27
 71
     3
 72
    12
 73
     8
 74
     0
 42
0.0000000001
 43
0.0000000001
 40
0.0
 40
0.0
 40
0.0
 40
0.0
 40
0.3333333333333333
 40
0.3333333333333333
 40
0.3333333333333333
 40
0.3333333333333333
 40
1.0
 40
1.0
 40
1.0
 40
1.0
 10
30.0011
 20
-13.186
 30
0.0
 10
30.0011
 20
-13.186
 30
0.0
 10
30.0011
 20
4.1113
 30
0.0
 10
30.0011
 20
4.1113
 30
0.0
 10
30.0011
 20
4.1113
 30
0.0
 10
30.0011
 20
4.1113
 30
0.0
 10
30.0011
 20
-13.186
 30
0.0
 10
30.0011
 20
-13.186
 30
0.0
  0
SPLINE
  5
96
330
1F
100
AcDbEntity
  8
AXIS
 62
   250
100
AcDbSpline
210
0.0
220
0.0
230
1.0
 70
     8
 71
     3
 72
     8
 73
     4
 74
     0
 42
0.0000000001
 43
0.0000000001
 40
0.0
 40
0.0
 40
0.0
 40
0.0
 40
1.0
 40
1.0
 40
1.0
 40
1.0
 10
30.5253
 20
-13.7103
 30
0.0
 10
30.2358
 20
-13.7103
 30
0.0
 10
30.0011
 20
-13.4756
 30
0.0
 10
30.0011
 20
-13.186
 30
0.0
  0
SPLINE
  5
97
330
1F
100
AcDbEntity
  8
AXIS
 62
   250
100
AcDbSpline
210
0.0
220
0.0
230
1.0
 70
     8
 71
     3
 72
     8
 73
     4
 74
     0
 42
0.0000000001
 43
0.0000000001
 40
0.0
 40
0.0
 40
0.0
 40
0.0
 40
1.0
 40
1.0
 40
1.0
 40
1.0
 10
30.0011
 20
4.1113
 30
0.0
 10
30.0011
 20
4.4008
 30
0.0
 10
30.2358
 20
4.6354
 30
0.0
 10
30.5253
 20
4.6354
 30
0.0
  0
SPLINE
  5
98
330
1F
100
AcDbEntity
  8
AXIS
 62
   250
100
AcDbSpline
210
0.0
220
0.0
230
1.0
 70
    11
 71
     3
 72
    36
 73
    32
 74
     0
 42
0.0000000001
 43
0.0000000001
 40
0.0
 40
0.0
 40
0.0
 40
0.0
 40
0.1111111111111111
 40
0.1111111111111111
 40
0.1111111111111111
 40
0.1111111111111111
 40
0.2222222222222222
 40
0.2222222222222222
 40
0.2222222222222222
 40
0.2222222222222222
 40
0.3333333333333333
 40
0.3333333333333333
 40
0.3333333333333333
 40
0.3333333333333333
 40
0.4444444444444444
 40
0.4444444444444444
 40
0.4444444444444444
 40
0.4444444444444444
 40
0.5555555555555556
 40
0.5555555555555556
 40
0.5555555555555556
 40
0.5555555555555556
 40
0.6666666666666666
 40
0.6666666666666666
 40
0.6666666666666666
 40
0.6666666666666666
 40
0.7777777777777778
 40
0.7777777777777778
 40
0.7777777777777778
 40
0.7777777777777778
 40
1.0
 40
1.0
 40
1.0
 40
1.0
 10
33.1459
 20
-13.7103
 30
0.0
 10
33.1459
 20
-13.7103
 30
0.0
 10
33.1459
 20
4.6354
 30
0.0
 10
33.1459
 20
4.6354
 30
0.0
 10
33.1459
 20
4.6354
 30
0.0
 10
33.1459
 20
4.6354
 30
0.0
 10
30.5253
 20
4.6354
 30
0.0
 10
30.5253
 20
4.6354
 30
0.0
 10
30.5253
 20
4.6354
 30
0.0
 10
30.5253
 20
4.6354
 30
0.0
 10
33.1459
 20
4.6354
 30
0.0
 10
33.1459
 20
4.6354
 30
0.0
 10
33.1459
 20
4.6354
 30
0.0
 10
33.1459
 20
4.6354
 30
0.0
 10
33.1459
 20
-13.7103
 30
0.0
 10
33.1459
 20
-13.7103
 30
0.0
 10
33.1459
 20
-13.7103
 30
0.0
 10
33.1459
 20
-13.7103
 30
0.0
 10
30.6253
 20
-13.7103
 30
0.0
 10
30.6253
 20
-13.7103
 30
0.0
 10
30.6253
 20
-13.7103
 30
0.0
 10
30.6253
 20
-13.7103
 30
0.0
 10
30.5253
 20
-13.7103
 30
0.0
 10
30.5253
 20
-13.7103
 30
0.0
 10
30.5253
 20
-13.7103
 30
0.0
 10
30.5253
 20
-13.7103
 30
0.0
 10
30.6253
 20
-13.7103
 30
0.0
 10
30.6253
 20
-13.7103
 30
0.0
 10
30.6253
 20
-13.7103
 30
0.0
 10
30.6253
 20
-13.7103
 30
0.0
 10
33.1459
 20
-13.7103
 30
0.0
 10
33.1459
 20
-13.7103
 30
0.0
  0
SPLINE
  5
99
330
1F
100
AcDbEntity
  8
AXIS
 62
   250
100
AcDbSpline
210
0.0
220
0.0
230
1.0
 70
    27
 71
     3
 72
    12
 73
     8
 74
     0
 42
0.0000000001
 43
0.0000000001
 40
0.0
 40
0.0
 40
0.0
 40
0.0
 40
0.3333333333333333
 40
0.3333333333333333
 40
0.3333333333333333
 40
0.3333333333333333
 40
1.0
 40
1.0
 40
1.0
 40
1.0
 10
30.0011
 20
-13.186
 30
0.0
 10
30.0011
 20
-13.186
 30
0.0
 10
30.0011
 20
4.1113
 30
0.0
 10
30.0011
 20
4.1113
 30
0.0
 10
30.0011
 20
4.1113
 30
0.0
 10
30.0011
 20
4.1113
 30
0.0
 10
30.0011
 20
-13.186
 30
0.0
 10
30.0011
 20
-13.186
 30
0.0
  0
SPLINE
  5
9A
330
1F
100
AcDbEntity
  8
AXIS
 62
   250
100
AcDbSpline
210
0.0
220
0.0
230
1.0
 70
    27
 71
     3
 72
    12
 73
     8
 74
     0
 42
0.0000000001
 43
0.0000000001
 40
0.0
 40
0.0
 40
0.0
 40
0.0
 40
0.3333333333333333
 40
0.3333333333333333
 40
0.3333333333333333
 40
0.3333333333333333
 40
1.0
 40
1.0
 40
1.0
 40
1.0
 10
-12.6582
 20
-0.3441
 30
0.0
 10
-12.6582
 20
-0.3441
 30
0.0
 10
29.9141
 20
-0.3441
 30
0.0
 10
29.9141
 20
-0.3441
 30
0.0
 10
29.9141
 20
-0.3441
 30
0.0
 10
29.9141
 20
-0.3441
 30
0.0
 10
-12.6582
 20
-0.3441
 30
0.0
 10
-12.6582
 20
-0.3441
 30
0.0
  0
SPLINE
  5
9B
330
1F
100
AcDbEntity
  8
AXIS
 62
   250
100
AcDbSpline
210
0.0
220
0.0
230
1.0
 70
    27
 71
     3
 72
    12
 73
     8
 74
     0
 42
0.0000000001
 43
0.0000000001
 40
0.0
 40
0.0
 40
0.0
 40
0.0
 40
0.3333333333333333
 40
0.3333333333333333
 40
0.3333333333333333
 40
0.3333333333333333
 40
1.0
 40
1.0
 40
1.0
 40
1.0
 10
-12.7494
 20
-8.7304
 30
0.0
 10
-12.7494
 20
-8.7304
 30
0.0
 10
29.9141
 20
-8.7304
 30
0.0
 10
29.9141
 20
-8.7304
 30
0.0
 10
29.9141
 20
-8.7304
 30
0.0
 10
29.9141
 20
-8.7304
 30
0.0
 10
-12.7494
 20
-8.7304
 30
0.0
 10
-12.7494
 20
-8.7304
 30
0.0
  0
SPLINE
  5
9C
330
1F
100
AcDbEntity
  8
AXIS
 62
   250
100
AcDbSpline
210
0.0
220
0.0
230
1.0
 70
    11
 71
     3
 72
    92
 73
    88
 74
     0
 42
0.0000000001
 43
0.0000000001
 40
0.0
 40
0.0
 40
0.0
 40
0.0
 40
0.0434782608695652
 40
0.0434782608695652
 40
0.0434782608695652
 40
0.0434782608695652
 40
0.0869565217391304
 40
0.0869565217391304
 40
0.0869565217391304
 40
0.0869565217391304
 40
0.1304347826086956
 40
0.1304347826086956
 40
0.1304347826086956
 40
0.1304347826086956
 40
0.1739130434782609
 40
0.1739130434782609
 40
0.1739130434782609
 40
0.1739130434782609
 40
0.2173913043478261
 40
0.2173913043478261
 40
0.2173913043478261
 40
0.2173913043478261
 40
0.2608695652173913
 40
0.2608695652173913
 40
0.2608695652173913
 40
0.2608695652173913
 40
0.3043478260869565
 40
0.3043478260869565
 40
0.3043478260869565
 40
0.3043478260869565
 40
0.3478260869565217
 40
0.3478260869565217
 40
0.3478260869565217
 40
0.3478260869565217
 40
0.391304347826087
 40
0.391304347826087
 40
0.391304347826087
 40
0.391304347826087
 40
0.4347826086956522
 40
0.4347826086956522
 40
0.4347826086956522
 40
0.4347826086956522
 40
0.4782608695652174
 40
0.4782608695652174
 40
0.4782608695652174
 40
0.4782608695652174
 40
0.5217391304347826
 40
0.5217391304347826
 40
0.5217391304347826
 40
0.5217391304347826
 40
0.5652173913043478
 40
0.5652173913043478
 40
0.5652173913043478
 40
0.5652173913043478
 40
0.6086956521739131
 40
0.6086956521739131
 40
0.6086956521739131
 40
0.6086956521739131
 40
0.6521739130434783
 40
0.6521739130434783
 40
0.6521739130434783
 40
0.6521739130434783
 40
0.6956521739130435
 40
0.6956521739130435
 40
0.6956521739130435
 40
0.6956521739130435
 40
0.7391304347826086
 40
0.7391304347826086
 40
0.7391304347826086
 40
0.7391304347826086
 40
0.782608695652174
 40
0.782608695652174
 40
0.782608695652174
 40
0.782608695652174
 40
0.8260869565217391
 40
0.8260869565217391
 40
0.8260869565217391
 40
0.8260869565217391
 40
0.8695652173913043
 40
0.8695652173913043
 40
0.8695652173913043
 40
0.8695652173913043
 40
0.9130434782608695
 40
0.9130434782608695
 40
0.9130434782608695
 40
0.9130434782608695
 40
1.0
 40
1.0
 40
1.0
 40
1.0
 10
-15.3009
 20
1.1353
 30
0.0
 10
-15.3009
 20
1.1353
 30
0.0
 10
-15.1798
 20
1.1353
 30
0.0
 10
-15.1798
 20
1.1353
 30
0.0
 10
-15.1798
 20
1.1353
 30
0.0
 10
-15.1798
 20
1.1353
 30
0.0
 10
-15.1798
 20
-10.2946
 30
0.0
 10
-15.1798
 20
-10.2946
 30
0.0
 10
-15.1798
 20
-10.2946
 30
0.0
 10
-15.1798
 20
-10.2946
 30
0.0
 10
-15.3511
 20
-10.2946
 30
0.0
 10
-15.3511
 20
-10.2946
 30
0.0
 10
-15.3511
 20
-10.2946
 30
0.0
 10
-15.3511
 20
-10.2946
 30
0.0
 10
-15.1798
 20
-10.2946
 30
0.0
 10
-15.1798
 20
-10.2946
 30
0.0
 10
-15.1798
 20
-10.2946
 30
0.0
 10
-15.1798
 20
-10.2946
 30
0.0
 10
-15.1798
 20
1.1353
 30
0.0
 10
-15.1798
 20
1.1353
 30
0.0
 10
-15.1798
 20
1.1353
 30
0.0
 10
-15.1798
 20
1.1353
 30
0.0
 10
-12.7556
 20
1.1353
 30
0.0
 10
-12.7556
 20
1.1353
 30
0.0
 10
-12.7556
 20
1.1353
 30
0.0
 10
-12.7556
 20
1.1353
 30
0.0
 10
-12.7556
 20
1.1649
 30
0.0
 10
-12.7556
 20
1.1649
 30
0.0
 10
-12.7556
 20
1.1649
 30
0.0
 10
-12.7556
 20
1.1649
 30
0.0
 10
-12.7556
 20
1.1353
 30
0.0
 10
-12.7556
 20
1.1353
 30
0.0
 10
-12.7556
 20
1.1353
 30
0.0
 10
-12.7556
 20
1.1353
 30
0.0
 10
-12.7152
 20
1.1353
 30
0.0
 10
-12.7152
 20
1.1353
 30
0.0
 10
-12.7152
 20
1.1353
 30
0.0
 10
-12.7152
 20
1.1353
 30
0.0
 10
-12.7556
 20
1.1353
 30
0.0
 10
-12.7556
 20
1.1353
 30
0.0
 10
-12.7556
 20
1.1353
 30
0.0
 10
-12.7556
 20
1.1353
 30
0.0
 10
-12.7556
 20
-10.2946
 30
0.0
 10
-12.7556
 20
-10.2946
 30
0.0
 10
-12.7556
 20
-10.2946
 30
0.0
 10
-12.7556
 20
-10.2946
 30
0.0
 10
-12.7492
 20
-10.2946
 30
0.0
 10
-12.7492
 20
-10.2946
 30
0.0
 10
-12.7492
 20
-10.2946
 30
0.0
 10
-12.7492
 20
-10.2946
 30
0.0
 10
-12.7556
 20
-10.2946
 30
0.0
 10
-12.7556
 20
-10.2946
 30
0.0
 10
-12.7556
 20
-10.2946
 30
0.0
 10
-12.7556
 20
-10.2946
 30
0.0
 10
-12.7556
 20
-10.3897
 30
0.0
 10
-12.7556
 20
-10.3897
 30
0.0
 10
-12.7556
 20
-10.3897
 30
0.0
 10
-12.7556
 20
-10.3897
 30
0.0
 10
-12.7556
 20
-10.2946
 30
0.0
 10
-12.7556
 20
-10.2946
 30
0.0
 10
-12.7556
 20
-10.2946
 30
0.0
 10
-12.7556
 20
-10.2946
 30
0.0
 10
-15.1798
 20
-10.2946
 30
0.0
 10
-15.1798
 20
-10.2946
 30
0.0
 10
-15.1798
 20
-10.2946
 30
0.0
 10
-15.1798
 20
-10.2946
 30
0.0
 10
-15.1798
 20
-10.2948
 30
0.0
 10
-15.1798
 20
-10.2948
 30
0.0
 10
-15.1798
 20
-10.2948
 30
0.0
 10
-15.1798
 20
-10.2948
 30
0.0
 10
-15.1798
 20
-10.2946
 30
0.0
 10
-15.1798
 20
-10.2946
 30
0.0
 10
-15.1798
 20
-10.2946
 30
0.0
 10
-15.1798
 20
-10.2946
 30
0.0
 10
-12.7556
 20
-10.2946
 30
0.0
 10
-12.7556
 20
-10.2946
 30
0.0
 10
-12.7556
 20
-10.2946
 30
0.0
 10
-12.7556
 20
-10.2946
 30
0.0
 10
-12.7556
 20
1.1353
 30
0.0
 10
-12.7556
 20
1.1353
 30
0.0
 10
-12.7556
 20
1.1353
 30
0.0
 10
-12.7556
 20
1.1353
 30
0.0
 10
-15.1798
 20
1.1353
 30
0.0
 10
-15.1798
 20
1.1353
 30
0.0
 10
-15.1798
 20
1.1353
 30
0.0
 10
-15.1798
 20
1.1353
 30
0.0
 10
-15.3009
 20
1.1353
 30
0.0
 10
-15.3009
 20
1.1353
 30
0.0
  0
SPLINE
  5
9D
330
1F
100
AcDbEntity
  8
AXIS
 62
   250
100
AcDbSpline
210
0.0
220
0.0
230
1.0
 70
     8
 71
     3
 72
   124
 73
   120
 74
     0
 42
0.0000000001
 43
0.0000000001
 40
0.0
 40
0.0
 40
0.0
 40
0.0
 40
0.032258064516129
 40
0.032258064516129
 40
0.032258064516129
 40
0.032258064516129
 40
0.0645161290322581
 40
0.0645161290322581
 40
0.0645161290322581
 40
0.0645161290322581
 40
0.0967741935483871
 40
0.0967741935483871
 40
0.0967741935483871
 40
0.0967741935483871
 40
0.1290322580645161
 40
0.1290322580645161
 40
0.1290322580645161
 40
0.1290322580645161
 40
0.1612903225806452
 40
0.1612903225806452
 40
0.1612903225806452
 40
0.1612903225806452
 40
0.1935483870967742
 40
0.1935483870967742
 40
0.1935483870967742
 40
0.1935483870967742
 40
0.2258064516129032
 40
0.2258064516129032
 40
0.2258064516129032
 40
0.2258064516129032
 40
0.2580645161290323
 40
0.2580645161290323
 40
0.2580645161290323
 40
0.2580645161290323
 40
0.2903225806451613
 40
0.2903225806451613
 40
0.2903225806451613
 40
0.2903225806451613
 40
0.3225806451612903
 40
0.3225806451612903
 40
0.3225806451612903
 40
0.3225806451612903
 40
0.3548387096774194
 40
0.3548387096774194
 40
0.3548387096774194
 40
0.3548387096774194
 40
0.3870967741935484
 40
0.3870967741935484
 40
0.3870967741935484
 40
0.3870967741935484
 40
0.4193548387096774
 40
0.4193548387096774
 40
0.4193548387096774
 40
0.4193548387096774
 40
0.4516129032258064
 40
0.4516129032258064
 40
0.4516129032258064
 40
0.4516129032258064
 40
0.4838709677419355
 40
0.4838709677419355
 40
0.4838709677419355
 40
0.4838709677419355
 40
0.5161290322580645
 40
0.5161290322580645
 40
0.5161290322580645
 40
0.5161290322580645
 40
0.5483870967741935
 40
0.5483870967741935
 40
0.5483870967741935
 40
0.5483870967741935
 40
0.5806451612903226
 40
0.5806451612903226
 40
0.5806451612903226
 40
0.5806451612903226
 40
0.6129032258064516
 40
0.6129032258064516
 40
0.6129032258064516
 40
0.6129032258064516
 40
0.6451612903225806
 40
0.6451612903225806
 40
0.6451612903225806
 40
0.6451612903225806
 40
0.6774193548387096
 40
0.6774193548387096
 40
0.6774193548387096
 40
0.6774193548387096
 40
0.7096774193548387
 40
0.7096774193548387
 40
0.7096774193548387
 40
0.7096774193548387
 40
0.7419354838709677
 40
0.7419354838709677
 40
0.7419354838709677
 40
0.7419354838709677
 40
0.7741935483870968
 40
0.7741935483870968
 40
0.7741935483870968
 40
0.7741935483870968
 40
0.8064516129032258
 40
0.8064516129032258
 40
0.8064516129032258
 40
0.8064516129032258
 40
0.8387096774193549
 40
0.8387096774193549
 40
0.8387096774193549
 40
0.8387096774193549
 40
0.8709677419354839
 40
0.8709677419354839
 40
0.8709677419354839
 40
0.8709677419354839
 40
0.9032258064516129
 40
0.9032258064516129
 40
0.9032258064516129
 40
0.9032258064516129
 40
0.9354838709677419
 40
0.9354838709677419
 40
0.9354838709677419
 40
0.9354838709677419
 40
1.0
 40
1.0
 40
1.0
 40
1.0
 10
-24.0886
 20
-4.5796
 30
0.0
 10
-24.0886
 20
-4.5796
 30
0.0
 10
-24.0811
 20
-4.3658
 30
0.0
 10
-24.0811
 20
-4.3658
 30
0.0
 10
-24.0811
 20
-4.3658
 30
0.0
 10
-24.0811
 20
-4.3658
 30
0.0
 10
-24.0589
 20
-4.1525
 30
0.0
 10
-24.0589
 20
-4.1525
 30
0.0
 10
-24.0589
 20
-4.1525
 30
0.0
 10
-24.0589
 20
-4.1525
 30
0.0
 10
-24.0213
 20
-3.9354
 30
0.0
 10
-24.0213
 20
-3.9354
 30
0.0
 10
-24.0213
 20
-3.9354
 30
0.0
 10
-24.0213
 20
-3.9354
 30
0.0
 10
-23.9675
 20
-3.7113
 30
0.0
 10
-23.9675
 20
-3.7113
 30
0.0
 10
-23.9675
 20
-3.7113
 30
0.0
 10
-23.9675
 20
-3.7113
 30
0.0
 10
-23.8948
 20
-3.4755
 30
0.0
 10
-23.8948
 20
-3.4755
 30
0.0
 10
-23.8948
 20
-3.4755
 30
0.0
 10
-23.8948
 20
-3.4755
 30
0.0
 10
-23.8007
 20
-3.2239
 30
0.0
 10
-23.8007
 20
-3.2239
 30
0.0
 10
-23.8007
 20
-3.2239
 30
0.0
 10
-23.8007
 20
-3.2239
 30
0.0
 10
-23.6825
 20
-2.9542
 30
0.0
 10
-23.6825
 20
-2.9542
 30
0.0
 10
-23.6825
 20
-2.9542
 30
0.0
 10
-23.6825
 20
-2.9542
 30
0.0
 10
-23.5372
 20
-2.6652
 30
0.0
 10
-23.5372
 20
-2.6652
 30
0.0
 10
-23.5372
 20
-2.6652
 30
0.0
 10
-23.5372
 20
-2.6652
 30
0.0
 10
-23.3649
 20
-2.3583
 30
0.0
 10
-23.3649
 20
-2.3583
 30
0.0
 10
-23.3649
 20
-2.3583
 30
0.0
 10
-23.3649
 20
-2.3583
 30
0.0
 10
-23.1676
 20
-2.0373
 30
0.0
 10
-23.1676
 20
-2.0373
 30
0.0
 10
-23.1676
 20
-2.0373
 30
0.0
 10
-23.1676
 20
-2.0373
 30
0.0
 10
-22.9497
 20
-1.7089
 30
0.0
 10
-22.9497
 20
-1.7089
 30
0.0
 10
-22.9497
 20
-1.7089
 30
0.0
 10
-22.9497
 20
-1.7089
 30
0.0
 10
-22.7198
 20
-1.383
 30
0.0
 10
-22.7198
 20
-1.383
 30
0.0
 10
-22.7198
 20
-1.383
 30
0.0
 10
-22.7198
 20
-1.383
 30
0.0
 10
-22.4898
 20
-1.0722
 30
0.0
 10
-22.4898
 20
-1.0722
 30
0.0
 10
-22.4898
 20
-1.0722
 30
0.0
 10
-22.4898
 20
-1.0722
 30
0.0
 10
-22.2662
 20
-0.7807
 30
0.0
 10
-22.2662
 20
-0.7807
 30
0.0
 10
-22.2662
 20
-0.7807
 30
0.0
 10
-22.2662
 20
-0.7807
 30
0.0
 10
-22.0525
 20
-0.5104
 30
0.0
 10
-22.0525
 20
-0.5104
 30
0.0
 10
-22.0525
 20
-0.5104
 30
0.0
 10
-22.0525
 20
-0.5104
 30
0.0
 10
-21.8522
 20
-0.2628
 30
0.0
 10
-21.8522
 20
-0.2628
 30
0.0
 10
-21.8522
 20
-0.2628
 30
0.0
 10
-21.8522
 20
-0.2628
 30
0.0
 10
-21.6672
 20
-0.0383
 30
0.0
 10
-21.6672
 20
-0.0383
 30
0.0
 10
-21.6672
 20
-0.0383
 30
0.0
 10
-21.6672
 20
-0.0383
 30
0.0
 10
-21.4988
 20
0.1632
 30
0.0
 10
-21.4988
 20
0.1632
 30
0.0
 10
-21.4988
 20
0.1632
 30
0.0
 10
-21.4988
 20
0.1632
 30
0.0
 10
-21.3468
 20
0.3429
 30
0.0
 10
-21.3468
 20
0.3429
 30
0.0
 10
-21.3468
 20
0.3429
 30
0.0
 10
-21.3468
 20
0.3429
 30
0.0
 10
-21.2114
 20
0.5016
 30
0.0
 10
-21.2114
 20
0.5016
 30
0.0
 10
-21.2114
 20
0.5016
 30
0.0
 10
-21.2114
 20
0.5016
 30
0.0
 10
-21.0921
 20
0.6402
 30
0.0
 10
-21.0921
 20
0.6402
 30
0.0
 10
-21.0921
 20
0.6402
 30
0.0
 10
-21.0921
 20
0.6402
 30
0.0
 10
-20.9882
 20
0.7602
 30
0.0
 10
-20.9882
 20
0.7602
 30
0.0
 10
-20.9882
 20
0.7602
 30
0.0
 10
-20.9882
 20
0.7602
 30
0.0
 10
-20.8994
 20
0.8622
 30
0.0
 10
-20.8994
 20
0.8622
 30
0.0
 10
-20.8994
 20
0.8622
 30
0.0
 10
-20.8994
 20
0.8622
 30
0.0
 10
-20.825
 20
0.9471
 30
0.0
 10
-20.825
 20
0.9471
 30
0.0
 10
-20.825
 20
0.9471
 30
0.0
 10
-20.825
 20
0.9471
 30
0.0
 10
-20.7649
 20
1.0159
 30
0.0
 10
-20.7649
 20
1.0159
 30
0.0
 10
-20.7649
 20
1.0159
 30
0.0
 10
-20.7649
 20
1.0159
 30
0.0
 10
-20.7186
 20
1.0685
 30
0.0
 10
-20.7186
 20
1.0685
 30
0.0
 10
-20.7186
 20
1.0685
 30
0.0
 10
-20.7186
 20
1.0685
 30
0.0
 10
-20.6857
 20
1.1057
 30
0.0
 10
-20.6857
 20
1.1057
 30
0.0
 10
-20.6857
 20
1.1057
 30
0.0
 10
-20.6857
 20
1.1057
 30
0.0
 10
-20.6661
 20
1.128
 30
0.0
 10
-20.6661
 20
1.128
 30
0.0
 10
-20.6661
 20
1.128
 30
0.0
 10
-20.6661
 20
1.128
 30
0.0
 10
-20.6602
 20
1.1346
 30
0.0
 10
-20.6602
 20
1.1346
 30
0.0
 10
-20.6602
 20
1.1346
 30
0.0
 10
-20.6602
 20
1.1346
 30
0.0
 10
-20.6596
 20
1.1353
 30
0.0
 10
-20.6596
 20
1.1353
 30
0.0
  0
SPLINE
  5
9E
330
1F
100
AcDbEntity
  8
AXIS
 62
   250
100
AcDbSpline
210
0.0
220
0.0
230
1.0
 70
     8
 71
     3
 72
   120
 73
   116
 74
     0
 42
0.0000000001
 43
0.0000000001
 40
0.0
 40
0.0
 40
0.0
 40
0.0
 40
0.0333333333333333
 40
0.0333333333333333
 40
0.0333333333333333
 40
0.0333333333333333
 40
0.0666666666666667
 40
0.0666666666666667
 40
0.0666666666666667
 40
0.0666666666666667
 40
0.1
 40
0.1
 40
0.1
 40
0.1
 40
0.1333333333333333
 40
0.1333333333333333
 40
0.1333333333333333
 40
0.1333333333333333
 40
0.1666666666666667
 40
0.1666666666666667
 40
0.1666666666666667
 40
0.1666666666666667
 40
0.2
 40
0.2
 40
0.2
 40
0.2
 40
0.2333333333333333
 40
0.2333333333333333
 40
0.2333333333333333
 40
0.2333333333333333
 40
0.2666666666666667
 40
0.2666666666666667
 40
0.2666666666666667
 40
0.2666666666666667
 40
0.3
 40
0.3
 40
0.3
 40
0.3
 40
0.3333333333333333
 40
0.3333333333333333
 40
0.3333333333333333
 40
0.3333333333333333
 40
0.3666666666666666
 40
0.3666666666666666
 40
0.3666666666666666
 40
0.3666666666666666
 40
0.4
 40
0.4
 40
0.4
 40
0.4
 40
0.4333333333333333
 40
0.4333333333333333
 40
0.4333333333333333
 40
0.4333333333333333
 40
0.4666666666666667
 40
0.4666666666666667
 40
0.4666666666666667
 40
0.4666666666666667
 40
0.5
 40
0.5
 40
0.5
 40
0.5
 40
0.5333333333333333
 40
0.5333333333333333
 40
0.5333333333333333
 40
0.5333333333333333
 40
0.5666666666666667
 40
0.5666666666666667
 40
0.5666666666666667
 40
0.5666666666666667
 40
0.6
 40
0.6
 40
0.6
 40
0.6
 40
0.6333333333333333
 40
0.6333333333333333
 40
0.6333333333333333
 40
0.6333333333333333
 40
0.6666666666666666
 40
0.6666666666666666
 40
0.6666666666666666
 40
0.6666666666666666
 40
0.7
 40
0.7
 40
0.7
 40
0.7
 40
0.7333333333333333
 40
0.7333333333333333
 40
0.7333333333333333
 40
0.7333333333333333
 40
0.7666666666666667
 40
0.7666666666666667
 40
0.7666666666666667
 40
0.7666666666666667
 40
0.8
 40
0.8
 40
0.8
 40
0.8
 40
0.8333333333333334
 40
0.8333333333333334
 40
0.8333333333333334
 40
0.8333333333333334
 40
0.8666666666666667
 40
0.8666666666666667
 40
0.8666666666666667
 40
0.8666666666666667
 40
0.9
 40
0.9
 40
0.9
 40
0.9
 40
0.9333333333333333
 40
0.9333333333333333
 40
0.9333333333333333
 40
0.9333333333333333
 40
1.0
 40
1.0
 40
1.0
 40
1.0
 10
-20.6596
 20
-10.2948
 30
0.0
 10
-20.6596
 20
-10.2948
 30
0.0
 10
-20.6661
 20
-10.2873
 30
0.0
 10
-20.6661
 20
-10.2873
 30
0.0
 10
-20.6661
 20
-10.2873
 30
0.0
 10
-20.6661
 20
-10.2873
 30
0.0
 10
-20.6857
 20
-10.2652
 30
0.0
 10
-20.6857
 20
-10.2652
 30
0.0
 10
-20.6857
 20
-10.2652
 30
0.0
 10
-20.6857
 20
-10.2652
 30
0.0
 10
-20.7186
 20
-10.2279
 30
0.0
 10
-20.7186
 20
-10.2279
 30
0.0
 10
-20.7186
 20
-10.2279
 30
0.0
 10
-20.7186
 20
-10.2279
 30
0.0
 10
-20.7649
 20
-10.1752
 30
0.0
 10
-20.7649
 20
-10.1752
 30
0.0
 10
-20.7649
 20
-10.1752
 30
0.0
 10
-20.7649
 20
-10.1752
 30
0.0
 10
-20.825
 20
-10.1066
 30
0.0
 10
-20.825
 20
-10.1066
 30
0.0
 10
-20.825
 20
-10.1066
 30
0.0
 10
-20.825
 20
-10.1066
 30
0.0
 10
-20.8994
 20
-10.0214
 30
0.0
 10
-20.8994
 20
-10.0214
 30
0.0
 10
-20.8994
 20
-10.0214
 30
0.0
 10
-20.8994
 20
-10.0214
 30
0.0
 10
-20.9882
 20
-9.9194
 30
0.0
 10
-20.9882
 20
-9.9194
 30
0.0
 10
-20.9882
 20
-9.9194
 30
0.0
 10
-20.9882
 20
-9.9194
 30
0.0
 10
-21.0921
 20
-9.7997
 30
0.0
 10
-21.0921
 20
-9.7997
 30
0.0
 10
-21.0921
 20
-9.7997
 30
0.0
 10
-21.0921
 20
-9.7997
 30
0.0
 10
-21.2114
 20
-9.661
 30
0.0
 10
-21.2114
 20
-9.661
 30
0.0
 10
-21.2114
 20
-9.661
 30
0.0
 10
-21.2114
 20
-9.661
 30
0.0
 10
-21.3468
 20
-9.5022
 30
0.0
 10
-21.3468
 20
-9.5022
 30
0.0
 10
-21.3468
 20
-9.5022
 30
0.0
 10
-21.3468
 20
-9.5022
 30
0.0
 10
-21.4988
 20
-9.3225
 30
0.0
 10
-21.4988
 20
-9.3225
 30
0.0
 10
-21.4988
 20
-9.3225
 30
0.0
 10
-21.4988
 20
-9.3225
 30
0.0
 10
-21.6675
 20
-9.1208
 30
0.0
 10
-21.6675
 20
-9.1208
 30
0.0
 10
-21.6675
 20
-9.1208
 30
0.0
 10
-21.6675
 20
-9.1208
 30
0.0
 10
-21.8522
 20
-8.8965
 30
0.0
 10
-21.8522
 20
-8.8965
 30
0.0
 10
-21.8522
 20
-8.8965
 30
0.0
 10
-21.8522
 20
-8.8965
 30
0.0
 10
-22.0525
 20
-8.6489
 30
0.0
 10
-22.0525
 20
-8.6489
 30
0.0
 10
-22.0525
 20
-8.6489
 30
0.0
 10
-22.0525
 20
-8.6489
 30
0.0
 10
-22.2662
 20
-8.3785
 30
0.0
 10
-22.2662
 20
-8.3785
 30
0.0
 10
-22.2662
 20
-8.3785
 30
0.0
 10
-22.2662
 20
-8.3785
 30
0.0
 10
-22.4901
 20
-8.0869
 30
0.0
 10
-22.4901
 20
-8.0869
 30
0.0
 10
-22.4901
 20
-8.0869
 30
0.0
 10
-22.4901
 20
-8.0869
 30
0.0
 10
-22.72
 20
-7.7761
 30
0.0
 10
-22.72
 20
-7.7761
 30
0.0
 10
-22.72
 20
-7.7761
 30
0.0
 10
-22.72
 20
-7.7761
 30
0.0
 10
-22.9499
 20
-7.4503
 30
0.0
 10
-22.9499
 20
-7.4503
 30
0.0
 10
-22.9499
 20
-7.4503
 30
0.0
 10
-22.9499
 20
-7.4503
 30
0.0
 10
-23.1676
 20
-7.1219
 30
0.0
 10
-23.1676
 20
-7.1219
 30
0.0
 10
-23.1676
 20
-7.1219
 30
0.0
 10
-23.1676
 20
-7.1219
 30
0.0
 10
-23.3652
 20
-6.801
 30
0.0
 10
-23.3652
 20
-6.801
 30
0.0
 10
-23.3652
 20
-6.801
 30
0.0
 10
-23.3652
 20
-6.801
 30
0.0
 10
-23.5372
 20
-6.4941
 30
0.0
 10
-23.5372
 20
-6.4941
 30
0.0
 10
-23.5372
 20
-6.4941
 30
0.0
 10
-23.5372
 20
-6.4941
 30
0.0
 10
-23.6825
 20
-6.205
 30
0.0
 10
-23.6825
 20
-6.205
 30
0.0
 10
-23.6825
 20
-6.205
 30
0.0
 10
-23.6825
 20
-6.205
 30
0.0
 10
-23.8007
 20
-5.9353
 30
0.0
 10
-23.8007
 20
-5.9353
 30
0.0
 10
-23.8007
 20
-5.9353
 30
0.0
 10
-23.8007
 20
-5.9353
 30
0.0
 10
-23.8948
 20
-5.6839
 30
0.0
 10
-23.8948
 20
-5.6839
 30
0.0
 10
-23.8948
 20
-5.6839
 30
0.0
 10
-23.8948
 20
-5.6839
 30
0.0
 10
-23.9675
 20
-5.4479
 30
0.0
 10
-23.9675
 20
-5.4479
 30
0.0
 10
-23.9675
 20
-5.4479
 30
0.0
 10
-23.9675
 20
-5.4479
 30
0.0
 10
-24.0213
 20
-5.2238
 30
0.0
 10
-24.0213
 20
-5.2238
 30
0.0
 10
-24.0213
 20
-5.2238
 30
0.0
 10
-24.0213
 20
-5.2238
 30
0.0
 10
-24.0589
 20
-5.0068
 30
0.0
 10
-24.0589
 20
-5.0068
 30
0.0
 10
-24.0589
 20
-5.0068
 30
0.0
 10
-24.0589
 20
-5.0068
 30
0.0
 10
-24.0811
 20
-4.7934
 30
0.0
 10
-24.0811
 20
-4.7934
 30
0.0
 10
-24.0811
 20
-4.7934
 30
0.0
 10
-24.0811
 20
-4.7934
 30
0.0
 10
-24.0886
 20
-4.5796
 30
0.0
 10
-24.0886
 20
-4.5796
 30
0.0
  0
SPLINE
  5
9F
330
1F
100
AcDbEntity
  8
AXIS
 62
   250
100
AcDbSpline
210
0.0
220
0.0
230
1.0
 70
    11
 71
     3
 72
    52
 73
    48
 74
     0
 42
0.0000000001
 43
0.0000000001
 40
0.0
 40
0.0
 40
0.0
 40
0.0
 40
0.0769230769230769
 40
0.0769230769230769
 40
0.0769230769230769
 40
0.0769230769230769
 40
0.1538461538461539
 40
0.1538461538461539
 40
0.1538461538461539
 40
0.1538461538461539
 40
0.2307692307692308
 40
0.2307692307692308
 40
0.2307692307692308
 40
0.2307692307692308
 40
0.3076923076923077
 40
0.3076923076923077
 40
0.3076923076923077
 40
0.3076923076923077
 40
0.3846153846153846
 40
0.3846153846153846
 40
0.3846153846153846
 40
0.3846153846153846
 40
0.4615384615384616
 40
0.4615384615384616
 40
0.4615384615384616
 40
0.4615384615384616
 40
0.5384615384615384
 40
0.5384615384615384
 40
0.5384615384615384
 40
0.5384615384615384
 40
0.6153846153846154
 40
0.6153846153846154
 40
0.6153846153846154
 40
0.6153846153846154
 40
0.6923076923076923
 40
0.6923076923076923
 40
0.6923076923076923
 40
0.6923076923076923
 40
0.7692307692307693
 40
0.7692307692307693
 40
0.7692307692307693
 40
0.7692307692307693
 40
0.8461538461538461
 40
0.8461538461538461
 40
0.8461538461538461
 40
0.8461538461538461
 40
1.0
 40
1.0
 40
1.0
 40
1.0
 10
-20.7422
 20
-28.1248
 30
0.0
 10
-20.7422
 20
-28.1248
 30
0.0
 10
-20.7423
 20
-28.1248
 30
0.0
 10
-20.7423
 20
-28.1248
 30
0.0
 10
-20.7423
 20
-28.1248
 30
0.0
 10
-20.7423
 20
-28.1248
 30
0.0
 10
-20.7423
 20
-10.369
 30
0.0
 10
-20.7423
 20
-10.369
 30
0.0
 10
-20.7423
 20
-10.369
 30
0.0
 10
-20.7423
 20
-10.369
 30
0.0
 10
-20.7423
 20
-28.1248
 30
0.0
 10
-20.7423
 20
-28.1248
 30
0.0
 10
-20.7423
 20
-28.1248
 30
0.0
 10
-20.7423
 20
-28.1248
 30
0.0
 10
-33.8462
 20
-28.1248
 30
0.0
 10
-33.8462
 20
-28.1248
 30
0.0
 10
-33.8462
 20
-28.1248
 30
0.0
 10
-33.8462
 20
-28.1248
 30
0.0
 10
-33.8462
 20
2.5388
 30
0.0
 10
-33.8462
 20
2.5388
 30
0.0
 10
-33.8462
 20
2.5388
 30
0.0
 10
-33.8462
 20
2.5388
 30
0.0
 10
-20.743
 20
2.5388
 30
0.0
 10
-20.743
 20
2.5388
 30
0.0
 10
-20.743
 20
2.5388
 30
0.0
 10
-20.743
 20
2.5388
 30
0.0
 10
-20.743
 20
1.1928
 30
0.0
 10
-20.743
 20
1.1928
 30
0.0
 10
-20.743
 20
1.1928
 30
0.0
 10
-20.743
 20
1.1928
 30
0.0
 10
-20.743
 20
2.5388
 30
0.0
 10
-20.743
 20
2.5388
 30
0.0
 10
-20.743
 20
2.5388
 30
0.0
 10
-20.743
 20
2.5388
 30
0.0
 10
-33.8462
 20
2.5388
 30
0.0
 10
-33.8462
 20
2.5388
 30
0.0
 10
-33.8462
 20
2.5388
 30
0.0
 10
-33.8462
 20
2.5388
 30
0.0
 10
-33.8462
 20
-28.1248
 30
0.0
 10
-33.8462
 20
-28.1248
 30
0.0
 10
-33.8462
 20
-28.1248
 30
0.0
 10
-33.8462
 20
-28.1248
 30
0.0
 10
-20.7423
 20
-28.1248
 30
0.0
 10
-20.7423
 20
-28.1248
 30
0.0
 10
-20.7423
 20
-28.1248
 30
0.0
 10
-20.7423
 20
-28.1248
 30
0.0
 10
-20.7422
 20
-28.1248
 30
0.0
 10
-20.7422
 20
-28.1248
 30
0.0
  0
SPLINE
  5
A0
330
1F
100
AcDbEntity
  8
AXIS
 62
   250
100
AcDbSpline
210
0.0
220
0.0
230
1.0
 70
    27
 71
     3
 72
    28
 73
    24
 74
     0
 42
0.0000000001
 43
0.0000000001
 40
0.0
 40
0.0
 40
0.0
 40
0.0
 40
0.1428571428571428
 40
0.1428571428571428
 40
0.1428571428571428
 40
0.1428571428571428
 40
0.2857142857142857
 40
0.2857142857142857
 40
0.2857142857142857
 40
0.2857142857142857
 40
0.4285714285714285
 40
0.4285714285714285
 40
0.4285714285714285
 40
0.4285714285714285
 40
0.5714285714285714
 40
0.5714285714285714
 40
0.5714285714285714
 40
0.5714285714285714
 40
0.7142857142857143
 40
0.7142857142857143
 40
0.7142857142857143
 40
0.7142857142857143
 40
1.0
 40
1.0
 40
1.0
 40
1.0
 10
-20.7577
 20
1.1346
 30
0.0
 10
-20.7577
 20
1.1346
 30
0.0
 10
-20.6602
 20
1.1346
 30
0.0
 10
-20.6602
 20
1.1346
 30
0.0
 10
-20.6602
 20
1.1346
 30
0.0
 10
-20.6602
 20
1.1346
 30
0.0
 10
-20.66
 20
1.1346
 30
0.0
 10
-20.66
 20
1.1346
 30
0.0
 10
-20.66
 20
1.1346
 30
0.0
 10
-20.66
 20
1.1346
 30
0.0
 10
-15.461
 20
1.1346
 30
0.0
 10
-15.461
 20
1.1346
 30
0.0
 10
-15.461
 20
1.1346
 30
0.0
 10
-15.461
 20
1.1346
 30
0.0
 10
-20.66
 20
1.1346
 30
0.0
 10
-20.66
 20
1.1346
 30
0.0
 10
-20.66
 20
1.1346
 30
0.0
 10
-20.66
 20
1.1346
 30
0.0
 10
-20.6602
 20
1.1346
 30
0.0
 10
-20.6602
 20
1.1346
 30
0.0
 10
-20.6602
 20
1.1346
 30
0.0
 10
-20.6602
 20
1.1346
 30
0.0
 10
-20.7577
 20
1.1346
 30
0.0
 10
-20.7577
 20
1.1346
 30
0.0
  0
SPLINE
  5
A1
330
1F
100
AcDbEntity
  8
AXIS
 62
   250
100
AcDbSpline
210
0.0
220
0.0
230
1.0
 70
    11
 71
     3
 72
    20
 73
    16
 74
     0
 42
0.0000000001
 43
0.0000000001
 40
0.0
 40
0.0
 40
0.0
 40
0.0
 40
0.2
 40
0.2
 40
0.2
 40
0.2
 40
0.4
 40
0.4
 40
0.4
 40
0.4
 40
0.6
 40
0.6
 40
0.6
 40
0.6
 40
1.0
 40
1.0
 40
1.0
 40
1.0
 10
-15.4525
 20
-10.2948
 30
0.0
 10
-15.4525
 20
-10.2948
 30
0.0
 10
-15.4525
 20
1.1353
 30
0.0
 10
-15.4525
 20
1.1353
 30
0.0
 10
-15.4525
 20
1.1353
 30
0.0
 10
-15.4525
 20
1.1353
 30
0.0
 10
-15.4525
 20
-10.2948
 30
0.0
 10
-15.4525
 20
-10.2948
 30
0.0
 10
-15.4525
 20
-10.2948
 30
0.0
 10
-15.4525
 20
-10.2948
 30
0.0
 10
-20.6596
 20
-10.2948
 30
0.0
 10
-20.6596
 20
-10.2948
 30
0.0
 10
-20.6596
 20
-10.2948
 30
0.0
 10
-20.6596
 20
-10.2948
 30
0.0
 10
-15.4525
 20
-10.2948
 30
0.0
 10
-15.4525
 20
-10.2948
 30
0.0
  0
SPLINE
  5
A2
330
1F
100
AcDbEntity
  8
AXIS
 62
   250
100
AcDbSpline
210
0.0
220
0.0
230
1.0
 70
    27
 71
     3
 72
    12
 73
     8
 74
     0
 42
0.0000000001
 43
0.0000000001
 40
0.0
 40
0.0
 40
0.0
 40
0.0
 40
0.3333333333333333
 40
0.3333333333333333
 40
0.3333333333333333
 40
0.3333333333333333
 40
1.0
 40
1.0
 40
1.0
 40
1.0
 10
-20.7422
 20
2.5388
 30
0.0
 10
-20.7422
 20
2.5388
 30
0.0
 10
-20.743
 20
2.5388
 30
0.0
 10
-20.743
 20
2.5388
 30
0.0
 10
-20.743
 20
2.5388
 30
0.0
 10
-20.743
 20
2.5388
 30
0.0
 10
-20.7422
 20
2.5388
 30
0.0
 10
-20.7422
 20
2.5388
 30
0.0
  0
SPLINE
  5
A3
330
1F
100
AcDbEntity
  8
AXIS
 62
   250
100
AcDbSpline
210
0.0
220
0.0
230
1.0
 70
    11
 71
     3
 72
    12
 73
     8
 74
     0
 42
0.0000000001
 43
0.0000000001
 40
0.0
 40
0.0
 40
0.0
 40
0.0
 40
0.3333333333333333
 40
0.3333333333333333
 40
0.3333333333333333
 40
0.3333333333333333
 40
1.0
 40
1.0
 40
1.0
 40
1.0
 10
-33.8462
 20
5.9458
 30
0.0
 10
-33.8462
 20
6.2353
 30
0.0
 10
-33.6114
 20
6.47
 30
0.0
 10
-33.322
 20
6.47
 30
0.0
 10
-33.322
 20
6.47
 30
0.0
 10
-33.322
 20
6.47
 30
0.0
 10
-33.8462
 20
5.9458
 30
0.0
 10
-33.8462
 20
5.9458
 30
0.0
  0
SPLINE
  5
A4
330
1F
100
AcDbEntity
  8
AXIS
 62
   250
100
AcDbSpline
210
0.0
220
0.0
230
1.0
 70
    11
 71
     3
 72
    12
 73
     8
 74
     0
 42
0.0000000001
 43
0.0000000001
 40
0.0
 40
0.0
 40
0.0
 40
0.0
 40
0.3333333333333333
 40
0.3333333333333333
 40
0.3333333333333333
 40
0.3333333333333333
 40
1.0
 40
1.0
 40
1.0
 40
1.0
 10
-21.2662
 20
6.47
 30
0.0
 10
-20.9769
 20
6.47
 30
0.0
 10
-20.7422
 20
6.2353
 30
0.0
 10
-20.7422
 20
5.9458
 30
0.0
 10
-20.7422
 20
5.9458
 30
0.0
 10
-20.7422
 20
5.9458
 30
0.0
 10
-21.2662
 20
6.47
 30
0.0
 10
-21.2662
 20
6.47
 30
0.0
  0
SPLINE
  5
A5
330
1F
100
AcDbEntity
  8
AXIS
 62
   250
100
AcDbSpline
210
0.0
220
0.0
230
1.0
 70
    11
 71
     3
 72
    28
 73
    24
 74
     0
 42
0.0000000001
 43
0.0000000001
 40
0.0
 40
0.0
 40
0.0
 40
0.0
 40
0.1428571428571428
 40
0.1428571428571428
 40
0.1428571428571428
 40
0.1428571428571428
 40
0.2857142857142857
 40
0.2857142857142857
 40
0.2857142857142857
 40
0.2857142857142857
 40
0.4285714285714285
 40
0.4285714285714285
 40
0.4285714285714285
 40
0.4285714285714285
 40
0.5714285714285714
 40
0.5714285714285714
 40
0.5714285714285714
 40
0.5714285714285714
 40
0.7142857142857143
 40
0.7142857142857143
 40
0.7142857142857143
 40
0.7142857142857143
 40
1.0
 40
1.0
 40
1.0
 40
1.0
 10
-20.7422
 20
2.8009
 30
0.0
 10
-20.7422
 20
2.8009
 30
0.0
 10
-33.8462
 20
2.8009
 30
0.0
 10
-33.8462
 20
2.8009
 30
0.0
 10
-33.8462
 20
2.8009
 30
0.0
 10
-33.8462
 20
2.8009
 30
0.0
 10
-33.8462
 20
5.9458
 30
0.0
 10
-33.8462
 20
5.9458
 30
0.0
 10
-33.8462
 20
5.9458
 30
0.0
 10
-33.8462
 20
5.9458
 30
0.0
 10
-33.8462
 20
2.8009
 30
0.0
 10
-33.8462
 20
2.8009
 30
0.0
 10
-33.8462
 20
2.8009
 30
0.0
 10
-33.8462
 20
2.8009
 30
0.0
 10
-20.7422
 20
2.8009
 30
0.0
 10
-20.7422
 20
2.8009
 30
0.0
 10
-20.7422
 20
2.8009
 30
0.0
 10
-20.7422
 20
2.8009
 30
0.0
 10
-20.7422
 20
5.9458
 30
0.0
 10
-20.7422
 20
5.9458
 30
0.0
 10
-20.7422
 20
5.9458
 30
0.0
 10
-20.7422
 20
5.9458
 30
0.0
 10
-20.7422
 20
2.8009
 30
0.0
 10
-20.7422
 20
2.8009
 30
0.0
  0
SPLINE
  5
A6
330
1F
100
AcDbEntity
  8
AXIS
 62
   250
100
AcDbSpline
210
0.0
220
0.0
230
1.0
 70
    27
 71
     3
 72
    28
 73
    24
 74
     0
 42
0.0000000001
 43
0.0000000001
 40
0.0
 40
0.0
 40
0.0
 40
0.0
 40
0.1428571428571428
 40
0.1428571428571428
 40
0.1428571428571428
 40
0.1428571428571428
 40
0.2857142857142857
 40
0.2857142857142857
 40
0.2857142857142857
 40
0.2857142857142857
 40
0.4285714285714285
 40
0.4285714285714285
 40
0.4285714285714285
 40
0.4285714285714285
 40
0.5714285714285714
 40
0.5714285714285714
 40
0.5714285714285714
 40
0.5714285714285714
 40
0.7142857142857143
 40
0.7142857142857143
 40
0.7142857142857143
 40
0.7142857142857143
 40
1.0
 40
1.0
 40
1.0
 40
1.0
 10
-21.2079
 20
6.47
 30
0.0
 10
-21.2079
 20
6.47
 30
0.0
 10
-21.2662
 20
6.47
 30
0.0
 10
-21.2662
 20
6.47
 30
0.0
 10
-21.2662
 20
6.47
 30
0.0
 10
-21.2662
 20
6.47
 30
0.0
 10
-33.322
 20
6.47
 30
0.0
 10
-33.322
 20
6.47
 30
0.0
 10
-33.322
 20
6.47
 30
0.0
 10
-33.322
 20
6.47
 30
0.0
 10
-33.4151
 20
6.47
 30
0.0
 10
-33.4151
 20
6.47
 30
0.0
 10
-33.4151
 20
6.47
 30
0.0
 10
-33.4151
 20
6.47
 30
0.0
 10
-33.322
 20
6.47
 30
0.0
 10
-33.322
 20
6.47
 30
0.0
 10
-33.322
 20
6.47
 30
0.0
 10
-33.322
 20
6.47
 30
0.0
 10
-21.2662
 20
6.47
 30
0.0
 10
-21.2662
 20
6.47
 30
0.0
 10
-21.2662
 20
6.47
 30
0.0
 10
-21.2662
 20
6.47
 30
0.0
 10
-21.2079
 20
6.47
 30
0.0
 10
-21.2079
 20
6.47
 30
0.0
  0
SPLINE
  5
A7
330
1F
100
AcDbEntity
  8
AXIS
 62
   250
100
AcDbSpline
210
0.0
220
0.0
230
1.0
 70
     8
 71
     3
 72
     8
 73
     4
 74
     0
 42
0.0000000001
 43
0.0000000001
 40
0.0
 40
0.0
 40
0.0
 40
0.0
 40
1.0
 40
1.0
 40
1.0
 40
1.0
 10
-33.8462
 20
5.9458
 30
0.0
 10
-33.8462
 20
6.2353
 30
0.0
 10
-33.6114
 20
6.47
 30
0.0
 10
-33.322
 20
6.47
 30
0.0
  0
SPLINE
  5
A8
330
1F
100
AcDbEntity
  8
AXIS
 62
   250
100
AcDbSpline
210
0.0
220
0.0
230
1.0
 70
     8
 71
     3
 72
     8
 73
     4
 74
     0
 42
0.0000000001
 43
0.0000000001
 40
0.0
 40
0.0
 40
0.0
 40
0.0
 40
1.0
 40
1.0
 40
1.0
 40
1.0
 10
-21.2662
 20
6.47
 30
0.0
 10
-20.9769
 20
6.47
 30
0.0
 10
-20.7422
 20
6.2353
 30
0.0
 10
-20.7422
 20
5.9458
 30
0.0
  0
SPLINE
  5
A9
330
1F
100
AcDbEntity
  8
AXIS
 62
   250
100
AcDbSpline
210
0.0
220
0.0
230
1.0
 70
    11
 71
     3
 72
    28
 73
    24
 74
     0
 42
0.0000000001
 43
0.0000000001
 40
0.0
 40
0.0
 40
0.0
 40
0.0
 40
0.1428571428571428
 40
0.1428571428571428
 40
0.1428571428571428
 40
0.1428571428571428
 40
0.2857142857142857
 40
0.2857142857142857
 40
0.2857142857142857
 40
0.2857142857142857
 40
0.4285714285714285
 40
0.4285714285714285
 40
0.4285714285714285
 40
0.4285714285714285
 40
0.5714285714285714
 40
0.5714285714285714
 40
0.5714285714285714
 40
0.5714285714285714
 40
0.7142857142857143
 40
0.7142857142857143
 40
0.7142857142857143
 40
0.7142857142857143
 40
1.0
 40
1.0
 40
1.0
 40
1.0
 10
-20.7422
 20
2.8009
 30
0.0
 10
-20.7422
 20
2.8009
 30
0.0
 10
-33.8462
 20
2.8009
 30
0.0
 10
-33.8462
 20
2.8009
 30
0.0
 10
-33.8462
 20
2.8009
 30
0.0
 10
-33.8462
 20
2.8009
 30
0.0
 10
-33.8462
 20
5.9458
 30
0.0
 10
-33.8462
 20
5.9458
 30
0.0
 10
-33.8462
 20
5.9458
 30
0.0
 10
-33.8462
 20
5.9458
 30
0.0
 10
-33.8462
 20
2.8009
 30
0.0
 10
-33.8462
 20
2.8009
 30
0.0
 10
-33.8462
 20
2.8009
 30
0.0
 10
-33.8462
 20
2.8009
 30
0.0
 10
-20.7422
 20
2.8009
 30
0.0
 10
-20.7422
 20
2.8009
 30
0.0
 10
-20.7422
 20
2.8009
 30
0.0
 10
-20.7422
 20
2.8009
 30
0.0
 10
-20.7422
 20
5.9458
 30
0.0
 10
-20.7422
 20
5.9458
 30
0.0
 10
-20.7422
 20
5.9458
 30
0.0
 10
-20.7422
 20
5.9458
 30
0.0
 10
-20.7422
 20
2.8009
 30
0.0
 10
-20.7422
 20
2.8009
 30
0.0
  0
SPLINE
  5
AA
330
1F
100
AcDbEntity
  8
AXIS
 62
   250
100
AcDbSpline
210
0.0
220
0.0
230
1.0
 70
    27
 71
     3
 72
    28
 73
    24
 74
     0
 42
0.0000000001
 43
0.0000000001
 40
0.0
 40
0.0
 40
0.0
 40
0.0
 40
0.1428571428571428
 40
0.1428571428571428
 40
0.1428571428571428
 40
0.1428571428571428
 40
0.2857142857142857
 40
0.2857142857142857
 40
0.2857142857142857
 40
0.2857142857142857
 40
0.4285714285714285
 40
0.4285714285714285
 40
0.4285714285714285
 40
0.4285714285714285
 40
0.5714285714285714
 40
0.5714285714285714
 40
0.5714285714285714
 40
0.5714285714285714
 40
0.7142857142857143
 40
0.7142857142857143
 40
0.7142857142857143
 40
0.7142857142857143
 40
1.0
 40
1.0
 40
1.0
 40
1.0
 10
-21.2079
 20
6.47
 30
0.0
 10
-21.2079
 20
6.47
 30
0.0
 10
-21.2662
 20
6.47
 30
0.0
 10
-21.2662
 20
6.47
 30
0.0
 10
-21.2662
 20
6.47
 30
0.0
 10
-21.2662
 20
6.47
 30
0.0
 10
-33.322
 20
6.47
 30
0.0
 10
-33.322
 20
6.47
 30
0.0
 10
-33.322
 20
6.47
 30
0.0
 10
-33.322
 20
6.47
 30
0.0
 10
-33.4151
 20
6.47
 30
0.0
 10
-33.4151
 20
6.47
 30
0.0
 10
-33.4151
 20
6.47
 30
0.0
 10
-33.4151
 20
6.47
 30
0.0
 10
-33.322
 20
6.47
 30
0.0
 10
-33.322
 20
6.47
 30
0.0
 10
-33.322
 20
6.47
 30
0.0
 10
-33.322
 20
6.47
 30
0.0
 10
-21.2662
 20
6.47
 30
0.0
 10
-21.2662
 20
6.47
 30
0.0
 10
-21.2662
 20
6.47
 30
0.0
 10
-21.2662
 20
6.47
 30
0.0
 10
-21.2079
 20
6.47
 30
0.0
 10
-21.2079
 20
6.47
 30
0.0
  0
SPLINE
  5
AB
330
1F
100
AcDbEntity
  8
AXIS
 62
   250
100
AcDbSpline
210
0.0
220
0.0
230
1.0
 70
    11
 71
     3
 72
    12
 73
     8
 74
     0
 42
0.0000000001
 43
0.0000000001
 40
0.0
 40
0.0
 40
0.0
 40
0.0
 40
0.3333333333333333
 40
0.3333333333333333
 40
0.3333333333333333
 40
0.3333333333333333
 40
1.0
 40
1.0
 40
1.0
 40
1.0
 10
-33.322
 20
26.9125
 30
0.0
 10
-33.6114
 20
26.9125
 30
0.0
 10
-33.8462
 20
27.1471
 30
0.0
 10
-33.8462
 20
27.4366
 30
0.0
 10
-33.8462
 20
27.4366
 30
0.0
 10
-33.8462
 20
27.4366
 30
0.0
 10
-33.322
 20
26.9125
 30
0.0
 10
-33.322
 20
26.9125
 30
0.0
  0
SPLINE
  5
AC
330
1F
100
AcDbEntity
  8
AXIS
 62
   250
100
AcDbSpline
210
0.0
220
0.0
230
1.0
 70
    11
 71
     3
 72
    12
 73
     8
 74
     0
 42
0.0000000001
 43
0.0000000001
 40
0.0
 40
0.0
 40
0.0
 40
0.0
 40
0.3333333333333333
 40
0.3333333333333333
 40
0.3333333333333333
 40
0.3333333333333333
 40
1.0
 40
1.0
 40
1.0
 40
1.0
 10
-20.7422
 20
27.4366
 30
0.0
 10
-20.7422
 20
27.1471
 30
0.0
 10
-20.9769
 20
26.9125
 30
0.0
 10
-21.2662
 20
26.9125
 30
0.0
 10
-21.2662
 20
26.9125
 30
0.0
 10
-21.2662
 20
26.9125
 30
0.0
 10
-20.7422
 20
27.4366
 30
0.0
 10
-20.7422
 20
27.4366
 30
0.0
  0
SPLINE
  5
AD
330
1F
100
AcDbEntity
  8
AXIS
 62
   250
100
AcDbSpline
210
0.0
220
0.0
230
1.0
 70
    11
 71
     3
 72
    28
 73
    24
 74
     0
 42
0.0000000001
 43
0.0000000001
 40
0.0
 40
0.0
 40
0.0
 40
0.0
 40
0.1428571428571428
 40
0.1428571428571428
 40
0.1428571428571428
 40
0.1428571428571428
 40
0.2857142857142857
 40
0.2857142857142857
 40
0.2857142857142857
 40
0.2857142857142857
 40
0.4285714285714285
 40
0.4285714285714285
 40
0.4285714285714285
 40
0.4285714285714285
 40
0.5714285714285714
 40
0.5714285714285714
 40
0.5714285714285714
 40
0.5714285714285714
 40
0.7142857142857143
 40
0.7142857142857143
 40
0.7142857142857143
 40
0.7142857142857143
 40
1.0
 40
1.0
 40
1.0
 40
1.0
 10
-20.7422
 20
27.4366
 30
0.0
 10
-20.7422
 20
27.4366
 30
0.0
 10
-20.7422
 20
30.5815
 30
0.0
 10
-20.7422
 20
30.5815
 30
0.0
 10
-20.7422
 20
30.5815
 30
0.0
 10
-20.7422
 20
30.5815
 30
0.0
 10
-33.8462
 20
30.5815
 30
0.0
 10
-33.8462
 20
30.5815
 30
0.0
 10
-33.8462
 20
30.5815
 30
0.0
 10
-33.8462
 20
30.5815
 30
0.0
 10
-33.8462
 20
27.4366
 30
0.0
 10
-33.8462
 20
27.4366
 30
0.0
 10
-33.8462
 20
27.4366
 30
0.0
 10
-33.8462
 20
27.4366
 30
0.0
 10
-33.8462
 20
30.5815
 30
0.0
 10
-33.8462
 20
30.5815
 30
0.0
 10
-33.8462
 20
30.5815
 30
0.0
 10
-33.8462
 20
30.5815
 30
0.0
 10
-20.7422
 20
30.5815
 30
0.0
 10
-20.7422
 20
30.5815
 30
0.0
 10
-20.7422
 20
30.5815
 30
0.0
 10
-20.7422
 20
30.5815
 30
0.0
 10
-20.7422
 20
27.4366
 30
0.0
 10
-20.7422
 20
27.4366
 30
0.0
  0
SPLINE
  5
AE
330
1F
100
AcDbEntity
  8
AXIS
 62
   250
100
AcDbSpline
210
0.0
220
0.0
230
1.0
 70
    27
 71
     3
 72
    16
 73
    12
 74
     0
 42
0.0000000001
 43
0.0000000001
 40
0.0
 40
0.0
 40
0.0
 40
0.0
 40
0.25
 40
0.25
 40
0.25
 40
0.25
 40
0.5
 40
0.5
 40
0.5
 40
0.5
 40
1.0
 40
1.0
 40
1.0
 40
1.0
 10
-21.2662
 20
26.9125
 30
0.0
 10
-21.2662
 20
26.9125
 30
0.0
 10
-33.222
 20
26.9125
 30
0.0
 10
-33.222
 20
26.9125
 30
0.0
 10
-33.222
 20
26.9125
 30
0.0
 10
-33.222
 20
26.9125
 30
0.0
 10
-33.322
 20
26.9125
 30
0.0
 10
-33.322
 20
26.9125
 30
0.0
 10
-33.322
 20
26.9125
 30
0.0
 10
-33.322
 20
26.9125
 30
0.0
 10
-21.2662
 20
26.9125
 30
0.0
 10
-21.2662
 20
26.9125
 30
0.0
  0
SPLINE
  5
AF
330
1F
100
AcDbEntity
  8
AXIS
 62
   250
100
AcDbSpline
210
0.0
220
0.0
230
1.0
 70
     8
 71
     3
 72
     8
 73
     4
 74
     0
 42
0.0000000001
 43
0.0000000001
 40
0.0
 40
0.0
 40
0.0
 40
0.0
 40
1.0
 40
1.0
 40
1.0
 40
1.0
 10
-33.322
 20
26.9125
 30
0.0
 10
-33.6114
 20
26.9125
 30
0.0
 10
-33.8462
 20
27.1471
 30
0.0
 10
-33.8462
 20
27.4366
 30
0.0
  0
SPLINE
  5
B0
330
1F
100
AcDbEntity
  8
AXIS
 62
   250
100
AcDbSpline
210
0.0
220
0.0
230
1.0
 70
     8
 71
     3
 72
     8
 73
     4
 74
     0
 42
0.0000000001
 43
0.0000000001
 40
0.0
 40
0.0
 40
0.0
 40
0.0
 40
1.0
 40
1.0
 40
1.0
 40
1.0
 10
-20.7422
 20
27.4366
 30
0.0
 10
-20.7422
 20
27.1471
 30
0.0
 10
-20.9769
 20
26.9125
 30
0.0
 10
-21.2662
 20
26.9125
 30
0.0
  0
SPLINE
  5
B1
330
1F
100
AcDbEntity
  8
AXIS
 62
   250
100
AcDbSpline
210
0.0
220
0.0
230
1.0
 70
    11
 71
     3
 72
    28
 73
    24
 74
     0
 42
0.0000000001
 43
0.0000000001
 40
0.0
 40
0.0
 40
0.0
 40
0.0
 40
0.1428571428571428
 40
0.1428571428571428
 40
0.1428571428571428
 40
0.1428571428571428
 40
0.2857142857142857
 40
0.2857142857142857
 40
0.2857142857142857
 40
0.2857142857142857
 40
0.4285714285714285
 40
0.4285714285714285
 40
0.4285714285714285
 40
0.4285714285714285
 40
0.5714285714285714
 40
0.5714285714285714
 40
0.5714285714285714
 40
0.5714285714285714
 40
0.7142857142857143
 40
0.7142857142857143
 40
0.7142857142857143
 40
0.7142857142857143
 40
1.0
 40
1.0
 40
1.0
 40
1.0
 10
-20.7422
 20
27.4366
 30
0.0
 10
-20.7422
 20
27.4366
 30
0.0
 10
-20.7422
 20
30.5815
 30
0.0
 10
-20.7422
 20
30.5815
 30
0.0
 10
-20.7422
 20
30.5815
 30
0.0
 10
-20.7422
 20
30.5815
 30
0.0
 10
-33.8462
 20
30.5815
 30
0.0
 10
-33.8462
 20
30.5815
 30
0.0
 10
-33.8462
 20
30.5815
 30
0.0
 10
-33.8462
 20
30.5815
 30
0.0
 10
-33.8462
 20
27.4366
 30
0.0
 10
-33.8462
 20
27.4366
 30
0.0
 10
-33.8462
 20
27.4366
 30
0.0
 10
-33.8462
 20
27.4366
 30
0.0
 10
-33.8462
 20
30.5815
 30
0.0
 10
-33.8462
 20
30.5815
 30
0.0
 10
-33.8462
 20
30.5815
 30
0.0
 10
-33.8462
 20
30.5815
 30
0.0
 10
-20.7422
 20
30.5815
 30
0.0
 10
-20.7422
 20
30.5815
 30
0.0
 10
-20.7422
 20
30.5815
 30
0.0
 10
-20.7422
 20
30.5815
 30
0.0
 10
-20.7422
 20
27.4366
 30
0.0
 10
-20.7422
 20
27.4366
 30
0.0
  0
SPLINE
  5
B2
330
1F
100
AcDbEntity
  8
AXIS
 62
   250
100
AcDbSpline
210
0.0
220
0.0
230
1.0
 70
    27
 71
     3
 72
    16
 73
    12
 74
     0
 42
0.0000000001
 43
0.0000000001
 40
0.0
 40
0.0
 40
0.0
 40
0.0
 40
0.25
 40
0.25
 40
0.25
 40
0.25
 40
0.5
 40
0.5
 40
0.5
 40
0.5
 40
1.0
 40
1.0
 40
1.0
 40
1.0
 10
-21.2662
 20
26.9125
 30
0.0
 10
-21.2662
 20
26.9125
 30
0.0
 10
-33.222
 20
26.9125
 30
0.0
 10
-33.222
 20
26.9125
 30
0.0
 10
-33.222
 20
26.9125
 30
0.0
 10
-33.222
 20
26.9125
 30
0.0
 10
-33.322
 20
26.9125
 30
0.0
 10
-33.322
 20
26.9125
 30
0.0
 10
-33.322
 20
26.9125
 30
0.0
 10
-33.322
 20
26.9125
 30
0.0
 10
-21.2662
 20
26.9125
 30
0.0
 10
-21.2662
 20
26.9125
 30
0.0
  0
SPLINE
  5
B3
330
1F
100
AcDbEntity
  8
AXIS
 62
   250
100
AcDbSpline
210
0.0
220
0.0
230
1.0
 70
    27
 71
     3
 72
    12
 73
     8
 74
     0
 42
0.0000000001
 43
0.0000000001
 40
0.0
 40
0.0
 40
0.0
 40
0.0
 40
0.3333333333333333
 40
0.3333333333333333
 40
0.3333333333333333
 40
0.3333333333333333
 40
1.0
 40
1.0
 40
1.0
 40
1.0
 10
-23.1411
 20
26.9125
 30
0.0
 10
-23.1411
 20
26.9125
 30
0.0
 10
-23.1768
 20
6.47
 30
0.0
 10
-23.1768
 20
6.47
 30
0.0
 10
-23.1768
 20
6.47
 30
0.0
 10
-23.1768
 20
6.47
 30
0.0
 10
-23.1411
 20
26.9125
 30
0.0
 10
-23.1411
 20
26.9125
 30
0.0
  0
SPLINE
  5
B4
330
1F
100
AcDbEntity
  8
AXIS
 62
   250
100
AcDbSpline
210
0.0
220
0.0
230
1.0
 70
    27
 71
     3
 72
    12
 73
     8
 74
     0
 42
0.0000000001
 43
0.0000000001
 40
0.0
 40
0.0
 40
0.0
 40
0.0
 40
0.3333333333333333
 40
0.3333333333333333
 40
0.3333333333333333
 40
0.3333333333333333
 40
1.0
 40
1.0
 40
1.0
 40
1.0
 10
-31.4472
 20
26.9125
 30
0.0
 10
-31.4472
 20
26.9125
 30
0.0
 10
-31.4115
 20
6.47
 30
0.0
 10
-31.4115
 20
6.47
 30
0.0
 10
-31.4115
 20
6.47
 30
0.0
 10
-31.4115
 20
6.47
 30
0.0
 10
-31.4472
 20
26.9125
 30
0.0
 10
-31.4472
 20
26.9125
 30
0.0
  0
SPLINE
  5
B5
330
1F
100
AcDbEntity
  8
AXIS
  6
NEW_LINE1
 62
   250
100
AcDbSpline
210
0.0
220
0.0
230
1.0
 70
    24
 71
     3
 72
     8
 73
     4
 74
     0
 42
0.0000000001
 43
0.0000000001
 40
0.0
 40
0.0
 40
0.0
 40
0.0
 40
1.0
 40
1.0
 40
1.0
 40
1.0
 10
-27.2942
 20
31.5148
 30
0.0
 10
-27.2942
 20
31.5148
 30
0.0
 10
-27.2942
 20
-28.8304
 30
0.0
 10
-27.2942
 20
-28.8304
 30
0.0
  0
SPLINE
  5
B7
330
1F
100
AcDbEntity
  8
AXIS
  6
NEW_LINE2
 62
   250
100
AcDbSpline
210
0.0
220
0.0
230
1.0
 70
    24
 71
     3
 72
     8
 73
     4
 74
     0
 42
0.0000000001
 43
0.0000000001
 40
0.0
 40
0.0
 40
0.0
 40
0.0
 40
1.0
 40
1.0
 40
1.0
 40
1.0
 10
-28.3392
 20
-4.4802
 30
0.0
 10
-28.3392
 20
-4.4802
 30
0.0
 10
39.2858
 20
-4.4802
 30
0.0
 10
39.2858
 20
-4.4802
 30
0.0
  0
SPLINE
  5
B9
330
1F
100
AcDbEntity
  8
AXIS
 62
   250
100
AcDbSpline
210
0.0
220
0.0
230
1.0
 70
    11
 71
     3
 72
    68
 73
    64
 74
     0
 42
0.0000000001
 43
0.0000000001
 40
0.0
 40
0.0
 40
0.0
 40
0.0
 40
0.0588235294117647
 40
0.0588235294117647
 40
0.0588235294117647
 40
0.0588235294117647
 40
0.1176470588235294
 40
0.1176470588235294
 40
0.1176470588235294
 40
0.1176470588235294
 40
0.1764705882352941
 40
0.1764705882352941
 40
0.1764705882352941
 40
0.1764705882352941
 40
0.2352941176470588
 40
0.2352941176470588
 40
0.2352941176470588
 40
0.2352941176470588
 40
0.2941176470588235
 40
0.2941176470588235
 40
0.2941176470588235
 40
0.2941176470588235
 40
0.3529411764705883
 40
0.3529411764705883
 40
0.3529411764705883
 40
0.3529411764705883
 40
0.4117647058823529
 40
0.4117647058823529
 40
0.4117647058823529
 40
0.4117647058823529
 40
0.4705882352941176
 40
0.4705882352941176
 40
0.4705882352941176
 40
0.4705882352941176
 40
0.5294117647058824
 40
0.5294117647058824
 40
0.5294117647058824
 40
0.5294117647058824
 40
0.5882352941176471
 40
0.5882352941176471
 40
0.5882352941176471
 40
0.5882352941176471
 40
0.6470588235294118
 40
0.6470588235294118
 40
0.6470588235294118
 40
0.6470588235294118
 40
0.7058823529411765
 40
0.7058823529411765
 40
0.7058823529411765
 40
0.7058823529411765
 40
0.7647058823529411
 40
0.7647058823529411
 40
0.7647058823529411
 40
0.7647058823529411
 40
0.8235294117647058
 40
0.8235294117647058
 40
0.8235294117647058
 40
0.8235294117647058
 40
0.8823529411764706
 40
0.8823529411764706
 40
0.8823529411764706
 40
0.8823529411764706
 40
1.0
 40
1.0
 40
1.0
 40
1.0
 10
-43.4954
 20
-16.7327
 30
0.0
 10
-43.533
 20
-16.8358
 30
0.0
 10
-43.5866
 20
-16.912
 30
0.0
 10
-43.6567
 20
-16.9618
 30
0.0
 10
-43.6567
 20
-16.9618
 30
0.0
 10
-43.7263
 20
-17.0112
 30
0.0
 10
-43.8101
 20
-17.0361
 30
0.0
 10
-43.9074
 20
-17.0361
 30
0.0
 10
-43.9074
 20
-17.0361
 30
0.0
 10
-44.0546
 20
-17.0361
 30
0.0
 10
-44.1779
 20
-16.9834
 30
0.0
 10
-44.2781
 20
-16.8776
 30
0.0
 10
-44.2781
 20
-16.8776
 30
0.0
 10
-44.3783
 20
-16.7718
 30
0.0
 10
-44.4286
 20
-16.6316
 30
0.0
 10
-44.4286
 20
-16.4562
 30
0.0
 10
-44.4286
 20
-16.4562
 30
0.0
 10
-44.4286
 20
-16.2798
 30
0.0
 10
-44.3773
 20
-16.1377
 30
0.0
 10
-44.2748
 20
-16.03
 30
0.0
 10
-44.2748
 20
-16.03
 30
0.0
 10
-44.1722
 20
-15.9228
 30
0.0
 10
-44.0476
 20
-15.8691
 30
0.0
 10
-43.9004
 20
-15.8691
 30
0.0
 10
-43.9004
 20
-15.8691
 30
0.0
 10
-43.8068
 20
-15.8691
 30
0.0
 10
-43.7254
 20
-15.8936
 30
0.0
 10
-43.6558
 20
-15.9425
 30
0.0
 10
-43.6558
 20
-15.9425
 30
0.0
 10
-43.5866
 20
-15.9919
 30
0.0
 10
-43.533
 20
-16.0662
 30
0.0
 10
-43.4954
 20
-16.1664
 30
0.0
 10
-43.4954
 20
-16.1664
 30
0.0
 10
-43.4549
 20
-16.0427
 30
0.0
 10
-43.39
 20
-15.9482
 30
0.0
 10
-43.2997
 20
-15.8833
 30
0.0
 10
-43.2997
 20
-15.8833
 30
0.0
 10
-43.2099
 20
-15.8188
 30
0.0
 10
-43.1022
 20
-15.7864
 30
0.0
 10
-42.9775
 20
-15.7864
 30
0.0
 10
-42.9775
 20
-15.7864
 30
0.0
 10
-42.8044
 20
-15.7864
 30
0.0
 10
-42.6595
 20
-15.8475
 30
0.0
 10
-42.542
 20
-15.9693
 30
0.0
 10
-42.542
 20
-15.9693
 30
0.0
 10
-42.4244
 20
-16.0916
 30
0.0
 10
-42.3656
 20
-16.2525
 30
0.0
 10
-42.3656
 20
-16.4519
 30
0.0
 10
-42.3656
 20
-16.4519
 30
0.0
 10
-42.3656
 20
-16.6514
 30
0.0
 10
-42.4244
 20
-16.8118
 30
0.0
 10
-42.5424
 20
-16.9341
 30
0.0
 10
-42.5424
 20
-16.9341
 30
0.0
 10
-42.6605
 20
-17.0564
 30
0.0
 10
-42.8077
 20
-17.1175
 30
0.0
 10
-42.9841
 20
-17.1175
 30
0.0
 10
-42.9841
 20
-17.1175
 30
0.0
 10
-43.1153
 20
-17.1175
 30
0.0
 10
-43.2254
 20
-17.0841
 30
0.0
 10
-43.3143
 20
-17.0173
 30
0.0
 10
-43.3143
 20
-17.0173
 30
0.0
 10
-43.4027
 20
-16.951
 30
0.0
 10
-43.4634
 20
-16.856
 30
0.0
 10
-43.4954
 20
-16.7327
 30
0.0
  0
SPLINE
  5
BA
330
1F
100
AcDbEntity
  8
AXIS
 62
   250
100
AcDbSpline
210
0.0
220
0.0
230
1.0
 70
    11
 71
     3
 72
    36
 73
    32
 74
     0
 42
0.0000000001
 43
0.0000000001
 40
0.0
 40
0.0
 40
0.0
 40
0.0
 40
0.1111111111111111
 40
0.1111111111111111
 40
0.1111111111111111
 40
0.1111111111111111
 40
0.2222222222222222
 40
0.2222222222222222
 40
0.2222222222222222
 40
0.2222222222222222
 40
0.3333333333333333
 40
0.3333333333333333
 40
0.3333333333333333
 40
0.3333333333333333
 40
0.4444444444444444
 40
0.4444444444444444
 40
0.4444444444444444
 40
0.4444444444444444
 40
0.5555555555555556
 40
0.5555555555555556
 40
0.5555555555555556
 40
0.5555555555555556
 40
0.6666666666666666
 40
0.6666666666666666
 40
0.6666666666666666
 40
0.6666666666666666
 40
0.7777777777777778
 40
0.7777777777777778
 40
0.7777777777777778
 40
0.7777777777777778
 40
1.0
 40
1.0
 40
1.0
 40
1.0
 10
-43.9159
 20
-16.7826
 30
0.0
 10
-43.8204
 20
-16.7826
 30
0.0
 10
-43.7423
 20
-16.7516
 30
0.0
 10
-43.6816
 20
-16.6904
 30
0.0
 10
-43.6816
 20
-16.6904
 30
0.0
 10
-43.621
 20
-16.6288
 30
0.0
 10
-43.5904
 20
-16.5488
 30
0.0
 10
-43.5904
 20
-16.4505
 30
0.0
 10
-43.5904
 20
-16.4505
 30
0.0
 10
-43.5904
 20
-16.355
 30
0.0
 10
-43.6205
 20
-16.2765
 30
0.0
 10
-43.6807
 20
-16.2153
 30
0.0
 10
-43.6807
 20
-16.2153
 30
0.0
 10
-43.7409
 20
-16.1542
 30
0.0
 10
-43.8148
 20
-16.1241
 30
0.0
 10
-43.9018
 20
-16.1241
 30
0.0
 10
-43.9018
 20
-16.1241
 30
0.0
 10
-43.993
 20
-16.1241
 30
0.0
 10
-44.0692
 20
-16.1551
 30
0.0
 10
-44.1313
 20
-16.2182
 30
0.0
 10
-44.1313
 20
-16.2182
 30
0.0
 10
-44.1934
 20
-16.2812
 30
0.0
 10
-44.2245
 20
-16.3593
 30
0.0
 10
-44.2245
 20
-16.4533
 30
0.0
 10
-44.2245
 20
-16.4533
 30
0.0
 10
-44.2245
 20
-16.5479
 30
0.0
 10
-44.1939
 20
-16.6264
 30
0.0
 10
-44.1337
 20
-16.689
 30
0.0
 10
-44.1337
 20
-16.689
 30
0.0
 10
-44.073
 20
-16.7516
 30
0.0
 10
-44.0001
 20
-16.7826
 30
0.0
 10
-43.9159
 20
-16.7826
 30
0.0
  0
SPLINE
  5
BB
330
1F
100
AcDbEntity
  8
AXIS
 62
   250
100
AcDbSpline
210
0.0
220
0.0
230
1.0
 70
    11
 71
     3
 72
    40
 73
    36
 74
     0
 42
0.0000000001
 43
0.0000000001
 40
0.0
 40
0.0
 40
0.0
 40
0.0
 40
0.1
 40
0.1
 40
0.1
 40
0.1
 40
0.2
 40
0.2
 40
0.2
 40
0.2
 40
0.3
 40
0.3
 40
0.3
 40
0.3
 40
0.4
 40
0.4
 40
0.4
 40
0.4
 40
0.5
 40
0.5
 40
0.5
 40
0.5
 40
0.6
 40
0.6
 40
0.6
 40
0.6
 40
0.7
 40
0.7
 40
0.7
 40
0.7
 40
0.8
 40
0.8
 40
0.8
 40
0.8
 40
1.0
 40
1.0
 40
1.0
 40
1.0
 10
-42.9827
 20
-16.8626
 30
0.0
 10
-42.9121
 20
-16.8626
 30
0.0
 10
-42.8435
 20
-16.8456
 30
0.0
 10
-42.7776
 20
-16.8122
 30
0.0
 10
-42.7776
 20
-16.8122
 30
0.0
 10
-42.7113
 20
-16.7788
 30
0.0
 10
-42.66
 20
-16.729
 30
0.0
 10
-42.6238
 20
-16.6627
 30
0.0
 10
-42.6238
 20
-16.6627
 30
0.0
 10
-42.5876
 20
-16.5963
 30
0.0
 10
-42.5692
 20
-16.5253
 30
0.0
 10
-42.5692
 20
-16.4491
 30
0.0
 10
-42.5692
 20
-16.4491
 30
0.0
 10
-42.5692
 20
-16.3306
 30
0.0
 10
-42.6073
 20
-16.2327
 30
0.0
 10
-42.684
 20
-16.1556
 30
0.0
 10
-42.684
 20
-16.1556
 30
0.0
 10
-42.7602
 20
-16.0785
 30
0.0
 10
-42.8571
 20
-16.0399
 30
0.0
 10
-42.9747
 20
-16.0399
 30
0.0
 10
-42.9747
 20
-16.0399
 30
0.0
 10
-43.0942
 20
-16.0399
 30
0.0
 10
-43.1929
 20
-16.0794
 30
0.0
 10
-43.271
 20
-16.1589
 30
0.0
 10
-43.271
 20
-16.1589
 30
0.0
 10
-43.3491
 20
-16.2384
 30
0.0
 10
-43.3881
 20
-16.3381
 30
0.0
 10
-43.3881
 20
-16.4576
 30
0.0
 10
-43.3881
 20
-16.4576
 30
0.0
 10
-43.3881
 20
-16.5742
 30
0.0
 10
-43.3496
 20
-16.6707
 30
0.0
 10
-43.2724
 20
-16.7473
 30
0.0
 10
-43.2724
 20
-16.7473
 30
0.0
 10
-43.1948
 20
-16.824
 30
0.0
 10
-43.0984
 20
-16.8626
 30
0.0
 10
-42.9827
 20
-16.8626
 30
0.0
  0
SPLINE
  5
BC
330
1F
100
AcDbEntity
  8
AXIS
 62
   250
100
AcDbSpline
210
0.0
220
0.0
230
1.0
 70
    11
 71
     3
 72
    52
 73
    48
 74
     0
 42
0.0000000001
 43
0.0000000001
 40
0.0
 40
0.0
 40
0.0
 40
0.0
 40
0.0769230769230769
 40
0.0769230769230769
 40
0.0769230769230769
 40
0.0769230769230769
 40
0.1538461538461539
 40
0.1538461538461539
 40
0.1538461538461539
 40
0.1538461538461539
 40
0.2307692307692308
 40
0.2307692307692308
 40
0.2307692307692308
 40
0.2307692307692308
 40
0.3076923076923077
 40
0.3076923076923077
 40
0.3076923076923077
 40
0.3076923076923077
 40
0.3846153846153846
 40
0.3846153846153846
 40
0.3846153846153846
 40
0.3846153846153846
 40
0.4615384615384616
 40
0.4615384615384616
 40
0.4615384615384616
 40
0.4615384615384616
 40
0.5384615384615384
 40
0.5384615384615384
 40
0.5384615384615384
 40
0.5384615384615384
 40
0.6153846153846154
 40
0.6153846153846154
 40
0.6153846153846154
 40
0.6153846153846154
 40
0.6923076923076923
 40
0.6923076923076923
 40
0.6923076923076923
 40
0.6923076923076923
 40
0.7692307692307693
 40
0.7692307692307693
 40
0.7692307692307693
 40
0.7692307692307693
 40
0.8461538461538461
 40
0.8461538461538461
 40
0.8461538461538461
 40
0.8461538461538461
 40
1.0
 40
1.0
 40
1.0
 40
1.0
 10
-43.3961
 20
-15.5451
 30
0.0
 10
-43.6351
 20
-15.5451
 30
0.0
 10
-43.8275
 20
-15.5206
 30
0.0
 10
-43.9728
 20
-15.4712
 30
0.0
 10
-43.9728
 20
-15.4712
 30
0.0
 10
-44.1186
 20
-15.4223
 30
0.0
 10
-44.231
 20
-15.3489
 30
0.0
 10
-44.3101
 20
-15.252
 30
0.0
 10
-44.3101
 20
-15.252
 30
0.0
 10
-44.3891
 20
-15.1551
 30
0.0
 10
-44.4286
 20
-15.0333
 30
0.0
 10
-44.4286
 20
-14.8866
 30
0.0
 10
-44.4286
 20
-14.8866
 30
0.0
 10
-44.4286
 20
-14.7779
 30
0.0
 10
-44.4065
 20
-14.6829
 30
0.0
 10
-44.3627
 20
-14.6011
 30
0.0
 10
-44.3627
 20
-14.6011
 30
0.0
 10
-44.3195
 20
-14.5192
 30
0.0
 10
-44.2564
 20
-14.4519
 30
0.0
 10
-44.1741
 20
-14.3983
 30
0.0
 10
-44.1741
 20
-14.3983
 30
0.0
 10
-44.0918
 20
-14.3452
 30
0.0
 10
-43.9916
 20
-14.3033
 30
0.0
 10
-43.8736
 20
-14.2732
 30
0.0
 10
-43.8736
 20
-14.2732
 30
0.0
 10
-43.7555
 20
-14.2426
 30
0.0
 10
-43.5965
 20
-14.2276
 30
0.0
 10
-43.3961
 20
-14.2276
 30
0.0
 10
-43.3961
 20
-14.2276
 30
0.0
 10
-43.1591
 20
-14.2276
 30
0.0
 10
-42.9681
 20
-14.252
 30
0.0
 10
-42.8223
 20
-14.3005
 30
0.0
 10
-42.8223
 20
-14.3005
 30
0.0
 10
-42.6765
 20
-14.3494
 30
0.0
 10
-42.5641
 20
-14.4223
 30
0.0
 10
-42.4846
 20
-14.5192
 30
0.0
 10
-42.4846
 20
-14.5192
 30
0.0
 10
-42.4051
 20
-14.6161
 30
0.0
 10
-42.3656
 20
-14.7384
 30
0.0
 10
-42.3656
 20
-14.8866
 30
0.0
 10
-42.3656
 20
-14.8866
 30
0.0
 10
-42.3656
 20
-15.0813
 30
0.0
 10
-42.4352
 20
-15.2342
 30
0.0
 10
-42.5749
 20
-15.3452
 30
0.0
 10
-42.5749
 20
-15.3452
 30
0.0
 10
-42.7428
 20
-15.4783
 30
0.0
 10
-43.017
 20
-15.5451
 30
0.0
 10
-43.3961
 20
-15.5451
 30
0.0
  0
SPLINE
  5
BD
330
1F
100
AcDbEntity
  8
AXIS
 62
   250
100
AcDbSpline
210
0.0
220
0.0
230
1.0
 70
    11
 71
     3
 72
    36
 73
    32
 74
     0
 42
0.0000000001
 43
0.0000000001
 40
0.0
 40
0.0
 40
0.0
 40
0.0
 40
0.1111111111111111
 40
0.1111111111111111
 40
0.1111111111111111
 40
0.1111111111111111
 40
0.2222222222222222
 40
0.2222222222222222
 40
0.2222222222222222
 40
0.2222222222222222
 40
0.3333333333333333
 40
0.3333333333333333
 40
0.3333333333333333
 40
0.3333333333333333
 40
0.4444444444444444
 40
0.4444444444444444
 40
0.4444444444444444
 40
0.4444444444444444
 40
0.5555555555555556
 40
0.5555555555555556
 40
0.5555555555555556
 40
0.5555555555555556
 40
0.6666666666666666
 40
0.6666666666666666
 40
0.6666666666666666
 40
0.6666666666666666
 40
0.7777777777777778
 40
0.7777777777777778
 40
0.7777777777777778
 40
0.7777777777777778
 40
1.0
 40
1.0
 40
1.0
 40
1.0
 10
-43.3961
 20
-15.2901
 30
0.0
 10
-43.0645
 20
-15.2901
 30
0.0
 10
-42.8439
 20
-15.2511
 30
0.0
 10
-42.7339
 20
-15.1735
 30
0.0
 10
-42.7339
 20
-15.1735
 30
0.0
 10
-42.6243
 20
-15.0959
 30
0.0
 10
-42.5692
 20
-15.0004
 30
0.0
 10
-42.5692
 20
-14.8866
 30
0.0
 10
-42.5692
 20
-14.8866
 30
0.0
 10
-42.5692
 20
-14.7723
 30
0.0
 10
-42.6247
 20
-14.6768
 30
0.0
 10
-42.7348
 20
-14.5992
 30
0.0
 10
-42.7348
 20
-14.5992
 30
0.0
 10
-42.8449
 20
-14.5216
 30
0.0
 10
-43.0655
 20
-14.4825
 30
0.0
 10
-43.3961
 20
-14.4825
 30
0.0
 10
-43.3961
 20
-14.4825
 30
0.0
 10
-43.7287
 20
-14.4825
 30
0.0
 10
-43.9498
 20
-14.5216
 30
0.0
 10
-44.0589
 20
-14.5992
 30
0.0
 10
-44.0589
 20
-14.5992
 30
0.0
 10
-44.1685
 20
-14.6768
 30
0.0
 10
-44.223
 20
-14.7732
 30
0.0
 10
-44.223
 20
-14.8889
 30
0.0
 10
-44.223
 20
-14.8889
 30
0.0
 10
-44.223
 20
-15.0032
 30
0.0
 10
-44.1746
 20
-15.094
 30
0.0
 10
-44.0782
 20
-15.1622
 30
0.0
 10
-44.0782
 20
-15.1622
 30
0.0
 10
-43.9554
 20
-15.2473
 30
0.0
 10
-43.7277
 20
-15.2901
 30
0.0
 10
-43.3961
 20
-15.2901
 30
0.0
  0
SPLINE
  5
BE
330
1F
100
AcDbEntity
  8
AXIS
 62
   250
100
AcDbSpline
210
0.0
220
0.0
230
1.0
 70
    24
 71
     3
 72
     8
 73
     4
 74
     0
 42
0.0000000001
 43
0.0000000001
 40
0.0
 40
0.0
 40
0.0
 40
0.0
 40
1.0
 40
1.0
 40
1.0
 40
1.0
 10
-42.0658
 20
-4.9776
 30
0.0
 10
-42.0658
 20
-4.9776
 30
0.0
 10
-42.0658
 20
-27.9341
 30
0.0
 10
-42.0658
 20
-27.9341
 30
0.0
  0
SPLINE
  5
BF
330
1F
100
AcDbEntity
  8
AXIS
 62
   250
100
AcDbSpline
210
0.0
220
0.0
230
1.0
 70
    11
 71
     3
 72
    20
 73
    16
 74
     0
 42
0.0000000001
 43
0.0000000001
 40
0.0
 40
0.0
 40
0.0
 40
0.0
 40
0.2
 40
0.2
 40
0.2
 40
0.2
 40
0.4
 40
0.4
 40
0.4
 40
0.4
 40
0.6
 40
0.6
 40
0.6
 40
0.6
 40
1.0
 40
1.0
 40
1.0
 40
1.0
 10
-42.5499
 20
-24.9968
 30
0.0
 10
-42.5499
 20
-24.9968
 30
0.0
 10
-42.1265
 20
-27.9968
 30
0.0
 10
-42.1265
 20
-27.9968
 30
0.0
 10
-42.1265
 20
-27.9968
 30
0.0
 10
-42.1265
 20
-27.9968
 30
0.0
 10
-42.0325
 20
-27.9968
 30
0.0
 10
-42.0325
 20
-27.9968
 30
0.0
 10
-42.0325
 20
-27.9968
 30
0.0
 10
-42.0325
 20
-27.9968
 30
0.0
 10
-41.5809
 20
-24.9968
 30
0.0
 10
-41.5809
 20
-24.9968
 30
0.0
 10
-41.5809
 20
-24.9968
 30
0.0
 10
-41.5809
 20
-24.9968
 30
0.0
 10
-42.5499
 20
-24.9968
 30
0.0
 10
-42.5499
 20
-24.9968
 30
0.0
  0
SPLINE
  5
C0
330
1F
100
AcDbEntity
  8
AXIS
 62
   250
100
AcDbSpline
210
0.0
220
0.0
230
1.0
 70
    11
 71
     3
 72
    20
 73
    16
 74
     0
 42
0.0000000001
 43
0.0000000001
 40
0.0
 40
0.0
 40
0.0
 40
0.0
 40
0.2
 40
0.2
 40
0.2
 40
0.2
 40
0.4
 40
0.4
 40
0.4
 40
0.4
 40
0.6
 40
0.6
 40
0.6
 40
0.6
 40
1.0
 40
1.0
 40
1.0
 40
1.0
 10
-41.6109
 20
-7.553
 30
0.0
 10
-41.6109
 20
-7.553
 30
0.0
 10
-42.0342
 20
-4.553
 30
0.0
 10
-42.0342
 20
-4.553
 30
0.0
 10
-42.0342
 20
-4.553
 30
0.0
 10
-42.0342
 20
-4.553
 30
0.0
 10
-42.1283
 20
-4.553
 30
0.0
 10
-42.1283
 20
-4.553
 30
0.0
 10
-42.1283
 20
-4.553
 30
0.0
 10
-42.1283
 20
-4.553
 30
0.0
 10
-42.5798
 20
-7.553
 30
0.0
 10
-42.5798
 20
-7.553
 30
0.0
 10
-42.5798
 20
-7.553
 30
0.0
 10
-42.5798
 20
-7.553
 30
0.0
 10
-41.6109
 20
-7.553
 30
0.0
 10
-41.6109
 20
-7.553
 30
0.0
  0
SPLINE
  5
C1
330
1F
100
AcDbEntity
  8
AXIS
 62
   250
100
AcDbSpline
210
0.0
220
0.0
230
1.0
 70
    24
 71
     3
 72
     8
 73
     4
 74
     0
 42
0.0000000001
 43
0.0000000001
 40
0.0
 40
0.0
 40
0.0
 40
0.0
 40
1.0
 40
1.0
 40
1.0
 40
1.0
 10
-28.7563
 20
-4.4788
 30
0.0
 10
-28.7563
 20
-4.4788
 30
0.0
 10
-36.4404
 20
-4.4788
 30
0.0
 10
-36.4404
 20
-4.4788
 30
0.0
  0
SPLINE
  5
C2
330
1F
100
AcDbEntity
  8
AXIS
 62
   250
100
AcDbSpline
210
0.0
220
0.0
230
1.0
 70
    24
 71
     3
 72
     8
 73
     4
 74
     0
 42
0.0000000001
 43
0.0000000001
 40
0.0
 40
0.0
 40
0.0
 40
0.0
 40
1.0
 40
1.0
 40
1.0
 40
1.0
 10
-42.0654
 20
30.3454
 30
0.0
 10
-42.0654
 20
30.3454
 30
0.0
 10
-42.0654
 20
-4.421
 30
0.0
 10
-42.0654
 20
-4.421
 30
0.0
  0
SPLINE
  5
C3
330
1F
100
AcDbEntity
  8
AXIS
 62
   250
100
AcDbSpline
210
0.0
220
0.0
230
1.0
 70
    24
 71
     3
 72
     8
 73
     4
 74
     0
 42
0.0000000001
 43
0.0000000001
 40
0.0
 40
0.0
 40
0.0
 40
0.0
 40
1.0
 40
1.0
 40
1.0
 40
1.0
 10
-34.1038
 20
6.4712
 30
0.0
 10
-34.1038
 20
6.4712
 30
0.0
 10
-38.3805
 20
6.4712
 30
0.0
 10
-38.3805
 20
6.4712
 30
0.0
  0
SPLINE
  5
C4
330
1F
100
AcDbEntity
  8
AXIS
 62
   250
100
AcDbSpline
210
0.0
220
0.0
230
1.0
 70
    24
 71
     3
 72
     8
 73
     4
 74
     0
 42
0.0000000001
 43
0.0000000001
 40
0.0
 40
0.0
 40
0.0
 40
0.0
 40
1.0
 40
1.0
 40
1.0
 40
1.0
 10
-38.1642
 20
-4.4788
 30
0.0
 10
-38.1642
 20
-4.4788
 30
0.0
 10
-42.7142
 20
-4.4788
 30
0.0
 10
-42.7142
 20
-4.4788
 30
0.0
  0
SPLINE
  5
C5
330
1F
100
AcDbEntity
  8
AXIS
 62
   250
100
AcDbSpline
210
0.0
220
0.0
230
1.0
 70
    11
 71
     3
 72
    40
 73
    36
 74
     0
 42
0.0000000001
 43
0.0000000001
 40
0.0
 40
0.0
 40
0.0
 40
0.0
 40
0.1
 40
0.1
 40
0.1
 40
0.1
 40
0.2
 40
0.2
 40
0.2
 40
0.2
 40
0.3
 40
0.3
 40
0.3
 40
0.3
 40
0.4
 40
0.4
 40
0.4
 40
0.4
 40
0.5
 40
0.5
 40
0.5
 40
0.5
 40
0.6
 40
0.6
 40
0.6
 40
0.6
 40
0.7
 40
0.7
 40
0.7
 40
0.7
 40
0.8
 40
0.8
 40
0.8
 40
0.8
 40
1.0
 40
1.0
 40
1.0
 40
1.0
 10
-37.8471
 20
20.6978
 30
0.0
 10
-37.8471
 20
20.6978
 30
0.0
 10
-37.8471
 20
20.4499
 30
0.0
 10
-37.8471
 20
20.4499
 30
0.0
 10
-37.8471
 20
20.4499
 30
0.0
 10
-37.8471
 20
20.4499
 30
0.0
 10
-39.4275
 20
20.4499
 30
0.0
 10
-39.4275
 20
20.4499
 30
0.0
 10
-39.4275
 20
20.4499
 30
0.0
 10
-39.3706
 20
20.3901
 30
0.0
 10
-39.3137
 20
20.3121
 30
0.0
 10
-39.2568
 20
20.2152
 30
0.0
 10
-39.2568
 20
20.2152
 30
0.0
 10
-39.1999
 20
20.1178
 30
0.0
 10
-39.1571
 20
20.0308
 30
0.0
 10
-39.1288
 20
19.9536
 30
0.0
 10
-39.1288
 20
19.9536
 30
0.0
 10
-39.1288
 20
19.9536
 30
0.0
 10
-39.3683
 20
19.9536
 30
0.0
 10
-39.3683
 20
19.9536
 30
0.0
 10
-39.3683
 20
19.9536
 30
0.0
 10
-39.4336
 20
20.0924
 30
0.0
 10
-39.5127
 20
20.2138
 30
0.0
 10
-39.6053
 20
20.3177
 30
0.0
 10
-39.6053
 20
20.3177
 30
0.0
 10
-39.6985
 20
20.4212
 30
0.0
 10
-39.7883
 20
20.495
 30
0.0
 10
-39.8758
 20
20.5383
 30
0.0
 10
-39.8758
 20
20.5383
 30
0.0
 10
-39.8758
 20
20.5383
 30
0.0
 10
-39.8758
 20
20.6978
 30
0.0
 10
-39.8758
 20
20.6978
 30
0.0
 10
-39.8758
 20
20.6978
 30
0.0
 10
-39.8758
 20
20.6978
 30
0.0
 10
-37.8471
 20
20.6978
 30
0.0
 10
-37.8471
 20
20.6978
 30
0.0
  0
SPLINE
  5
C6
330
1F
100
AcDbEntity
  8
AXIS
 62
   250
100
AcDbSpline
210
0.0
220
0.0
230
1.0
 70
    11
 71
     3
 72
    92
 73
    88
 74
     0
 42
0.0000000001
 43
0.0000000001
 40
0.0
 40
0.0
 40
0.0
 40
0.0
 40
0.0434782608695652
 40
0.0434782608695652
 40
0.0434782608695652
 40
0.0434782608695652
 40
0.0869565217391304
 40
0.0869565217391304
 40
0.0869565217391304
 40
0.0869565217391304
 40
0.1304347826086956
 40
0.1304347826086956
 40
0.1304347826086956
 40
0.1304347826086956
 40
0.1739130434782609
 40
0.1739130434782609
 40
0.1739130434782609
 40
0.1739130434782609
 40
0.2173913043478261
 40
0.2173913043478261
 40
0.2173913043478261
 40
0.2173913043478261
 40
0.2608695652173913
 40
0.2608695652173913
 40
0.2608695652173913
 40
0.2608695652173913
 40
0.3043478260869565
 40
0.3043478260869565
 40
0.3043478260869565
 40
0.3043478260869565
 40
0.3478260869565217
 40
0.3478260869565217
 40
0.3478260869565217
 40
0.3478260869565217
 40
0.391304347826087
 40
0.391304347826087
 40
0.391304347826087
 40
0.391304347826087
 40
0.4347826086956522
 40
0.4347826086956522
 40
0.4347826086956522
 40
0.4347826086956522
 40
0.4782608695652174
 40
0.4782608695652174
 40
0.4782608695652174
 40
0.4782608695652174
 40
0.5217391304347826
 40
0.5217391304347826
 40
0.5217391304347826
 40
0.5217391304347826
 40
0.5652173913043478
 40
0.5652173913043478
 40
0.5652173913043478
 40
0.5652173913043478
 40
0.6086956521739131
 40
0.6086956521739131
 40
0.6086956521739131
 40
0.6086956521739131
 40
0.6521739130434783
 40
0.6521739130434783
 40
0.6521739130434783
 40
0.6521739130434783
 40
0.6956521739130435
 40
0.6956521739130435
 40
0.6956521739130435
 40
0.6956521739130435
 40
0.7391304347826086
 40
0.7391304347826086
 40
0.7391304347826086
 40
0.7391304347826086
 40
0.782608695652174
 40
0.782608695652174
 40
0.782608695652174
 40
0.782608695652174
 40
0.8260869565217391
 40
0.8260869565217391
 40
0.8260869565217391
 40
0.8260869565217391
 40
0.8695652173913043
 40
0.8695652173913043
 40
0.8695652173913043
 40
0.8695652173913043
 40
0.9130434782608695
 40
0.9130434782608695
 40
0.9130434782608695
 40
0.9130434782608695
 40
1.0
 40
1.0
 40
1.0
 40
1.0
 10
-38.0856
 20
22.6371
 30
0.0
 10
-38.0856
 20
22.6371
 30
0.0
 10
-37.8471
 20
22.6371
 30
0.0
 10
-37.8471
 20
22.6371
 30
0.0
 10
-37.8471
 20
22.6371
 30
0.0
 10
-37.8471
 20
22.6371
 30
0.0
 10
-37.8471
 20
21.3017
 30
0.0
 10
-37.8471
 20
21.3017
 30
0.0
 10
-37.8471
 20
21.3017
 30
0.0
 10
-37.9068
 20
21.2998
 30
0.0
 10
-37.9642
 20
21.3092
 30
0.0
 10
-38.0193
 20
21.3304
 30
0.0
 10
-38.0193
 20
21.3304
 30
0.0
 10
-38.1105
 20
21.3643
 30
0.0
 10
-38.1999
 20
21.4188
 30
0.0
 10
-38.2883
 20
21.4936
 30
0.0
 10
-38.2883
 20
21.4936
 30
0.0
 10
-38.3763
 20
21.5689
 30
0.0
 10
-38.4783
 20
21.6771
 30
0.0
 10
-38.594
 20
21.8182
 30
0.0
 10
-38.594
 20
21.8182
 30
0.0
 10
-38.7742
 20
22.0378
 30
0.0
 10
-38.9167
 20
22.1865
 30
0.0
 10
-39.0221
 20
22.2636
 30
0.0
 10
-39.0221
 20
22.2636
 30
0.0
 10
-39.127
 20
22.3407
 30
0.0
 10
-39.2267
 20
22.3793
 30
0.0
 10
-39.3203
 20
22.3793
 30
0.0
 10
-39.3203
 20
22.3793
 30
0.0
 10
-39.4186
 20
22.3793
 30
0.0
 10
-39.5014
 20
22.344
 30
0.0
 10
-39.5691
 20
22.274
 30
0.0
 10
-39.5691
 20
22.274
 30
0.0
 10
-39.6364
 20
22.2034
 30
0.0
 10
-39.6702
 20
22.1117
 30
0.0
 10
-39.6702
 20
21.9988
 30
0.0
 10
-39.6702
 20
21.9988
 30
0.0
 10
-39.6702
 20
21.8793
 30
0.0
 10
-39.6345
 20
21.7838
 30
0.0
 10
-39.5625
 20
21.7123
 30
0.0
 10
-39.5625
 20
21.7123
 30
0.0
 10
-39.491
 20
21.6404
 30
0.0
 10
-39.3918
 20
21.6042
 30
0.0
 10
-39.2653
 20
21.6032
 30
0.0
 10
-39.2653
 20
21.6032
 30
0.0
 10
-39.2653
 20
21.6032
 30
0.0
 10
-39.2911
 20
21.3483
 30
0.0
 10
-39.2911
 20
21.3483
 30
0.0
 10
-39.2911
 20
21.3483
 30
0.0
 10
-39.4816
 20
21.3657
 30
0.0
 10
-39.6265
 20
21.4315
 30
0.0
 10
-39.7262
 20
21.5454
 30
0.0
 10
-39.7262
 20
21.5454
 30
0.0
 10
-39.8259
 20
21.6592
 30
0.0
 10
-39.8758
 20
21.8125
 30
0.0
 10
-39.8758
 20
22.0044
 30
0.0
 10
-39.8758
 20
22.0044
 30
0.0
 10
-39.8758
 20
22.1982
 30
0.0
 10
-39.8217
 20
22.3516
 30
0.0
 10
-39.7145
 20
22.4645
 30
0.0
 10
-39.7145
 20
22.4645
 30
0.0
 10
-39.6067
 20
22.5778
 30
0.0
 10
-39.4736
 20
22.6343
 30
0.0
 10
-39.3146
 20
22.6343
 30
0.0
 10
-39.3146
 20
22.6343
 30
0.0
 10
-39.2337
 20
22.6343
 30
0.0
 10
-39.1542
 20
22.6178
 30
0.0
 10
-39.0762
 20
22.5844
 30
0.0
 10
-39.0762
 20
22.5844
 30
0.0
 10
-38.9981
 20
22.5515
 30
0.0
 10
-38.9158
 20
22.4964
 30
0.0
 10
-38.8297
 20
22.4198
 30
0.0
 10
-38.8297
 20
22.4198
 30
0.0
 10
-38.7431
 20
22.3431
 30
0.0
 10
-38.6246
 20
22.2156
 30
0.0
 10
-38.4741
 20
22.0374
 30
0.0
 10
-38.4741
 20
22.0374
 30
0.0
 10
-38.349
 20
21.8887
 30
0.0
 10
-38.2643
 20
21.7932
 30
0.0
 10
-38.2196
 20
21.7509
 30
0.0
 10
-38.2196
 20
21.7509
 30
0.0
 10
-38.1754
 20
21.7086
 30
0.0
 10
-38.1307
 20
21.6738
 30
0.0
 10
-38.0856
 20
21.646
 30
0.0
 10
-38.0856
 20
21.646
 30
0.0
 10
-38.0856
 20
21.646
 30
0.0
 10
-38.0856
 20
22.6371
 30
0.0
 10
-38.0856
 20
22.6371
 30
0.0
  0
SPLINE
  5
C7
330
1F
100
AcDbEntity
  8
AXIS
 62
   250
100
AcDbSpline
210
0.0
220
0.0
230
1.0
 70
    24
 71
     3
 72
     8
 73
     4
 74
     0
 42
0.0000000001
 43
0.0000000001
 40
0.0
 40
0.0
 40
0.0
 40
0.0
 40
1.0
 40
1.0
 40
1.0
 40
1.0
 10
-33.3482
 20
26.8722
 30
0.0
 10
-33.3482
 20
26.8722
 30
0.0
 10
-38.4869
 20
26.8722
 30
0.0
 10
-38.4869
 20
26.8722
 30
0.0
  0
SPLINE
  5
C8
330
1F
100
AcDbEntity
  8
AXIS
 62
   250
100
AcDbSpline
210
0.0
220
0.0
230
1.0
 70
    24
 71
     3
 72
     8
 73
     4
 74
     0
 42
0.0000000001
 43
0.0000000001
 40
0.0
 40
0.0
 40
0.0
 40
0.0
 40
1.0
 40
1.0
 40
1.0
 40
1.0
 10
-37.4188
 20
34.4554
 30
0.0
 10
-37.4188
 20
34.4554
 30
0.0
 10
-37.4188
 20
18.6857
 30
0.0
 10
-37.4188
 20
18.6857
 30
0.0
  0
SPLINE
  5
C9
330
1F
100
AcDbEntity
  8
AXIS
 62
   250
100
AcDbSpline
210
0.0
220
0.0
230
1.0
 70
    11
 71
     3
 72
    20
 73
    16
 74
     0
 42
0.0000000001
 43
0.0000000001
 40
0.0
 40
0.0
 40
0.0
 40
0.0
 40
0.2
 40
0.2
 40
0.2
 40
0.2
 40
0.4
 40
0.4
 40
0.4
 40
0.4
 40
0.6
 40
0.6
 40
0.6
 40
0.6
 40
1.0
 40
1.0
 40
1.0
 40
1.0
 10
-37.9121
 20
33.6725
 30
0.0
 10
-37.9121
 20
33.6725
 30
0.0
 10
-37.4887
 20
30.6725
 30
0.0
 10
-37.4887
 20
30.6725
 30
0.0
 10
-37.4887
 20
30.6725
 30
0.0
 10
-37.4887
 20
30.6725
 30
0.0
 10
-37.3947
 20
30.6725
 30
0.0
 10
-37.3947
 20
30.6725
 30
0.0
 10
-37.3947
 20
30.6725
 30
0.0
 10
-37.3947
 20
30.6725
 30
0.0
 10
-36.9432
 20
33.6725
 30
0.0
 10
-36.9432
 20
33.6725
 30
0.0
 10
-36.9432
 20
33.6725
 30
0.0
 10
-36.9432
 20
33.6725
 30
0.0
 10
-37.9121
 20
33.6725
 30
0.0
 10
-37.9121
 20
33.6725
 30
0.0
  0
SPLINE
  5
CA
330
1F
100
AcDbEntity
  8
AXIS
 62
   250
100
AcDbSpline
210
0.0
220
0.0
230
1.0
 70
    11
 71
     3
 72
    20
 73
    16
 74
     0
 42
0.0000000001
 43
0.0000000001
 40
0.0
 40
0.0
 40
0.0
 40
0.0
 40
0.2
 40
0.2
 40
0.2
 40
0.2
 40
0.4
 40
0.4
 40
0.4
 40
0.4
 40
0.6
 40
0.6
 40
0.6
 40
0.6
 40
1.0
 40
1.0
 40
1.0
 40
1.0
 10
-36.9341
 20
23.7615
 30
0.0
 10
-36.9341
 20
23.7615
 30
0.0
 10
-37.3575
 20
26.7616
 30
0.0
 10
-37.3575
 20
26.7616
 30
0.0
 10
-37.3575
 20
26.7616
 30
0.0
 10
-37.3575
 20
26.7616
 30
0.0
 10
-37.4515
 20
26.7616
 30
0.0
 10
-37.4515
 20
26.7616
 30
0.0
 10
-37.4515
 20
26.7616
 30
0.0
 10
-37.4515
 20
26.7616
 30
0.0
 10
-37.9031
 20
23.7615
 30
0.0
 10
-37.9031
 20
23.7615
 30
0.0
 10
-37.9031
 20
23.7615
 30
0.0
 10
-37.9031
 20
23.7615
 30
0.0
 10
-36.9341
 20
23.7615
 30
0.0
 10
-36.9341
 20
23.7615
 30
0.0
  0
SPLINE
  5
CB
330
1F
100
AcDbEntity
  8
AXIS
 62
   250
100
AcDbSpline
210
0.0
220
0.0
230
1.0
 70
     8
 71
     3
 72
    16
 73
    12
 74
     0
 42
0.0000000001
 43
0.0000000001
 40
0.0
 40
0.0
 40
0.0
 40
0.0
 40
0.25
 40
0.25
 40
0.25
 40
0.25
 40
0.5
 40
0.5
 40
0.5
 40
0.5
 40
1.0
 40
1.0
 40
1.0
 40
1.0
 10
33.1984
 20
-0.3262
 30
0.0
 10
33.1984
 20
-0.3262
 30
0.0
 10
38.2127
 20
-0.3262
 30
0.0
 10
38.2127
 20
-0.3262
 30
0.0
 10
38.2127
 20
-0.3262
 30
0.0
 10
38.2127
 20
-0.3262
 30
0.0
 10
38.2127
 20
-8.7196
 30
0.0
 10
38.2127
 20
-8.7196
 30
0.0
 10
38.2127
 20
-8.7196
 30
0.0
 10
38.2127
 20
-8.7196
 30
0.0
 10
33.1984
 20
-8.7196
 30
0.0
 10
33.1984
 20
-8.7196
 30
0.0
  0
ENDSEC
  0
SECTION
  2
OBJECTS
  0
DICTIONARY
  5
C
330
0
100
AcDbDictionary
  3
ACAD_GROUP
350
D
  3
ACAD_LAYOUT
350
1A
  3
ACAD_MATERIAL
350
3B
  3
ACAD_MLEADERSTYLE
350
EE
  3
ACAD_MLINESTYLE
350
17
  3
ACAD_PLOTSETTINGS
350
19
  3
ACAD_VISUALSTYLE
350
2A
  3
ACDBHEADERROUNDTRIPXREC
350
CC
  3
ACDBVARIABLEDICTIONARY
350
EC
  0
DICTIONARY
  5
D
102
{ACAD_REACTORS
330
C
102
}
330
C
100
AcDbDictionary
  0
DICTIONARY
  5
1A
102
{ACAD_REACTORS
330
C
102
}
330
C
100
AcDbDictionary
  0
DICTIONARY
  5
3B
102
{ACAD_REACTORS
330
C
102
}
330
C
100
AcDbDictionary
  3
BYBLOCK
350
3D
  3
BYLAYER
350
3C
  3
GLOBAL
350
3E
  0
DICTIONARY
  5
EE
102
{ACAD_REACTORS
330
C
102
}
330
C
100
AcDbDictionary
  0
DICTIONARY
  5
17
102
{ACAD_REACTORS
330
C
102
}
330
C
100
AcDbDictionary
  3
STANDARD
350
18
  0
DICTIONARY
  5
19
102
{ACAD_REACTORS
330
C
102
}
330
C
100
AcDbDictionary
  0
DICTIONARY
  5
2A
102
{ACAD_REACTORS
330
C
102
}
330
C
100
AcDbDictionary
  3
2DWIREFRAME
350
2F
  3
3D_HIDDEN
350
31
  3
3DWIREFRAME
350
30
  3
BASIC
350
32
  3
BRIGHTEN
350
36
  3
COLORCHANGE
350
3A
  3
CONCEPTUAL
350
34
  3
DIM
350
35
  3
FACEPATTERN
350
39
  3
FLAT
350
2B
  3
FLATWITHEDGES
350
2C
  3
GOURAUD
350
2D
  3
GOURAUDWITHEDGES
350
2E
  3
LINEPATTERN
350
38
  3
REALISTIC
350
33
  3
THICKEN
350
37
  0
DICTIONARY
  5
CC
102
{ACAD_REACTORS
330
C
102
}
330
C
100
AcDbDictionary
  3
CEPSNTYPE
350
D5
  3
DIMSTYLEDATA
350
EB
  3
FINGERPRINTGUID
350
D6
  3
HYPERLINKBASE
350
CF
  3
INSUNITS
350
D4
  3
LAYOUTDICT
350
D1
  3
LWETCUNION
350
D3
  3
PLOTSETDICT
350
D2
  3
PSVPSCALE
350
D8
  3
PUCSBASE
350
DB
  3
PUCSORGBACK
350
E1
  3
PUCSORGBOTTOM
350
DD
  3
PUCSORGFRONT
350
E0
  3
PUCSORGLEFT
350
DE
  3
PUCSORGRIGHT
350
DF
  3
PUCSORGTOP
350
DC
  3
PUCSORTHOREF
350
D9
  3
PUCSORTHOVIEW
350
DA
  3
STYLESHEET
350
D0
  3
TSTACKALIGN
350
CD
  3
TSTACKSIZE
350
CE
  3
UCSBASE
350
E4
  3
UCSORGBACK
350
EA
  3
UCSORGBOTTOM
350
E6
  3
UCSORGFRONT
350
E9
  3
UCSORGLEFT
350
E7
  3
UCSORGRIGHT
350
E8
  3
UCSORGTOP
350
E5
  3
UCSORTHOREF
350
E2
  3
UCSORTHOVIEW
350
E3
  3
VERSIONGUID
350
D7
  0
DICTIONARY
  5
EC
102
{ACAD_REACTORS
330
C
102
}
330
C
100
AcDbDictionary
  3
DIMASSOC
350
EF
  3
HIDETEXT
350
F0
  0
MATERIAL
  5
3D
102
{ACAD_REACTORS
330
3B
102
}
102
{ACAD_XDICTIONARY
360
F3
102
}
330
3B
100
AcDbMaterial
  1
ByBlock
  0
MATERIAL
  5
3C
102
{ACAD_REACTORS
330
3B
102
}
102
{ACAD_XDICTIONARY
360
F1
102
}
330
3B
100
AcDbMaterial
  1
ByLayer
  0
MATERIAL
  5
3E
102
{ACAD_REACTORS
330
3B
102
}
102
{ACAD_XDICTIONARY
360
F5
102
}
330
3B
100
AcDbMaterial
  1
Global
  0
MLINESTYLE
  5
18
102
{ACAD_REACTORS
330
17
102
}
330
17
100
AcDbMlineStyle
  2
Standard
 70
     0
  3

 62
   256
 51
90.0
 52
90.0
 71
     2
 49
0.5
 62
   256
  6
BYLAYER
 49
-0.5
 62
   256
  6
BYLAYER
  0
ACAD_PROXY_OBJECT
  5
2F
102
{ACAD_REACTORS
330
2A
102
}
330
2A
100
AcDbProxyObject
 90
      499
 91
      501
 93
      436
310
42CC9915DA5C99599C985B595049028333333333333E3BF0000000000000FB0107901411070040501600405405064090741402480A0340
1001
ACAD
1000
AcDbSavedByObjectVersion
1070
     0
  0
ACAD_PROXY_OBJECT
  5
31
102
{ACAD_REACTORS
330
2A
102
}
330
2A
100
AcDbProxyObject
 90
      499
 91
      501
 93
      500
310
424CD108121A5919195B90640502408333333333333E3BF0000000000000FB01079024090700405020000000000001110200405405064090740C02480A0340
1001
ACAD
1000
AcDbSavedByObjectVersion
1070
     0
  0
ACAD_PROXY_OBJECT
  5
30
102
{ACAD_REACTORS
330
2A
102
}
330
2A
100
AcDbProxyObject
 90
      499
 91
      501
 93
      436
310
42CCD915DA5C99599C985B595059028333333333333E3BF0000000000000FB0107901411070040501600405405064090741402480A0340
1001
ACAD
1000
AcDbSavedByObjectVersion
1070
     0
  0
ACAD_PROXY_OBJECT
  5
32
102
{ACAD_REACTORS
330
2A
102
}
330
2A
100
AcDbProxyObject
 90
      499
 91
      501
 93
      388
310
4150985CDA58D07406404333333333333E3BF0000000000000FB0107A41107004050150841D405064090741402480A0350
1001
ACAD
1000
AcDbSavedByObjectVersion
1070
     0
  0
ACAD_PROXY_OBJECT
  5
36
102
{ACAD_REACTORS
330
2A
102
}
330
2A
100
AcDbProxyObject
 90
      499
 91
      501
 93
      428
310
42109C9A59DA1D195B90C409028333333333333E3BF0000000000000FB010790141107004050150841D405064090741402480A029950
1001
ACAD
1000
AcDbSavedByObjectVersion
1070
     0
  0
ACAD_PROXY_OBJECT
  5
3A
102
{ACAD_REACTORS
330
2A
102
}
330
2A
100
AcDbProxyObject
 90
      499
 91
      501
 93
      452
310
42D0DBDB1BDC90DA185B99D95104090240C333333333333E3BF0000000000000FB0108901411070040501508421405064090741402480A0350
1001
ACAD
1000
AcDbSavedByObjectVersion
1070
     0
  0
ACAD_PROXY_OBJECT
  5
34
102
{ACAD_REACTORS
330
2A
102
}
330
2A
100
AcDbProxyObject
 90
      499
 91
      501
 93
      500
310
4290DBDB98D95C1D1D585B10940D028333333333333E3BF0000000000000FB0107902409070040501000000000000111010841D405064090740C02480A0340
1001
ACAD
1000
AcDbSavedByObjectVersion
1070
     0
  0
ACAD_PROXY_OBJECT
  5
35
102
{ACAD_REACTORS
330
2A
102
}
330
2A
100
AcDbProxyObject
 90
      499
 91
      501
 93
      412
310
40D11A5B50B409028333333333333E3BF0000000000000FB010790141107004050150841D405064090741402480A02677FFFFFD0
1001
ACAD
1000
AcDbSavedByObjectVersion
1070
     0
  0
ACAD_PROXY_OBJECT
  5
39
102
{ACAD_REACTORS
330
2A
102
}
330
2A
100
AcDbProxyObject
 90
      499
 91
      501
 93
      444
310
42D19858D95C185D1D195C9B90F409028333333333333E3BF0000000000000FB010790141107004050150841D405064090741402480A0350
1001
ACAD
1000
AcDbSavedByObjectVersion
1070
     0
  0
ACAD_PROXY_OBJECT
  5
2B
102
{ACAD_REACTORS
330
2A
102
}
330
2A
100
AcDbProxyObject
 90
      499
 91
      501
 93
      388
310
41119B185D240901404333333333333E3BF0000000000000F9010740A41107004050150841D405064090741402480A1B50
1001
ACAD
1000
AcDbSavedByObjectVersion
1070
     0
  0
ACAD_PROXY_OBJECT
  5
2C
102
{ACAD_REACTORS
330
2A
102
}
330
2A
100
AcDbProxyObject
 90
      499
 91
      501
 93
      476
310
43519B185D15DA5D1A115919D95CD0140901404333333333333E3BF0000000000000F9010740901411070040501600405405064090741402480A1B50
1001
ACAD
1000
AcDbSavedByObjectVersion
1070
     0
  0
ACAD_PROXY_OBJECT
  5
2D
102
{ACAD_REACTORS
330
2A
102
}
330
2A
100
AcDbProxyObject
 90
      499
 91
      501
 93
      412
310
41D1DBDD5C985D5910240902404333333333333E3BF0000000000000F9010740A411070040501641D405064090741402480A1B50
1001
ACAD
1000
AcDbSavedByObjectVersion
1070
     0
  0
ACAD_PROXY_OBJECT
  5
2E
102
{ACAD_REACTORS
330
2A
102
}
330
2A
100
AcDbProxyObject
 90
      499
 91
      501
 93
      500
310
4411DBDD5C985D5915DA5D1A115919D95CD0340902404333333333333E3BF0000000000000F9010740901411070040501600405405064090741402480A1B50
1001
ACAD
1000
AcDbSavedByObjectVersion
1070
     0
  0
ACAD_PROXY_OBJECT
  5
38
102
{ACAD_REACTORS
330
2A
102
}
330
2A
100
AcDbProxyObject
 90
      499
 91
      501
 93
      444
310
42D31A5B995C185D1D195C9B90E409028333333333333E3BF0000000000000FB010790141107004050750841D405064090741402483A0350
1001
ACAD
1000
AcDbSavedByObjectVersion
1070
     0
  0
ACAD_PROXY_OBJECT
  5
33
102
{ACAD_REACTORS
330
2A
102
}
330
2A
100
AcDbProxyObject
 90
      499
 91
      501
 93
      420
310
425499585B1A5CDD1A58D08409028333333333333E3BF0000000000000FB01079019070040501508421405064090741402480A1B40
1001
ACAD
1000
AcDbSavedByObjectVersion
1070
     0
  0
ACAD_PROXY_OBJECT
  5
37
102
{ACAD_REACTORS
330
2A
102
}
330
2A
100
AcDbProxyObject
 90
      499
 91
      501
 93
      412
310
41D51A1A58DAD95B90D409028333333333333E3BF0000000000000FB010790141107004050150C41D405064090741402480A0350
1001
ACAD
1000
AcDbSavedByObjectVersion
1070
     0
  0
XRECORD
  5
D5
102
{ACAD_REACTORS
330
CC
102
}
330
CC
100
AcDbXrecord
 90
        0
  0
XRECORD
  5
EB
102
{ACAD_REACTORS
330
CC
102
}
330
CC
100
AcDbXrecord
1000
DSTYLE
1002
{
1070
   340
340
11
1002
}
  0
XRECORD
  5
D6
102
{ACAD_REACTORS
330
CC
102
}
330
CC
100
AcDbXrecord
  1
{7ACF895F-9F31-4008-88E5-753AEA81FD91}
  0
XRECORD
  5
CF
102
{ACAD_REACTORS
330
CC
102
}
330
CC
100
AcDbXrecord
  1

  0
XRECORD
  5
D4
102
{ACAD_REACTORS
330
CC
102
}
330
CC
100
AcDbXrecord
 90
        4
  0
XRECORD
  5
D1
102
{ACAD_REACTORS
330
CC
102
}
330
CC
100
AcDbXrecord
340
1A
  0
XRECORD
  5
D3
102
{ACAD_REACTORS
330
CC
102
}
330
CC
100
AcDbXrecord
 90
    10781
  0
XRECORD
  5
D2
102
{ACAD_REACTORS
330
CC
102
}
330
CC
100
AcDbXrecord
340
19
  0
XRECORD
  5
D8
102
{ACAD_REACTORS
330
CC
102
}
330
CC
100
AcDbXrecord
 40
0.0
  0
XRECORD
  5
DB
102
{ACAD_REACTORS
330
CC
102
}
330
CC
100
AcDbXrecord
340
0
  0
XRECORD
  5
E1
102
{ACAD_REACTORS
330
CC
102
}
330
CC
100
AcDbXrecord
 10
0.0
 20
0.0
 30
0.0
  0
XRECORD
  5
DD
102
{ACAD_REACTORS
330
CC
102
}
330
CC
100
AcDbXrecord
 10
0.0
 20
0.0
 30
0.0
  0
XRECORD
  5
E0
102
{ACAD_REACTORS
330
CC
102
}
330
CC
100
AcDbXrecord
 10
0.0
 20
0.0
 30
0.0
  0
XRECORD
  5
DE
102
{ACAD_REACTORS
330
CC
102
}
330
CC
100
AcDbXrecord
 10
0.0
 20
0.0
 30
0.0
  0
XRECORD
  5
DF
102
{ACAD_REACTORS
330
CC
102
}
330
CC
100
AcDbXrecord
 10
0.0
 20
0.0
 30
0.0
  0
XRECORD
  5
DC
102
{ACAD_REACTORS
330
CC
102
}
330
CC
100
AcDbXrecord
 10
0.0
 20
0.0
 30
0.0
  0
XRECORD
  5
D9
102
{ACAD_REACTORS
330
CC
102
}
330
CC
100
AcDbXrecord
340
0
  0
XRECORD
  5
DA
102
{ACAD_REACTORS
330
CC
102
}
330
CC
100
AcDbXrecord
 70
     0
  0
XRECORD
  5
D0
102
{ACAD_REACTORS
330
CC
102
}
330
CC
100
AcDbXrecord
  1

  0
XRECORD
  5
CD
102
{ACAD_REACTORS
330
CC
102
}
330
CC
100
AcDbXrecord
 90
        1
  0
XRECORD
  5
CE
102
{ACAD_REACTORS
330
CC
102
}
330
CC
100
AcDbXrecord
 90
       70
  0
XRECORD
  5
E4
102
{ACAD_REACTORS
330
CC
102
}
330
CC
100
AcDbXrecord
340
0
  0
XRECORD
  5
EA
102
{ACAD_REACTORS
330
CC
102
}
330
CC
100
AcDbXrecord
 10
0.0
 20
0.0
 30
0.0
  0
XRECORD
  5
E6
102
{ACAD_REACTORS
330
CC
102
}
330
CC
100
AcDbXrecord
 10
0.0
 20
0.0
 30
0.0
  0
XRECORD
  5
E9
102
{ACAD_REACTORS
330
CC
102
}
330
CC
100
AcDbXrecord
 10
0.0
 20
0.0
 30
0.0
  0
XRECORD
  5
E7
102
{ACAD_REACTORS
330
CC
102
}
330
CC
100
AcDbXrecord
 10
0.0
 20
0.0
 30
0.0
  0
XRECORD
  5
E8
102
{ACAD_REACTORS
330
CC
102
}
330
CC
100
AcDbXrecord
 10
0.0
 20
0.0
 30
0.0
  0
XRECORD
  5
E5
102
{ACAD_REACTORS
330
CC
102
}
330
CC
100
AcDbXrecord
 10
0.0
 20
0.0
 30
0.0
  0
XRECORD
  5
E2
102
{ACAD_REACTORS
330
CC
102
}
330
CC
100
AcDbXrecord
340
0
  0
XRECORD
  5
E3
102
{ACAD_REACTORS
330
CC
102
}
330
CC
100
AcDbXrecord
 70
     0
  0
XRECORD
  5
D7
102
{ACAD_REACTORS
330
CC
102
}
330
CC
100
AcDbXrecord
  1
{FAEB1C32-E019-11D5-929B-00C0DF256EC4}
  0
DICTIONARYVAR
  5
EF
102
{ACAD_REACTORS
330
EC
102
}
330
EC
100
DictionaryVariables
280
     0
  1
2
  0
DICTIONARYVAR
  5
F0
102
{ACAD_REACTORS
330
EC
102
}
330
EC
100
DictionaryVariables
280
     0
  1
1
  0
DICTIONARY
  5
F3
330
3D
100
AcDbDictionary
280
     1
  3
ACAD_XREC_ROUNDTRIP
360
F4
  0
DICTIONARY
  5
F1
330
3C
100
AcDbDictionary
280
     1
  3
ACAD_XREC_ROUNDTRIP
360
F2
  0
DICTIONARY
  5
F5
330
3E
100
AcDbDictionary
280
     1
  3
ACAD_XREC_ROUNDTRIP
360
F6
  0
XRECORD
  5
F4
102
{ACAD_REACTORS
330
F3
102
}
330
F3
100
AcDbXrecord
102
MATERIAL
148
0.0
149
0.0
149
0.0
 93
        0
 94
      127
282
     0
 72
     1
 77
     1
171
     1
175
     1
179
     1
273
     0
  0
XRECORD
  5
F2
102
{ACAD_REACTORS
330
F1
102
}
330
F1
100
AcDbXrecord
102
MATERIAL
148
0.0
149
0.0
149
0.0
 93
        0
 94
      127
282
     0
 72
     1
 77
     1
171
     1
175
     1
179
     1
273
     0
  0
XRECORD
  5
F6
102
{ACAD_REACTORS
330
F5
102
}
330
F5
100
AcDbXrecord
102
MATERIAL
148
0.0
149
0.0
149
0.0
 93
        0
 94
      127
282
     0
 72
     1
 77
     1
171
     1
175
     1
179
     1
273
     0
  0
ENDSEC
  0
EOF
