  0
SECTION
  2
HEADER
  9
$ACADVER
  1
AC1014
  9
$ACADMAINTVER
 70
     9
  9
$DWGCODEPAGE
  3
ANSI_1250
  9
$INSBASE
 10
0.0
 20
0.0
 30
0.0
  9
$EXTMIN
 10
-44.9198
 20
-37.223
 30
0.0
  9
$EXTMAX
 10
44.9195
 20
37.2233
 30
0.0
  9
$LIMMIN
 10
0.0
 20
0.0
  9
$LIMMAX
 10
12.0
 20
9.0
  9
$ORTHOMODE
 70
     0
  9
$REGENMODE
 70
     1
  9
$FILLMODE
 70
     1
  9
$QTEXTMODE
 70
     0
  9
$MIRRTEXT
 70
     1
  9
$DRAGMODE
 70
     2
  9
$LTSCALE
 40
1.0
  9
$OSMODE
 70
    37
  9
$ATTMODE
 70
     1
  9
$TEXTSIZE
 40
0.2
  9
$TRACEWID
 40
0.05
  9
$TEXTSTYLE
  7
STANDARD
  9
$CLAYER
  8
0
  9
$CELTYPE
  6
BYLAYER
  9
$CECOLOR
 62
   256
  9
$CELTSCALE
 40
1.0
  9
$DELOBJ
 70
     1
  9
$DISPSILH
 70
     0
  9
$DIMSCALE
 40
1.0
  9
$DIMASZ
 40
0.18
  9
$DIMEXO
 40
0.0625
  9
$DIMDLI
 40
0.38
  9
$DIMRND
 40
0.0
  9
$DIMDLE
 40
0.0
  9
$DIMEXE
 40
0.18
  9
$DIMTP
 40
0.0
  9
$DIMTM
 40
0.0
  9
$DIMTXT
 40
0.18
  9
$DIMCEN
 40
0.09
  9
$DIMTSZ
 40
0.0
  9
$DIMTOL
 70
     0
  9
$DIMLIM
 70
     0
  9
$DIMTIH
 70
     1
  9
$DIMTOH
 70
     1
  9
$DIMSE1
 70
     0
  9
$DIMSE2
 70
     0
  9
$DIMTAD
 70
     0
  9
$DIMZIN
 70
     0
  9
$DIMBLK
  1

  9
$DIMASO
 70
     1
  9
$DIMSHO
 70
     1
  9
$DIMPOST
  1

  9
$DIMAPOST
  1

  9
$DIMALT
 70
     0
  9
$DIMALTD
 70
     2
  9
$DIMALTF
 40
25.4
  9
$DIMLFAC
 40
1.0
  9
$DIMTOFL
 70
     0
  9
$DIMTVP
 40
0.0
  9
$DIMTIX
 70
     0
  9
$DIMSOXD
 70
     0
  9
$DIMSAH
 70
     0
  9
$DIMBLK1
  1

  9
$DIMBLK2
  1

  9
$DIMSTYLE
  2
STANDARD
  9
$DIMCLRD
 70
     0
  9
$DIMCLRE
 70
     0
  9
$DIMCLRT
 70
     0
  9
$DIMTFAC
 40
1.0
  9
$DIMGAP
 40
0.09
  9
$DIMJUST
 70
     0
  9
$DIMSD1
 70
     0
  9
$DIMSD2
 70
     0
  9
$DIMTOLJ
 70
     1
  9
$DIMTZIN
 70
     0
  9
$DIMALTZ
 70
     0
  9
$DIMALTTZ
 70
     0
  9
$DIMFIT
 70
     3
  9
$DIMUPT
 70
     0
  9
$DIMUNIT
 70
     2
  9
$DIMDEC
 70
     4
  9
$DIMTDEC
 70
     4
  9
$DIMALTU
 70
     2
  9
$DIMALTTD
 70
     2
  9
$DIMTXSTY
  7
STANDARD
  9
$DIMAUNIT
 70
     0
  9
$LUNITS
 70
     2
  9
$LUPREC
 70
     4
  9
$SKETCHINC
 40
0.1
  9
$FILLETRAD
 40
0.5
  9
$AUNITS
 70
     0
  9
$AUPREC
 70
     0
  9
$MENU
  1
.
  9
$ELEVATION
 40
0.0
  9
$PELEVATION
 40
0.0
  9
$THICKNESS
 40
0.0
  9
$LIMCHECK
 70
     0
  9
$CHAMFERA
 40
0.5
  9
$CHAMFERB
 40
0.5
  9
$CHAMFERC
 40
1.0
  9
$CHAMFERD
 40
0.0
  9
$SKPOLY
 70
     0
  9
$TDCREATE
 40
2456247.441733218
  9
$TDUPDATE
 40
2456247.441733229
  9
$TDINDWG
 40
0.0000000116
  9
$TDUSRTIMER
 40
0.0000000116
  9
$USRTIMER
 70
     1
  9
$ANGBASE
 50
0.0
  9
$ANGDIR
 70
     0
  9
$PDMODE
 70
     0
  9
$PDSIZE
 40
0.0
  9
$PLINEWID
 40
0.0
  9
$COORDS
 70
     1
  9
$SPLFRAME
 70
     0
  9
$SPLINETYPE
 70
     6
  9
$SPLINESEGS
 70
     8
  9
$ATTDIA
 70
     0
  9
$ATTREQ
 70
     1
  9
$HANDLING
 70
     1
  9
$HANDSEED
  5
11A
  9
$SURFTAB1
 70
     6
  9
$SURFTAB2
 70
     6
  9
$SURFTYPE
 70
     6
  9
$SURFU
 70
     6
  9
$SURFV
 70
     6
  9
$UCSNAME
  2

  9
$UCSORG
 10
0.0
 20
0.0
 30
0.0
  9
$UCSXDIR
 10
1.0
 20
0.0
 30
0.0
  9
$UCSYDIR
 10
0.0
 20
1.0
 30
0.0
  9
$PUCSNAME
  2

  9
$PUCSORG
 10
0.0
 20
0.0
 30
0.0
  9
$PUCSXDIR
 10
1.0
 20
0.0
 30
0.0
  9
$PUCSYDIR
 10
0.0
 20
1.0
 30
0.0
  9
$USERI1
 70
     0
  9
$USERI2
 70
     0
  9
$USERI3
 70
     0
  9
$USERI4
 70
     0
  9
$USERI5
 70
     0
  9
$USERR1
 40
0.0
  9
$USERR2
 40
0.0
  9
$USERR3
 40
0.0
  9
$USERR4
 40
0.0
  9
$USERR5
 40
0.0
  9
$WORLDVIEW
 70
     1
  9
$SHADEDGE
 70
     3
  9
$SHADEDIF
 70
    70
  9
$TILEMODE
 70
     1
  9
$MAXACTVP
 70
    64
  9
$PINSBASE
 10
0.0
 20
0.0
 30
0.0
  9
$PLIMCHECK
 70
     0
  9
$PEXTMIN
 10
1.000000000000000E+20
 20
1.000000000000000E+20
 30
1.000000000000000E+20
  9
$PEXTMAX
 10
-1.000000000000000E+20
 20
-1.000000000000000E+20
 30
-1.000000000000000E+20
  9
$PLIMMIN
 10
0.0
 20
0.0
  9
$PLIMMAX
 10
12.0
 20
9.0
  9
$UNITMODE
 70
     0
  9
$VISRETAIN
 70
     1
  9
$PLINEGEN
 70
     0
  9
$PSLTSCALE
 70
     1
  9
$TREEDEPTH
 70
  3020
  9
$PICKSTYLE
 70
     1
  9
$CMLSTYLE
  2
STANDARD
  9
$CMLJUST
 70
     0
  9
$CMLSCALE
 40
1.0
  9
$PROXYGRAPHICS
 70
     1
  9
$MEASUREMENT
 70
     0
  0
ENDSEC
  0
SECTION
  2
CLASSES
  0
CLASS
  1
ACDBDICTIONARYWDFLT
  2
AcDbDictionaryWithDefault
  3
ObjectDBX Classes
 90
        0
280
     0
281
     0
  0
CLASS
  1
VISUALSTYLE
  2
AcDbVisualStyle
  3
ObjectDBX Classes
 90
     4095
280
     0
281
     0
  0
CLASS
  1
MATERIAL
  2
AcDbMaterial
  3
ObjectDBX Classes
 90
     1153
280
     0
281
     0
  0
CLASS
  1
DICTIONARYVAR
  2
AcDbDictionaryVar
  3
ObjectDBX Classes
 90
        0
280
     0
281
     0
  0
CLASS
  1
XRECORD
  2
AcDbXrecord
  3
AutoCAD 2000
 90
        0
280
     0
281
     0
  0
CLASS
  1
LWPOLYLINE
  2
AcDbPolyline
  3
AutoCAD 2000
 90
        0
280
     0
281
     1
  0
CLASS
  1
HATCH
  2
AcDbHatch
  3
AutoCAD 2000
 90
        0
280
     0
281
     1
  0
CLASS
  1
ACDBPLACEHOLDER
  2
AcDbPlaceHolder
  3
ObjectDBX Classes
 90
        0
280
     0
281
     0
  0
CLASS
  1
LAYOUT
  2
AcDbLayout
  3
ObjectDBX Classes
 90
        0
280
     0
281
     0
  0
ENDSEC
  0
SECTION
  2
TABLES
  0
TABLE
  2
VPORT
  5
8
330
0
100
AcDbSymbolTable
 70
     1
  0
VPORT
  5
29
330
8
100
AcDbSymbolTableRecord
100
AcDbViewportTableRecord
  2
*ACTIVE
 70
     0
 10
0.0
 20
0.0
 11
1.0
 21
1.0
 12
10.42990654205607
 22
4.5
 13
0.0
 23
0.0
 14
0.5
 24
0.5
 15
0.5
 25
0.5
 16
0.0
 26
0.0
 36
1.0
 17
0.0
 27
0.0
 37
0.0
 40
9.0
 41
1.972972972850329
 42
50.0
 43
0.0
 44
0.0
 50
0.0
 51
0.0
 71
     0
 72
   100
 73
     1
 74
     3
 75
     0
 76
     0
 77
     0
 78
     0
  0
ENDTAB
  0
TABLE
  2
LTYPE
  5
5
330
0
100
AcDbSymbolTable
 70
     4
  0
LTYPE
  5
14
330
5
100
AcDbSymbolTableRecord
100
AcDbLinetypeTableRecord
  2
BYBLOCK
 70
     0
  3

 72
    65
 73
     0
 40
0.0
  0
LTYPE
  5
15
330
5
100
AcDbSymbolTableRecord
100
AcDbLinetypeTableRecord
  2
BYLAYER
 70
     0
  3

 72
    65
 73
     0
 40
0.0
  0
LTYPE
  5
16
330
5
100
AcDbSymbolTableRecord
100
AcDbLinetypeTableRecord
  2
CONTINUOUS
 70
     0
  3
Solid line
 72
    65
 73
     0
 40
0.0
  0
LTYPE
  5
DF
330
5
100
AcDbSymbolTableRecord
100
AcDbLinetypeTableRecord
  2
NEW_LINE1
 70
     0
  3

 72
    65
 73
     4
 40
1.2
 49
0.5
 74
     4
 75
     0
340
0
 46
1.0
 50
0.0
 44
0.0
 45
0.0
 49
-0.3
 74
     4
 75
     0
340
0
 46
1.0
 50
0.0
 44
0.0
 45
0.0
 49
0.1
 74
     4
 75
     0
340
0
 46
1.0
 50
0.0
 44
0.0
 45
0.0
 49
-0.3
 74
     4
 75
     0
340
0
 46
1.0
 50
0.0
 44
0.0
 45
0.0
  0
LTYPE
  5
E1
330
5
100
AcDbSymbolTableRecord
100
AcDbLinetypeTableRecord
  2
NEW_LINE2
 70
     0
  3

 72
    65
 73
     4
 40
1.2
 49
0.5
 74
     4
 75
     0
340
0
 46
1.0
 50
0.0
 44
0.0
 45
0.0
 49
-0.3
 74
     4
 75
     0
340
0
 46
1.0
 50
0.0
 44
0.0
 45
0.0
 49
0.1
 74
     4
 75
     0
340
0
 46
1.0
 50
0.0
 44
0.0
 45
0.0
 49
-0.3
 74
     4
 75
     0
340
0
 46
1.0
 50
0.0
 44
0.0
 45
0.0
  0
LTYPE
  5
E3
330
5
100
AcDbSymbolTableRecord
100
AcDbLinetypeTableRecord
  2
NEW_LINE3
 70
     0
  3

 72
    65
 73
     4
 40
1.2
 49
0.5
 74
     4
 75
     0
340
0
 46
1.0
 50
0.0
 44
0.0
 45
0.0
 49
-0.3
 74
     4
 75
     0
340
0
 46
1.0
 50
0.0
 44
0.0
 45
0.0
 49
0.1
 74
     4
 75
     0
340
0
 46
1.0
 50
0.0
 44
0.0
 45
0.0
 49
-0.3
 74
     4
 75
     0
340
0
 46
1.0
 50
0.0
 44
0.0
 45
0.0
  0
ENDTAB
  0
TABLE
  2
LAYER
  5
2
330
0
100
AcDbSymbolTable
 70
     2
  0
LAYER
  5
10
330
2
100
AcDbSymbolTableRecord
100
AcDbLayerTableRecord
  2
0
 70
     0
 62
     7
  6
CONTINUOUS
  0
LAYER
  5
40
330
2
100
AcDbSymbolTableRecord
100
AcDbLayerTableRecord
  2
ROUND
 70
     0
 62
     7
  6
CONTINUOUS
  0
ENDTAB
  0
TABLE
  2
STYLE
  5
3
330
0
100
AcDbSymbolTable
 70
     1
  0
STYLE
  5
11
330
3
100
AcDbSymbolTableRecord
100
AcDbTextStyleTableRecord
  2
STANDARD
 70
     0
 40
0.0
 41
1.0
 50
0.0
 71
     0
 42
0.2
  3
txt
  4

  0
ENDTAB
  0
TABLE
  2
VIEW
  5
6
330
0
100
AcDbSymbolTable
 70
     0
  0
ENDTAB
  0
TABLE
  2
UCS
  5
7
330
0
100
AcDbSymbolTable
 70
     0
  0
ENDTAB
  0
TABLE
  2
APPID
  5
9
330
0
100
AcDbSymbolTable
 70
     2
  0
APPID
  5
12
330
9
100
AcDbSymbolTableRecord
100
AcDbRegAppTableRecord
  2
ACAD
 70
     0
  0
APPID
  5
3F
330
9
100
AcDbSymbolTableRecord
100
AcDbRegAppTableRecord
  2
ODA
 70
     0
  0
ENDTAB
  0
TABLE
  2
DIMSTYLE
  5
A
330
0
100
AcDbSymbolTable
 70
     1
  0
DIMSTYLE
105
27
330
A
100
AcDbSymbolTableRecord
100
AcDbDimStyleTableRecord
  2
STANDARD
 70
     0
  3

  4

  5

  6

  7

 40
1.0
 41
0.18
 42
0.0625
 43
0.38
 44
0.18
 45
0.0
 46
0.0
 47
0.0
 48
0.0
140
0.18
141
0.09
142
0.0
143
25.4
144
1.0
145
0.0
146
1.0
147
0.09
 71
     0
 72
     0
 73
     1
 74
     1
 75
     0
 76
     0
 77
     0
 78
     0
170
     0
171
     2
172
     0
173
     0
174
     0
175
     0
176
     0
177
     0
178
     0
270
     2
271
     4
272
     4
273
     2
274
     2
340
11
275
     0
280
     0
281
     0
282
     0
283
     1
284
     0
285
     0
286
     0
287
     3
288
     0
  0
ENDTAB
  0
TABLE
  2
BLOCK_RECORD
  5
1
330
0
100
AcDbSymbolTable
 70
     1
  0
BLOCK_RECORD
  5
1F
330
1
100
AcDbSymbolTableRecord
100
AcDbBlockTableRecord
  2
*MODEL_SPACE
  0
BLOCK_RECORD
  5
1B
330
1
100
AcDbSymbolTableRecord
100
AcDbBlockTableRecord
  2
*PAPER_SPACE
  0
ENDTAB
  0
ENDSEC
  0
SECTION
  2
BLOCKS
  0
BLOCK
  5
20
330
1F
100
AcDbEntity
  8
0
100
AcDbBlockBegin
  2
*MODEL_SPACE
 70
     0
 10
0.0
 20
0.0
 30
0.0
  3
*MODEL_SPACE
  1

  0
ENDBLK
  5
21
330
1F
100
AcDbEntity
  8
0
100
AcDbBlockEnd
  0
BLOCK
  5
1C
330
1B
100
AcDbEntity
 67
     1
  8
0
100
AcDbBlockBegin
  2
*PAPER_SPACE
 70
     0
 10
0.0
 20
0.0
 30
0.0
  3
*PAPER_SPACE
  1

  0
ENDBLK
  5
1D
330
1B
100
AcDbEntity
 67
     1
  8
0
100
AcDbBlockEnd
  0
ENDSEC
  0
SECTION
  2
ENTITIES
  0
SPLINE
  5
41
330
1F
100
AcDbEntity
  8
ROUND
 62
   250
100
AcDbSpline
210
0.0
220
0.0
230
1.0
 70
    24
 71
     3
 72
     8
 73
     4
 74
     0
 42
0.0000000001
 43
0.0000000001
 40
0.0
 40
0.0
 40
0.0
 40
0.0
 40
1.0
 40
1.0
 40
1.0
 40
1.0
 10
29.7823
 20
-11.8112
 30
0.0
 10
29.7823
 20
-11.8112
 30
0.0
 10
31.5354
 20
-11.8112
 30
0.0
 10
31.5354
 20
-11.8112
 30
0.0
  0
SPLINE
  5
42
330
1F
100
AcDbEntity
  8
ROUND
 62
   250
100
AcDbSpline
210
0.0
220
0.0
230
1.0
 70
    24
 71
     3
 72
     8
 73
     4
 74
     0
 42
0.0000000001
 43
0.0000000001
 40
0.0
 40
0.0
 40
0.0
 40
0.0
 40
1.0
 40
1.0
 40
1.0
 40
1.0
 10
29.7823
 20
6.8881
 30
0.0
 10
29.7823
 20
6.8881
 30
0.0
 10
31.5354
 20
6.8881
 30
0.0
 10
31.5354
 20
6.8881
 30
0.0
  0
SPLINE
  5
43
330
1F
100
AcDbEntity
  8
ROUND
 62
   250
100
AcDbSpline
210
0.0
220
0.0
230
1.0
 70
    24
 71
     3
 72
     8
 73
     4
 74
     0
 42
0.0000000001
 43
0.0000000001
 40
0.0
 40
0.0
 40
0.0
 40
0.0
 40
1.0
 40
1.0
 40
1.0
 40
1.0
 10
31.5354
 20
-11.8112
 30
0.0
 10
31.5354
 20
-11.8112
 30
0.0
 10
31.5354
 20
6.8881
 30
0.0
 10
31.5354
 20
6.8881
 30
0.0
  0
SPLINE
  5
44
330
1F
100
AcDbEntity
  8
ROUND
 62
   250
100
AcDbSpline
210
0.0
220
0.0
230
1.0
 70
    24
 71
     3
 72
     8
 73
     4
 74
     0
 42
0.0000000001
 43
0.0000000001
 40
0.0
 40
0.0
 40
0.0
 40
0.0
 40
1.0
 40
1.0
 40
1.0
 40
1.0
 10
28.0292
 20
-10.0581
 30
0.0
 10
28.0292
 20
-10.0581
 30
0.0
 10
28.0292
 20
5.135
 30
0.0
 10
28.0292
 20
5.135
 30
0.0
  0
SPLINE
  5
45
330
1F
100
AcDbEntity
  8
ROUND
 62
   250
100
AcDbSpline
210
0.0
220
0.0
230
1.0
 70
     8
 71
     3
 72
     8
 73
     4
 74
     0
 42
0.0000000001
 43
0.0000000001
 40
0.0
 40
0.0
 40
0.0
 40
0.0
 40
1.0
 40
1.0
 40
1.0
 40
1.0
 10
29.7823
 20
6.8881
 30
0.0
 10
28.8141
 20
6.8881
 30
0.0
 10
28.0292
 20
6.1032
 30
0.0
 10
28.0292
 20
5.135
 30
0.0
  0
SPLINE
  5
46
330
1F
100
AcDbEntity
  8
ROUND
 62
   250
100
AcDbSpline
210
0.0
220
0.0
230
1.0
 70
     8
 71
     3
 72
     8
 73
     4
 74
     0
 42
0.0000000001
 43
0.0000000001
 40
0.0
 40
0.0
 40
0.0
 40
0.0
 40
1.0
 40
1.0
 40
1.0
 40
1.0
 10
28.0292
 20
-10.0581
 30
0.0
 10
28.0292
 20
-11.0264
 30
0.0
 10
28.8141
 20
-11.8112
 30
0.0
 10
29.7823
 20
-11.8112
 30
0.0
  0
SPLINE
  5
47
330
1F
100
AcDbEntity
  8
ROUND
 62
   250
100
AcDbSpline
210
0.0
220
0.0
230
1.0
 70
    11
 71
     3
 72
   116
 73
   112
 74
     0
 42
0.0000000001
 43
0.0000000001
 40
0.0
 40
0.0
 40
0.0
 40
0.0
 40
0.0344827586206897
 40
0.0344827586206897
 40
0.0344827586206897
 40
0.0344827586206897
 40
0.0689655172413793
 40
0.0689655172413793
 40
0.0689655172413793
 40
0.0689655172413793
 40
0.103448275862069
 40
0.103448275862069
 40
0.103448275862069
 40
0.103448275862069
 40
0.1379310344827586
 40
0.1379310344827586
 40
0.1379310344827586
 40
0.1379310344827586
 40
0.1724137931034483
 40
0.1724137931034483
 40
0.1724137931034483
 40
0.1724137931034483
 40
0.2068965517241379
 40
0.2068965517241379
 40
0.2068965517241379
 40
0.2068965517241379
 40
0.2413793103448276
 40
0.2413793103448276
 40
0.2413793103448276
 40
0.2413793103448276
 40
0.2758620689655172
 40
0.2758620689655172
 40
0.2758620689655172
 40
0.2758620689655172
 40
0.3103448275862069
 40
0.3103448275862069
 40
0.3103448275862069
 40
0.3103448275862069
 40
0.3448275862068966
 40
0.3448275862068966
 40
0.3448275862068966
 40
0.3448275862068966
 40
0.3793103448275862
 40
0.3793103448275862
 40
0.3793103448275862
 40
0.3793103448275862
 40
0.4137931034482759
 40
0.4137931034482759
 40
0.4137931034482759
 40
0.4137931034482759
 40
0.4482758620689655
 40
0.4482758620689655
 40
0.4482758620689655
 40
0.4482758620689655
 40
0.4827586206896552
 40
0.4827586206896552
 40
0.4827586206896552
 40
0.4827586206896552
 40
0.5172413793103449
 40
0.5172413793103449
 40
0.5172413793103449
 40
0.5172413793103449
 40
0.5517241379310345
 40
0.5517241379310345
 40
0.5517241379310345
 40
0.5517241379310345
 40
0.5862068965517241
 40
0.5862068965517241
 40
0.5862068965517241
 40
0.5862068965517241
 40
0.6206896551724138
 40
0.6206896551724138
 40
0.6206896551724138
 40
0.6206896551724138
 40
0.6551724137931034
 40
0.6551724137931034
 40
0.6551724137931034
 40
0.6551724137931034
 40
0.6896551724137931
 40
0.6896551724137931
 40
0.6896551724137931
 40
0.6896551724137931
 40
0.7241379310344828
 40
0.7241379310344828
 40
0.7241379310344828
 40
0.7241379310344828
 40
0.7586206896551724
 40
0.7586206896551724
 40
0.7586206896551724
 40
0.7586206896551724
 40
0.7931034482758621
 40
0.7931034482758621
 40
0.7931034482758621
 40
0.7931034482758621
 40
0.8275862068965517
 40
0.8275862068965517
 40
0.8275862068965517
 40
0.8275862068965517
 40
0.8620689655172413
 40
0.8620689655172413
 40
0.8620689655172413
 40
0.8620689655172413
 40
0.896551724137931
 40
0.896551724137931
 40
0.896551724137931
 40
0.896551724137931
 40
0.9310344827586207
 40
0.9310344827586207
 40
0.9310344827586207
 40
0.9310344827586207
 40
1.0
 40
1.0
 40
1.0
 40
1.0
 10
2.9305
 20
35.1946
 30
0.0
 10
2.9305
 20
35.1946
 30
0.0
 10
2.9305
 20
36.6579
 30
0.0
 10
2.9305
 20
36.6579
 30
0.0
 10
2.9305
 20
36.6579
 30
0.0
 10
2.9305
 20
36.6579
 30
0.0
 10
3.152
 20
36.6579
 30
0.0
 10
3.152
 20
36.6579
 30
0.0
 10
3.152
 20
36.6579
 30
0.0
 10
3.152
 20
36.6579
 30
0.0
 10
3.152
 20
36.4528
 30
0.0
 10
3.152
 20
36.4528
 30
0.0
 10
3.152
 20
36.4528
 30
0.0
 10
3.1981
 20
36.5243
 30
0.0
 10
3.2593
 20
36.5822
 30
0.0
 10
3.3355
 20
36.6255
 30
0.0
 10
3.3355
 20
36.6255
 30
0.0
 10
3.4117
 20
36.6692
 30
0.0
 10
3.4987
 20
36.6913
 30
0.0
 10
3.596
 20
36.6913
 30
0.0
 10
3.596
 20
36.6913
 30
0.0
 10
3.7042
 20
36.6913
 30
0.0
 10
3.7931
 20
36.6687
 30
0.0
 10
3.8623
 20
36.6236
 30
0.0
 10
3.8623
 20
36.6236
 30
0.0
 10
3.9319
 20
36.5784
 30
0.0
 10
3.9808
 20
36.5159
 30
0.0
 10
4.009
 20
36.435
 30
0.0
 10
4.009
 20
36.435
 30
0.0
 10
4.1252
 20
36.6057
 30
0.0
 10
4.2757
 20
36.6913
 30
0.0
 10
4.461
 20
36.6913
 30
0.0
 10
4.461
 20
36.6913
 30
0.0
 10
4.6064
 20
36.6913
 30
0.0
 10
4.7179
 20
36.6509
 30
0.0
 10
4.7959
 20
36.5704
 30
0.0
 10
4.7959
 20
36.5704
 30
0.0
 10
4.874
 20
36.49
 30
0.0
 10
4.9131
 20
36.3663
 30
0.0
 10
4.9131
 20
36.1993
 30
0.0
 10
4.9131
 20
36.1993
 30
0.0
 10
4.9131
 20
36.1993
 30
0.0
 10
4.9131
 20
35.1946
 30
0.0
 10
4.9131
 20
35.1946
 30
0.0
 10
4.9131
 20
35.1946
 30
0.0
 10
4.9131
 20
35.1946
 30
0.0
 10
4.6666
 20
35.1946
 30
0.0
 10
4.6666
 20
35.1946
 30
0.0
 10
4.6666
 20
35.1946
 30
0.0
 10
4.6666
 20
35.1946
 30
0.0
 10
4.6666
 20
36.1165
 30
0.0
 10
4.6666
 20
36.1165
 30
0.0
 10
4.6666
 20
36.1165
 30
0.0
 10
4.6666
 20
36.2158
 30
0.0
 10
4.6586
 20
36.2873
 30
0.0
 10
4.6426
 20
36.331
 30
0.0
 10
4.6426
 20
36.331
 30
0.0
 10
4.6261
 20
36.3743
 30
0.0
 10
4.597
 20
36.4096
 30
0.0
 10
4.5551
 20
36.4364
 30
0.0
 10
4.5551
 20
36.4364
 30
0.0
 10
4.5128
 20
36.4627
 30
0.0
 10
4.4629
 20
36.4763
 30
0.0
 10
4.406
 20
36.4763
 30
0.0
 10
4.406
 20
36.4763
 30
0.0
 10
4.303
 20
36.4763
 30
0.0
 10
4.2179
 20
36.442
 30
0.0
 10
4.1497
 20
36.3733
 30
0.0
 10
4.1497
 20
36.3733
 30
0.0
 10
4.0819
 20
36.3051
 30
0.0
 10
4.0476
 20
36.1955
 30
0.0
 10
4.0476
 20
36.045
 30
0.0
 10
4.0476
 20
36.045
 30
0.0
 10
4.0476
 20
36.045
 30
0.0
 10
4.0476
 20
35.1946
 30
0.0
 10
4.0476
 20
35.1946
 30
0.0
 10
4.0476
 20
35.1946
 30
0.0
 10
4.0476
 20
35.1946
 30
0.0
 10
3.7997
 20
35.1946
 30
0.0
 10
3.7997
 20
35.1946
 30
0.0
 10
3.7997
 20
35.1946
 30
0.0
 10
3.7997
 20
35.1946
 30
0.0
 10
3.7997
 20
36.1452
 30
0.0
 10
3.7997
 20
36.1452
 30
0.0
 10
3.7997
 20
36.1452
 30
0.0
 10
3.7997
 20
36.2557
 30
0.0
 10
3.7795
 20
36.3385
 30
0.0
 10
3.739
 20
36.3936
 30
0.0
 10
3.739
 20
36.3936
 30
0.0
 10
3.6986
 20
36.4486
 30
0.0
 10
3.6327
 20
36.4763
 30
0.0
 10
3.5405
 20
36.4763
 30
0.0
 10
3.5405
 20
36.4763
 30
0.0
 10
3.4709
 20
36.4763
 30
0.0
 10
3.4065
 20
36.458
 30
0.0
 10
3.3472
 20
36.4208
 30
0.0
 10
3.3472
 20
36.4208
 30
0.0
 10
3.2879
 20
36.3842
 30
0.0
 10
3.2447
 20
36.3305
 30
0.0
 10
3.2183
 20
36.26
 30
0.0
 10
3.2183
 20
36.26
 30
0.0
 10
3.1915
 20
36.189
 30
0.0
 10
3.1783
 20
36.0869
 30
0.0
 10
3.1783
 20
35.9538
 30
0.0
 10
3.1783
 20
35.9538
 30
0.0
 10
3.1783
 20
35.9538
 30
0.0
 10
3.1783
 20
35.1946
 30
0.0
 10
3.1783
 20
35.1946
 30
0.0
 10
3.1783
 20
35.1946
 30
0.0
 10
3.1783
 20
35.1946
 30
0.0
 10
2.9305
 20
35.1946
 30
0.0
 10
2.9305
 20
35.1946
 30
0.0
  0
SPLINE
  5
48
330
1F
100
AcDbEntity
  8
ROUND
 62
   250
100
AcDbSpline
210
0.0
220
0.0
230
1.0
 70
    11
 71
     3
 72
   112
 73
   108
 74
     0
 42
0.0000000001
 43
0.0000000001
 40
0.0
 40
0.0
 40
0.0
 40
0.0
 40
0.0357142857142857
 40
0.0357142857142857
 40
0.0357142857142857
 40
0.0357142857142857
 40
0.0714285714285714
 40
0.0714285714285714
 40
0.0714285714285714
 40
0.0714285714285714
 40
0.1071428571428571
 40
0.1071428571428571
 40
0.1071428571428571
 40
0.1071428571428571
 40
0.1428571428571428
 40
0.1428571428571428
 40
0.1428571428571428
 40
0.1428571428571428
 40
0.1785714285714286
 40
0.1785714285714286
 40
0.1785714285714286
 40
0.1785714285714286
 40
0.2142857142857143
 40
0.2142857142857143
 40
0.2142857142857143
 40
0.2142857142857143
 40
0.25
 40
0.25
 40
0.25
 40
0.25
 40
0.2857142857142857
 40
0.2857142857142857
 40
0.2857142857142857
 40
0.2857142857142857
 40
0.3214285714285715
 40
0.3214285714285715
 40
0.3214285714285715
 40
0.3214285714285715
 40
0.3571428571428572
 40
0.3571428571428572
 40
0.3571428571428572
 40
0.3571428571428572
 40
0.3928571428571428
 40
0.3928571428571428
 40
0.3928571428571428
 40
0.3928571428571428
 40
0.4285714285714285
 40
0.4285714285714285
 40
0.4285714285714285
 40
0.4285714285714285
 40
0.4642857142857143
 40
0.4642857142857143
 40
0.4642857142857143
 40
0.4642857142857143
 40
0.5
 40
0.5
 40
0.5
 40
0.5
 40
0.5357142857142857
 40
0.5357142857142857
 40
0.5357142857142857
 40
0.5357142857142857
 40
0.5714285714285714
 40
0.5714285714285714
 40
0.5714285714285714
 40
0.5714285714285714
 40
0.6071428571428571
 40
0.6071428571428571
 40
0.6071428571428571
 40
0.6071428571428571
 40
0.6428571428571429
 40
0.6428571428571429
 40
0.6428571428571429
 40
0.6428571428571429
 40
0.6785714285714286
 40
0.6785714285714286
 40
0.6785714285714286
 40
0.6785714285714286
 40
0.7142857142857143
 40
0.7142857142857143
 40
0.7142857142857143
 40
0.7142857142857143
 40
0.75
 40
0.75
 40
0.75
 40
0.75
 40
0.7857142857142857
 40
0.7857142857142857
 40
0.7857142857142857
 40
0.7857142857142857
 40
0.8214285714285714
 40
0.8214285714285714
 40
0.8214285714285714
 40
0.8214285714285714
 40
0.8571428571428571
 40
0.8571428571428571
 40
0.8571428571428571
 40
0.8571428571428571
 40
0.8928571428571429
 40
0.8928571428571429
 40
0.8928571428571429
 40
0.8928571428571429
 40
0.9285714285714286
 40
0.9285714285714286
 40
0.9285714285714286
 40
0.9285714285714286
 40
1.0
 40
1.0
 40
1.0
 40
1.0
 10
6.2362
 20
35.3752
 30
0.0
 10
6.144
 20
35.2971
 30
0.0
 10
6.0556
 20
35.2421
 30
0.0
 10
5.9709
 20
35.2097
 30
0.0
 10
5.9709
 20
35.2097
 30
0.0
 10
5.8858
 20
35.1777
 30
0.0
 10
5.7945
 20
35.1617
 30
0.0
 10
5.6972
 20
35.1617
 30
0.0
 10
5.6972
 20
35.1617
 30
0.0
 10
5.5363
 20
35.1617
 30
0.0
 10
5.4131
 20
35.2007
 30
0.0
 10
5.3265
 20
35.2793
 30
0.0
 10
5.3265
 20
35.2793
 30
0.0
 10
5.2404
 20
35.3578
 30
0.0
 10
5.1972
 20
35.4585
 30
0.0
 10
5.1972
 20
35.5803
 30
0.0
 10
5.1972
 20
35.5803
 30
0.0
 10
5.1972
 20
35.6523
 30
0.0
 10
5.2132
 20
35.7176
 30
0.0
 10
5.2461
 20
35.7769
 30
0.0
 10
5.2461
 20
35.7769
 30
0.0
 10
5.2785
 20
35.8362
 30
0.0
 10
5.3213
 20
35.8837
 30
0.0
 10
5.374
 20
35.9194
 30
0.0
 10
5.374
 20
35.9194
 30
0.0
 10
5.4272
 20
35.9552
 30
0.0
 10
5.4864
 20
35.9825
 30
0.0
 10
5.5528
 20
36.0008
 30
0.0
 10
5.5528
 20
36.0008
 30
0.0
 10
5.6012
 20
36.0135
 30
0.0
 10
5.6746
 20
36.0262
 30
0.0
 10
5.7729
 20
36.038
 30
0.0
 10
5.7729
 20
36.038
 30
0.0
 10
5.9733
 20
36.062
 30
0.0
 10
6.121
 20
36.0902
 30
0.0
 10
6.2155
 20
36.1236
 30
0.0
 10
6.2155
 20
36.1236
 30
0.0
 10
6.2165
 20
36.1574
 30
0.0
 10
6.2169
 20
36.1791
 30
0.0
 10
6.2169
 20
36.188
 30
0.0
 10
6.2169
 20
36.188
 30
0.0
 10
6.2169
 20
36.2891
 30
0.0
 10
6.1934
 20
36.3606
 30
0.0
 10
6.1464
 20
36.4016
 30
0.0
 10
6.1464
 20
36.4016
 30
0.0
 10
6.0833
 20
36.458
 30
0.0
 10
5.9888
 20
36.4858
 30
0.0
 10
5.8641
 20
36.4858
 30
0.0
 10
5.8641
 20
36.4858
 30
0.0
 10
5.7475
 20
36.4858
 30
0.0
 10
5.6614
 20
36.4655
 30
0.0
 10
5.6054
 20
36.4246
 30
0.0
 10
5.6054
 20
36.4246
 30
0.0
 10
5.5499
 20
36.3837
 30
0.0
 10
5.509
 20
36.3113
 30
0.0
 10
5.4822
 20
36.2073
 30
0.0
 10
5.4822
 20
36.2073
 30
0.0
 10
5.4822
 20
36.2073
 30
0.0
 10
5.24
 20
36.2407
 30
0.0
 10
5.24
 20
36.2407
 30
0.0
 10
5.24
 20
36.2407
 30
0.0
 10
5.2621
 20
36.3442
 30
0.0
 10
5.2983
 20
36.4284
 30
0.0
 10
5.3486
 20
36.4919
 30
0.0
 10
5.3486
 20
36.4919
 30
0.0
 10
5.399
 20
36.5558
 30
0.0
 10
5.4723
 20
36.6052
 30
0.0
 10
5.5678
 20
36.6396
 30
0.0
 10
5.5678
 20
36.6396
 30
0.0
 10
5.6633
 20
36.6739
 30
0.0
 10
5.7738
 20
36.6913
 30
0.0
 10
5.8999
 20
36.6913
 30
0.0
 10
5.8999
 20
36.6913
 30
0.0
 10
6.025
 20
36.6913
 30
0.0
 10
6.1261
 20
36.6763
 30
0.0
 10
6.2042
 20
36.6471
 30
0.0
 10
6.2042
 20
36.6471
 30
0.0
 10
6.2823
 20
36.6175
 30
0.0
 10
6.3397
 20
36.5808
 30
0.0
 10
6.3768
 20
36.5361
 30
0.0
 10
6.3768
 20
36.5361
 30
0.0
 10
6.4135
 20
36.4914
 30
0.0
 10
6.4389
 20
36.4354
 30
0.0
 10
6.454
 20
36.3672
 30
0.0
 10
6.454
 20
36.3672
 30
0.0
 10
6.462
 20
36.3249
 30
0.0
 10
6.4662
 20
36.2487
 30
0.0
 10
6.4662
 20
36.1386
 30
0.0
 10
6.4662
 20
36.1386
 30
0.0
 10
6.4662
 20
36.1386
 30
0.0
 10
6.4662
 20
35.808
 30
0.0
 10
6.4662
 20
35.808
 30
0.0
 10
6.4662
 20
35.808
 30
0.0
 10
6.4662
 20
35.577
 30
0.0
 10
6.4714
 20
35.4312
 30
0.0
 10
6.4822
 20
35.3705
 30
0.0
 10
6.4822
 20
35.3705
 30
0.0
 10
6.4926
 20
35.3094
 30
0.0
 10
6.5137
 20
35.2506
 30
0.0
 10
6.5448
 20
35.1946
 30
0.0
 10
6.5448
 20
35.1946
 30
0.0
 10
6.5448
 20
35.1946
 30
0.0
 10
6.2856
 20
35.1946
 30
0.0
 10
6.2856
 20
35.1946
 30
0.0
 10
6.2856
 20
35.1946
 30
0.0
 10
6.2602
 20
35.2459
 30
0.0
 10
6.2433
 20
35.3061
 30
0.0
 10
6.2362
 20
35.3752
 30
0.0
  0
SPLINE
  5
49
330
1F
100
AcDbEntity
  8
ROUND
 62
   250
100
AcDbSpline
210
0.0
220
0.0
230
1.0
 70
    11
 71
     3
 72
    44
 73
    40
 74
     0
 42
0.0000000001
 43
0.0000000001
 40
0.0
 40
0.0
 40
0.0
 40
0.0
 40
0.0909090909090909
 40
0.0909090909090909
 40
0.0909090909090909
 40
0.0909090909090909
 40
0.1818181818181818
 40
0.1818181818181818
 40
0.1818181818181818
 40
0.1818181818181818
 40
0.2727272727272727
 40
0.2727272727272727
 40
0.2727272727272727
 40
0.2727272727272727
 40
0.3636363636363636
 40
0.3636363636363636
 40
0.3636363636363636
 40
0.3636363636363636
 40
0.4545454545454545
 40
0.4545454545454545
 40
0.4545454545454545
 40
0.4545454545454545
 40
0.5454545454545454
 40
0.5454545454545454
 40
0.5454545454545454
 40
0.5454545454545454
 40
0.6363636363636364
 40
0.6363636363636364
 40
0.6363636363636364
 40
0.6363636363636364
 40
0.7272727272727273
 40
0.7272727272727273
 40
0.7272727272727273
 40
0.7272727272727273
 40
0.8181818181818182
 40
0.8181818181818182
 40
0.8181818181818182
 40
0.8181818181818182
 40
1.0
 40
1.0
 40
1.0
 40
1.0
 10
6.2155
 20
35.9293
 30
0.0
 10
6.1252
 20
35.8922
 30
0.0
 10
5.9902
 20
35.8611
 30
0.0
 10
5.8105
 20
35.8352
 30
0.0
 10
5.8105
 20
35.8352
 30
0.0
 10
5.7085
 20
35.8207
 30
0.0
 10
5.636
 20
35.8042
 30
0.0
 10
5.5942
 20
35.7859
 30
0.0
 10
5.5942
 20
35.7859
 30
0.0
 10
5.5518
 20
35.7675
 30
0.0
 10
5.5189
 20
35.7407
 30
0.0
 10
5.4963
 20
35.7049
 30
0.0
 10
5.4963
 20
35.7049
 30
0.0
 10
5.4733
 20
35.6697
 30
0.0
 10
5.4615
 20
35.6306
 30
0.0
 10
5.4615
 20
35.5874
 30
0.0
 10
5.4615
 20
35.5874
 30
0.0
 10
5.4615
 20
35.521
 30
0.0
 10
5.4869
 20
35.466
 30
0.0
 10
5.5368
 20
35.4218
 30
0.0
 10
5.5368
 20
35.4218
 30
0.0
 10
5.5866
 20
35.378
 30
0.0
 10
5.66
 20
35.3559
 30
0.0
 10
5.7564
 20
35.3559
 30
0.0
 10
5.7564
 20
35.3559
 30
0.0
 10
5.8519
 20
35.3559
 30
0.0
 10
5.9371
 20
35.3766
 30
0.0
 10
6.0114
 20
35.4185
 30
0.0
 10
6.0114
 20
35.4185
 30
0.0
 10
6.0857
 20
35.4604
 30
0.0
 10
6.1407
 20
35.5177
 30
0.0
 10
6.1755
 20
35.5902
 30
0.0
 10
6.1755
 20
35.5902
 30
0.0
 10
6.2023
 20
35.6462
 30
0.0
 10
6.2155
 20
35.7289
 30
0.0
 10
6.2155
 20
35.8381
 30
0.0
 10
6.2155
 20
35.8381
 30
0.0
 10
6.2155
 20
35.8381
 30
0.0
 10
6.2155
 20
35.9293
 30
0.0
 10
6.2155
 20
35.9293
 30
0.0
  0
SPLINE
  5
4A
330
1F
100
AcDbEntity
  8
ROUND
 62
   250
100
AcDbSpline
210
0.0
220
0.0
230
1.0
 70
    11
 71
     3
 72
    64
 73
    60
 74
     0
 42
0.0000000001
 43
0.0000000001
 40
0.0
 40
0.0
 40
0.0
 40
0.0
 40
0.0625
 40
0.0625
 40
0.0625
 40
0.0625
 40
0.125
 40
0.125
 40
0.125
 40
0.125
 40
0.1875
 40
0.1875
 40
0.1875
 40
0.1875
 40
0.25
 40
0.25
 40
0.25
 40
0.25
 40
0.3125
 40
0.3125
 40
0.3125
 40
0.3125
 40
0.375
 40
0.375
 40
0.375
 40
0.375
 40
0.4375
 40
0.4375
 40
0.4375
 40
0.4375
 40
0.5
 40
0.5
 40
0.5
 40
0.5
 40
0.5625
 40
0.5625
 40
0.5625
 40
0.5625
 40
0.625
 40
0.625
 40
0.625
 40
0.625
 40
0.6875
 40
0.6875
 40
0.6875
 40
0.6875
 40
0.75
 40
0.75
 40
0.75
 40
0.75
 40
0.8125
 40
0.8125
 40
0.8125
 40
0.8125
 40
0.875
 40
0.875
 40
0.875
 40
0.875
 40
1.0
 40
1.0
 40
1.0
 40
1.0
 10
6.6854
 20
35.1946
 30
0.0
 10
6.6854
 20
35.1946
 30
0.0
 10
7.2202
 20
35.9552
 30
0.0
 10
7.2202
 20
35.9552
 30
0.0
 10
7.2202
 20
35.9552
 30
0.0
 10
7.2202
 20
35.9552
 30
0.0
 10
6.7254
 20
36.6579
 30
0.0
 10
6.7254
 20
36.6579
 30
0.0
 10
6.7254
 20
36.6579
 30
0.0
 10
6.7254
 20
36.6579
 30
0.0
 10
7.0353
 20
36.6579
 30
0.0
 10
7.0353
 20
36.6579
 30
0.0
 10
7.0353
 20
36.6579
 30
0.0
 10
7.0353
 20
36.6579
 30
0.0
 10
7.2602
 20
36.315
 30
0.0
 10
7.2602
 20
36.315
 30
0.0
 10
7.2602
 20
36.315
 30
0.0
 10
7.302
 20
36.2496
 30
0.0
 10
7.3364
 20
36.1951
 30
0.0
 10
7.3618
 20
36.1509
 30
0.0
 10
7.3618
 20
36.1509
 30
0.0
 10
7.4022
 20
36.2115
 30
0.0
 10
7.4394
 20
36.2652
 30
0.0
 10
7.4737
 20
36.3122
 30
0.0
 10
7.4737
 20
36.3122
 30
0.0
 10
7.4737
 20
36.3122
 30
0.0
 10
7.7202
 20
36.6579
 30
0.0
 10
7.7202
 20
36.6579
 30
0.0
 10
7.7202
 20
36.6579
 30
0.0
 10
7.7202
 20
36.6579
 30
0.0
 10
8.0165
 20
36.6579
 30
0.0
 10
8.0165
 20
36.6579
 30
0.0
 10
8.0165
 20
36.6579
 30
0.0
 10
8.0165
 20
36.6579
 30
0.0
 10
7.5109
 20
35.9688
 30
0.0
 10
7.5109
 20
35.9688
 30
0.0
 10
7.5109
 20
35.9688
 30
0.0
 10
7.5109
 20
35.9688
 30
0.0
 10
8.0551
 20
35.1946
 30
0.0
 10
8.0551
 20
35.1946
 30
0.0
 10
8.0551
 20
35.1946
 30
0.0
 10
8.0551
 20
35.1946
 30
0.0
 10
7.7508
 20
35.1946
 30
0.0
 10
7.7508
 20
35.1946
 30
0.0
 10
7.7508
 20
35.1946
 30
0.0
 10
7.7508
 20
35.1946
 30
0.0
 10
7.4502
 20
35.6494
 30
0.0
 10
7.4502
 20
35.6494
 30
0.0
 10
7.4502
 20
35.6494
 30
0.0
 10
7.4502
 20
35.6494
 30
0.0
 10
7.3703
 20
35.7722
 30
0.0
 10
7.3703
 20
35.7722
 30
0.0
 10
7.3703
 20
35.7722
 30
0.0
 10
7.3703
 20
35.7722
 30
0.0
 10
6.986
 20
35.1946
 30
0.0
 10
6.986
 20
35.1946
 30
0.0
 10
6.986
 20
35.1946
 30
0.0
 10
6.986
 20
35.1946
 30
0.0
 10
6.6854
 20
35.1946
 30
0.0
 10
6.6854
 20
35.1946
 30
0.0
  0
SPLINE
  5
4B
330
1F
100
AcDbEntity
  8
ROUND
 62
   250
100
AcDbSpline
210
0.0
220
0.0
230
1.0
 70
    11
 71
     3
 72
   124
 73
   120
 74
     0
 42
0.0000000001
 43
0.0000000001
 40
0.0
 40
0.0
 40
0.0
 40
0.0
 40
0.032258064516129
 40
0.032258064516129
 40
0.032258064516129
 40
0.032258064516129
 40
0.0645161290322581
 40
0.0645161290322581
 40
0.0645161290322581
 40
0.0645161290322581
 40
0.0967741935483871
 40
0.0967741935483871
 40
0.0967741935483871
 40
0.0967741935483871
 40
0.1290322580645161
 40
0.1290322580645161
 40
0.1290322580645161
 40
0.1290322580645161
 40
0.1612903225806452
 40
0.1612903225806452
 40
0.1612903225806452
 40
0.1612903225806452
 40
0.1935483870967742
 40
0.1935483870967742
 40
0.1935483870967742
 40
0.1935483870967742
 40
0.2258064516129032
 40
0.2258064516129032
 40
0.2258064516129032
 40
0.2258064516129032
 40
0.2580645161290323
 40
0.2580645161290323
 40
0.2580645161290323
 40
0.2580645161290323
 40
0.2903225806451613
 40
0.2903225806451613
 40
0.2903225806451613
 40
0.2903225806451613
 40
0.3225806451612903
 40
0.3225806451612903
 40
0.3225806451612903
 40
0.3225806451612903
 40
0.3548387096774194
 40
0.3548387096774194
 40
0.3548387096774194
 40
0.3548387096774194
 40
0.3870967741935484
 40
0.3870967741935484
 40
0.3870967741935484
 40
0.3870967741935484
 40
0.4193548387096774
 40
0.4193548387096774
 40
0.4193548387096774
 40
0.4193548387096774
 40
0.4516129032258064
 40
0.4516129032258064
 40
0.4516129032258064
 40
0.4516129032258064
 40
0.4838709677419355
 40
0.4838709677419355
 40
0.4838709677419355
 40
0.4838709677419355
 40
0.5161290322580645
 40
0.5161290322580645
 40
0.5161290322580645
 40
0.5161290322580645
 40
0.5483870967741935
 40
0.5483870967741935
 40
0.5483870967741935
 40
0.5483870967741935
 40
0.5806451612903226
 40
0.5806451612903226
 40
0.5806451612903226
 40
0.5806451612903226
 40
0.6129032258064516
 40
0.6129032258064516
 40
0.6129032258064516
 40
0.6129032258064516
 40
0.6451612903225806
 40
0.6451612903225806
 40
0.6451612903225806
 40
0.6451612903225806
 40
0.6774193548387096
 40
0.6774193548387096
 40
0.6774193548387096
 40
0.6774193548387096
 40
0.7096774193548387
 40
0.7096774193548387
 40
0.7096774193548387
 40
0.7096774193548387
 40
0.7419354838709677
 40
0.7419354838709677
 40
0.7419354838709677
 40
0.7419354838709677
 40
0.7741935483870968
 40
0.7741935483870968
 40
0.7741935483870968
 40
0.7741935483870968
 40
0.8064516129032258
 40
0.8064516129032258
 40
0.8064516129032258
 40
0.8064516129032258
 40
0.8387096774193549
 40
0.8387096774193549
 40
0.8387096774193549
 40
0.8387096774193549
 40
0.8709677419354839
 40
0.8709677419354839
 40
0.8709677419354839
 40
0.8709677419354839
 40
0.9032258064516129
 40
0.9032258064516129
 40
0.9032258064516129
 40
0.9032258064516129
 40
0.9354838709677419
 40
0.9354838709677419
 40
0.9354838709677419
 40
0.9354838709677419
 40
1.0
 40
1.0
 40
1.0
 40
1.0
 10
8.9784
 20
35.728
 30
0.0
 10
8.9784
 20
35.728
 30
0.0
 10
9.2263
 20
35.7609
 30
0.0
 10
9.2263
 20
35.7609
 30
0.0
 10
9.2263
 20
35.7609
 30
0.0
 10
9.255
 20
35.6203
 30
0.0
 10
9.3035
 20
35.5192
 30
0.0
 10
9.3717
 20
35.4571
 30
0.0
 10
9.3717
 20
35.4571
 30
0.0
 10
9.4403
 20
35.395
 30
0.0
 10
9.5236
 20
35.3639
 30
0.0
 10
9.6219
 20
35.3639
 30
0.0
 10
9.6219
 20
35.3639
 30
0.0
 10
9.7385
 20
35.3639
 30
0.0
 10
9.8373
 20
35.4044
 30
0.0
 10
9.9178
 20
35.4853
 30
0.0
 10
9.9178
 20
35.4853
 30
0.0
 10
9.9977
 20
35.5662
 30
0.0
 10
10.0382
 20
35.6664
 30
0.0
 10
10.0382
 20
35.7859
 30
0.0
 10
10.0382
 20
35.7859
 30
0.0
 10
10.0382
 20
35.8997
 30
0.0
 10
10.001
 20
35.9938
 30
0.0
 10
9.9267
 20
36.0676
 30
0.0
 10
9.9267
 20
36.0676
 30
0.0
 10
9.8519
 20
36.1414
 30
0.0
 10
9.7574
 20
36.1786
 30
0.0
 10
9.6426
 20
36.1786
 30
0.0
 10
9.6426
 20
36.1786
 30
0.0
 10
9.5956
 20
36.1786
 30
0.0
 10
9.5372
 20
36.1692
 30
0.0
 10
9.4676
 20
36.1509
 30
0.0
 10
9.4676
 20
36.1509
 30
0.0
 10
9.4676
 20
36.1509
 30
0.0
 10
9.4954
 20
36.3686
 30
0.0
 10
9.4954
 20
36.3686
 30
0.0
 10
9.4954
 20
36.3686
 30
0.0
 10
9.5118
 20
36.3668
 30
0.0
 10
9.525
 20
36.3658
 30
0.0
 10
9.5353
 20
36.3658
 30
0.0
 10
9.5353
 20
36.3658
 30
0.0
 10
9.6407
 20
36.3658
 30
0.0
 10
9.7357
 20
36.3936
 30
0.0
 10
9.8204
 20
36.4486
 30
0.0
 10
9.8204
 20
36.4486
 30
0.0
 10
9.9051
 20
36.5036
 30
0.0
 10
9.9474
 20
36.5888
 30
0.0
 10
9.9474
 20
36.7035
 30
0.0
 10
9.9474
 20
36.7035
 30
0.0
 10
9.9474
 20
36.7943
 30
0.0
 10
9.9163
 20
36.87
 30
0.0
 10
9.8547
 20
36.9293
 30
0.0
 10
9.8547
 20
36.9293
 30
0.0
 10
9.7931
 20
36.989
 30
0.0
 10
9.7136
 20
37.0192
 30
0.0
 10
9.6162
 20
37.0192
 30
0.0
 10
9.6162
 20
37.0192
 30
0.0
 10
9.5198
 20
37.0192
 30
0.0
 10
9.4394
 20
36.9886
 30
0.0
 10
9.3754
 20
36.9284
 30
0.0
 10
9.3754
 20
36.9284
 30
0.0
 10
9.311
 20
36.8677
 30
0.0
 10
9.2696
 20
36.7764
 30
0.0
 10
9.2512
 20
36.6551
 30
0.0
 10
9.2512
 20
36.6551
 30
0.0
 10
9.2512
 20
36.6551
 30
0.0
 10
9.0034
 20
36.6993
 30
0.0
 10
9.0034
 20
36.6993
 30
0.0
 10
9.0034
 20
36.6993
 30
0.0
 10
9.0335
 20
36.8658
 30
0.0
 10
9.1026
 20
36.9947
 30
0.0
 10
9.2099
 20
37.0859
 30
0.0
 10
9.2099
 20
37.0859
 30
0.0
 10
9.3176
 20
37.1772
 30
0.0
 10
9.4512
 20
37.2233
 30
0.0
 10
9.6111
 20
37.2233
 30
0.0
 10
9.6111
 20
37.2233
 30
0.0
 10
9.7211
 20
37.2233
 30
0.0
 10
9.8227
 20
37.1993
 30
0.0
 10
9.9154
 20
37.1523
 30
0.0
 10
9.9154
 20
37.1523
 30
0.0
 10
10.0081
 20
37.1048
 30
0.0
 10
10.0791
 20
37.0403
 30
0.0
 10
10.1285
 20
36.9585
 30
0.0
 10
10.1285
 20
36.9585
 30
0.0
 10
10.1774
 20
36.8766
 30
0.0
 10
10.2023
 20
36.7901
 30
0.0
 10
10.2023
 20
36.6979
 30
0.0
 10
10.2023
 20
36.6979
 30
0.0
 10
10.2023
 20
36.6109
 30
0.0
 10
10.1788
 20
36.5314
 30
0.0
 10
10.1318
 20
36.4594
 30
0.0
 10
10.1318
 20
36.4594
 30
0.0
 10
10.0847
 20
36.3879
 30
0.0
 10
10.0156
 20
36.331
 30
0.0
 10
9.9239
 20
36.2887
 30
0.0
 10
9.9239
 20
36.2887
 30
0.0
 10
10.0433
 20
36.2614
 30
0.0
 10
10.136
 20
36.204
 30
0.0
 10
10.2023
 20
36.117
 30
0.0
 10
10.2023
 20
36.117
 30
0.0
 10
10.2682
 20
36.0304
 30
0.0
 10
10.3011
 20
35.9218
 30
0.0
 10
10.3011
 20
35.7915
 30
0.0
 10
10.3011
 20
35.7915
 30
0.0
 10
10.3011
 20
35.6151
 30
0.0
 10
10.2371
 20
35.4655
 30
0.0
 10
10.1083
 20
35.3428
 30
0.0
 10
10.1083
 20
35.3428
 30
0.0
 10
9.9798
 20
35.22
 30
0.0
 10
9.8171
 20
35.1589
 30
0.0
 10
9.6205
 20
35.1589
 30
0.0
 10
9.6205
 20
35.1589
 30
0.0
 10
9.4432
 20
35.1589
 30
0.0
 10
9.2959
 20
35.2115
 30
0.0
 10
9.1788
 20
35.3174
 30
0.0
 10
9.1788
 20
35.3174
 30
0.0
 10
9.0617
 20
35.4227
 30
0.0
 10
8.9949
 20
35.5596
 30
0.0
 10
8.9784
 20
35.728
 30
0.0
  0
SPLINE
  5
4C
330
1F
100
AcDbEntity
  8
ROUND
 62
   250
100
AcDbSpline
210
0.0
220
0.0
230
1.0
 70
    11
 71
     3
 72
    80
 73
    76
 74
     0
 42
0.0000000001
 43
0.0000000001
 40
0.0
 40
0.0
 40
0.0
 40
0.0
 40
0.05
 40
0.05
 40
0.05
 40
0.05
 40
0.1
 40
0.1
 40
0.1
 40
0.1
 40
0.15
 40
0.15
 40
0.15
 40
0.15
 40
0.2
 40
0.2
 40
0.2
 40
0.2
 40
0.25
 40
0.25
 40
0.25
 40
0.25
 40
0.3
 40
0.3
 40
0.3
 40
0.3
 40
0.35
 40
0.35
 40
0.35
 40
0.35
 40
0.4
 40
0.4
 40
0.4
 40
0.4
 40
0.45
 40
0.45
 40
0.45
 40
0.45
 40
0.5
 40
0.5
 40
0.5
 40
0.5
 40
0.55
 40
0.55
 40
0.55
 40
0.55
 40
0.6
 40
0.6
 40
0.6
 40
0.6
 40
0.65
 40
0.65
 40
0.65
 40
0.65
 40
0.7
 40
0.7
 40
0.7
 40
0.7
 40
0.75
 40
0.75
 40
0.75
 40
0.75
 40
0.8
 40
0.8
 40
0.8
 40
0.8
 40
0.85
 40
0.85
 40
0.85
 40
0.85
 40
0.9
 40
0.9
 40
0.9
 40
0.9
 40
1.0
 40
1.0
 40
1.0
 40
1.0
 10
11.8335
 20
36.72
 30
0.0
 10
11.8335
 20
36.72
 30
0.0
 10
11.5871
 20
36.7007
 30
0.0
 10
11.5871
 20
36.7007
 30
0.0
 10
11.5871
 20
36.7007
 30
0.0
 10
11.565
 20
36.7981
 30
0.0
 10
11.5339
 20
36.8691
 30
0.0
 10
11.4935
 20
36.9128
 30
0.0
 10
11.4935
 20
36.9128
 30
0.0
 10
11.4262
 20
36.9839
 30
0.0
 10
11.3434
 20
37.0192
 30
0.0
 10
11.2451
 20
37.0192
 30
0.0
 10
11.2451
 20
37.0192
 30
0.0
 10
11.1661
 20
37.0192
 30
0.0
 10
11.097
 20
36.997
 30
0.0
 10
11.0372
 20
36.9528
 30
0.0
 10
11.0372
 20
36.9528
 30
0.0
 10
10.9591
 20
36.8959
 30
0.0
 10
10.8975
 20
36.8127
 30
0.0
 10
10.8524
 20
36.7035
 30
0.0
 10
10.8524
 20
36.7035
 30
0.0
 10
10.8077
 20
36.5944
 30
0.0
 10
10.7842
 20
36.4387
 30
0.0
 10
10.7823
 20
36.2365
 30
0.0
 10
10.7823
 20
36.2365
 30
0.0
 10
10.842
 20
36.3272
 30
0.0
 10
10.9149
 20
36.395
 30
0.0
 10
11.0015
 20
36.4392
 30
0.0
 10
11.0015
 20
36.4392
 30
0.0
 10
11.0875
 20
36.4829
 30
0.0
 10
11.1783
 20
36.505
 30
0.0
 10
11.2729
 20
36.505
 30
0.0
 10
11.2729
 20
36.505
 30
0.0
 10
11.4384
 20
36.505
 30
0.0
 10
11.5791
 20
36.4444
 30
0.0
 10
11.6953
 20
36.3225
 30
0.0
 10
11.6953
 20
36.3225
 30
0.0
 10
11.8114
 20
36.2007
 30
0.0
 10
11.8698
 20
36.0436
 30
0.0
 10
11.8698
 20
35.8508
 30
0.0
 10
11.8698
 20
35.8508
 30
0.0
 10
11.8698
 20
35.7238
 30
0.0
 10
11.842
 20
35.6062
 30
0.0
 10
11.7874
 20
35.497
 30
0.0
 10
11.7874
 20
35.497
 30
0.0
 10
11.7329
 20
35.3884
 30
0.0
 10
11.6576
 20
35.3047
 30
0.0
 10
11.5621
 20
35.2468
 30
0.0
 10
11.5621
 20
35.2468
 30
0.0
 10
11.4667
 20
35.189
 30
0.0
 10
11.3585
 20
35.1603
 30
0.0
 10
11.2371
 20
35.1603
 30
0.0
 10
11.2371
 20
35.1603
 30
0.0
 10
11.0302
 20
35.1603
 30
0.0
 10
10.8618
 20
35.236
 30
0.0
 10
10.7315
 20
35.3884
 30
0.0
 10
10.7315
 20
35.3884
 30
0.0
 10
10.6007
 20
35.5403
 30
0.0
 10
10.5358
 20
35.791
 30
0.0
 10
10.5358
 20
36.14
 30
0.0
 10
10.5358
 20
36.14
 30
0.0
 10
10.5358
 20
36.5304
 30
0.0
 10
10.6078
 20
36.8141
 30
0.0
 10
10.7522
 20
36.9914
 30
0.0
 10
10.7522
 20
36.9914
 30
0.0
 10
10.8778
 20
37.1457
 30
0.0
 10
11.0471
 20
37.2233
 30
0.0
 10
11.2606
 20
37.2233
 30
0.0
 10
11.2606
 20
37.2233
 30
0.0
 10
11.4192
 20
37.2233
 30
0.0
 10
11.5494
 20
37.1786
 30
0.0
 10
11.651
 20
37.0892
 30
0.0
 10
11.651
 20
37.0892
 30
0.0
 10
11.7526
 20
37.0003
 30
0.0
 10
11.8133
 20
36.8771
 30
0.0
 10
11.8335
 20
36.72
 30
0.0
  0
SPLINE
  5
4D
330
1F
100
AcDbEntity
  8
ROUND
 62
   250
100
AcDbSpline
210
0.0
220
0.0
230
1.0
 70
    11
 71
     3
 72
    40
 73
    36
 74
     0
 42
0.0000000001
 43
0.0000000001
 40
0.0
 40
0.0
 40
0.0
 40
0.0
 40
0.1
 40
0.1
 40
0.1
 40
0.1
 40
0.2
 40
0.2
 40
0.2
 40
0.2
 40
0.3
 40
0.3
 40
0.3
 40
0.3
 40
0.4
 40
0.4
 40
0.4
 40
0.4
 40
0.5
 40
0.5
 40
0.5
 40
0.5
 40
0.6
 40
0.6
 40
0.6
 40
0.6
 40
0.7
 40
0.7
 40
0.7
 40
0.7
 40
0.8
 40
0.8
 40
0.8
 40
0.8
 40
1.0
 40
1.0
 40
1.0
 40
1.0
 10
10.8208
 20
35.8494
 30
0.0
 10
10.8208
 20
35.7637
 30
0.0
 10
10.8392
 20
35.6819
 30
0.0
 10
10.8754
 20
35.6038
 30
0.0
 10
10.8754
 20
35.6038
 30
0.0
 10
10.9116
 20
35.5257
 30
0.0
 10
10.9624
 20
35.4665
 30
0.0
 10
11.0273
 20
35.4256
 30
0.0
 10
11.0273
 20
35.4256
 30
0.0
 10
11.0927
 20
35.3846
 30
0.0
 10
11.1614
 20
35.3639
 30
0.0
 10
11.2329
 20
35.3639
 30
0.0
 10
11.2329
 20
35.3639
 30
0.0
 10
11.3378
 20
35.3639
 30
0.0
 10
11.4276
 20
35.4063
 30
0.0
 10
11.5029
 20
35.4909
 30
0.0
 10
11.5029
 20
35.4909
 30
0.0
 10
11.5781
 20
35.5756
 30
0.0
 10
11.6158
 20
35.6904
 30
0.0
 10
11.6158
 20
35.8352
 30
0.0
 10
11.6158
 20
35.8352
 30
0.0
 10
11.6158
 20
35.9749
 30
0.0
 10
11.5786
 20
36.085
 30
0.0
 10
11.5043
 20
36.1654
 30
0.0
 10
11.5043
 20
36.1654
 30
0.0
 10
11.43
 20
36.2459
 30
0.0
 10
11.3364
 20
36.2859
 30
0.0
 10
11.2235
 20
36.2859
 30
0.0
 10
11.2235
 20
36.2859
 30
0.0
 10
11.1111
 20
36.2859
 30
0.0
 10
11.016
 20
36.2459
 30
0.0
 10
10.938
 20
36.1654
 30
0.0
 10
10.938
 20
36.1654
 30
0.0
 10
10.8599
 20
36.085
 30
0.0
 10
10.8208
 20
35.9796
 30
0.0
 10
10.8208
 20
35.8494
 30
0.0
  0
SPLINE
  5
4E
330
1F
100
AcDbEntity
  8
ROUND
 62
   250
100
AcDbSpline
210
0.0
220
0.0
230
1.0
 70
    11
 71
     3
 72
    52
 73
    48
 74
     0
 42
0.0000000001
 43
0.0000000001
 40
0.0
 40
0.0
 40
0.0
 40
0.0
 40
0.0769230769230769
 40
0.0769230769230769
 40
0.0769230769230769
 40
0.0769230769230769
 40
0.1538461538461539
 40
0.1538461538461539
 40
0.1538461538461539
 40
0.1538461538461539
 40
0.2307692307692308
 40
0.2307692307692308
 40
0.2307692307692308
 40
0.2307692307692308
 40
0.3076923076923077
 40
0.3076923076923077
 40
0.3076923076923077
 40
0.3076923076923077
 40
0.3846153846153846
 40
0.3846153846153846
 40
0.3846153846153846
 40
0.3846153846153846
 40
0.4615384615384616
 40
0.4615384615384616
 40
0.4615384615384616
 40
0.4615384615384616
 40
0.5384615384615384
 40
0.5384615384615384
 40
0.5384615384615384
 40
0.5384615384615384
 40
0.6153846153846154
 40
0.6153846153846154
 40
0.6153846153846154
 40
0.6153846153846154
 40
0.6923076923076923
 40
0.6923076923076923
 40
0.6923076923076923
 40
0.6923076923076923
 40
0.7692307692307693
 40
0.7692307692307693
 40
0.7692307692307693
 40
0.7692307692307693
 40
0.8461538461538461
 40
0.8461538461538461
 40
0.8461538461538461
 40
0.8461538461538461
 40
1.0
 40
1.0
 40
1.0
 40
1.0
 10
12.1162
 20
36.1908
 30
0.0
 10
12.1162
 20
36.4298
 30
0.0
 10
12.1407
 20
36.6222
 30
0.0
 10
12.1901
 20
36.7675
 30
0.0
 10
12.1901
 20
36.7675
 30
0.0
 10
12.239
 20
36.9133
 30
0.0
 10
12.3124
 20
37.0257
 30
0.0
 10
12.4093
 20
37.1048
 30
0.0
 10
12.4093
 20
37.1048
 30
0.0
 10
12.5062
 20
37.1838
 30
0.0
 10
12.628
 20
37.2233
 30
0.0
 10
12.7747
 20
37.2233
 30
0.0
 10
12.7747
 20
37.2233
 30
0.0
 10
12.8834
 20
37.2233
 30
0.0
 10
12.9784
 20
37.2012
 30
0.0
 10
13.0602
 20
37.1574
 30
0.0
 10
13.0602
 20
37.1574
 30
0.0
 10
13.1421
 20
37.1142
 30
0.0
 10
13.2094
 20
37.0511
 30
0.0
 10
13.263
 20
36.9688
 30
0.0
 10
13.263
 20
36.9688
 30
0.0
 10
13.3161
 20
36.8865
 30
0.0
 10
13.358
 20
36.7863
 30
0.0
 10
13.3881
 20
36.6683
 30
0.0
 10
13.3881
 20
36.6683
 30
0.0
 10
13.4187
 20
36.5502
 30
0.0
 10
13.4337
 20
36.3912
 30
0.0
 10
13.4337
 20
36.1908
 30
0.0
 10
13.4337
 20
36.1908
 30
0.0
 10
13.4337
 20
35.9538
 30
0.0
 10
13.4093
 20
35.7628
 30
0.0
 10
13.3608
 20
35.617
 30
0.0
 10
13.3608
 20
35.617
 30
0.0
 10
13.3119
 20
35.4712
 30
0.0
 10
13.239
 20
35.3588
 30
0.0
 10
13.1421
 20
35.2793
 30
0.0
 10
13.1421
 20
35.2793
 30
0.0
 10
13.0452
 20
35.1998
 30
0.0
 10
12.9229
 20
35.1603
 30
0.0
 10
12.7747
 20
35.1603
 30
0.0
 10
12.7747
 20
35.1603
 30
0.0
 10
12.58
 20
35.1603
 30
0.0
 10
12.4271
 20
35.2299
 30
0.0
 10
12.3161
 20
35.3696
 30
0.0
 10
12.3161
 20
35.3696
 30
0.0
 10
12.183
 20
35.5375
 30
0.0
 10
12.1162
 20
35.8117
 30
0.0
 10
12.1162
 20
36.1908
 30
0.0
  0
SPLINE
  5
4F
330
1F
100
AcDbEntity
  8
ROUND
 62
   250
100
AcDbSpline
210
0.0
220
0.0
230
1.0
 70
    11
 71
     3
 72
    36
 73
    32
 74
     0
 42
0.0000000001
 43
0.0000000001
 40
0.0
 40
0.0
 40
0.0
 40
0.0
 40
0.1111111111111111
 40
0.1111111111111111
 40
0.1111111111111111
 40
0.1111111111111111
 40
0.2222222222222222
 40
0.2222222222222222
 40
0.2222222222222222
 40
0.2222222222222222
 40
0.3333333333333333
 40
0.3333333333333333
 40
0.3333333333333333
 40
0.3333333333333333
 40
0.4444444444444444
 40
0.4444444444444444
 40
0.4444444444444444
 40
0.4444444444444444
 40
0.5555555555555556
 40
0.5555555555555556
 40
0.5555555555555556
 40
0.5555555555555556
 40
0.6666666666666666
 40
0.6666666666666666
 40
0.6666666666666666
 40
0.6666666666666666
 40
0.7777777777777778
 40
0.7777777777777778
 40
0.7777777777777778
 40
0.7777777777777778
 40
1.0
 40
1.0
 40
1.0
 40
1.0
 10
12.3712
 20
36.1908
 30
0.0
 10
12.3712
 20
35.8592
 30
0.0
 10
12.4102
 20
35.6386
 30
0.0
 10
12.4878
 20
35.5286
 30
0.0
 10
12.4878
 20
35.5286
 30
0.0
 10
12.5654
 20
35.419
 30
0.0
 10
12.6609
 20
35.3639
 30
0.0
 10
12.7747
 20
35.3639
 30
0.0
 10
12.7747
 20
35.3639
 30
0.0
 10
12.889
 20
35.3639
 30
0.0
 10
12.9845
 20
35.4194
 30
0.0
 10
13.0621
 20
35.5295
 30
0.0
 10
13.0621
 20
35.5295
 30
0.0
 10
13.1397
 20
35.6396
 30
0.0
 10
13.1788
 20
35.8602
 30
0.0
 10
13.1788
 20
36.1908
 30
0.0
 10
13.1788
 20
36.1908
 30
0.0
 10
13.1788
 20
36.5234
 30
0.0
 10
13.1397
 20
36.7445
 30
0.0
 10
13.0621
 20
36.8536
 30
0.0
 10
13.0621
 20
36.8536
 30
0.0
 10
12.9845
 20
36.9632
 30
0.0
 10
12.8881
 20
37.0177
 30
0.0
 10
12.7724
 20
37.0177
 30
0.0
 10
12.7724
 20
37.0177
 30
0.0
 10
12.6581
 20
37.0177
 30
0.0
 10
12.5673
 20
36.9693
 30
0.0
 10
12.4991
 20
36.8729
 30
0.0
 10
12.4991
 20
36.8729
 30
0.0
 10
12.414
 20
36.7501
 30
0.0
 10
12.3712
 20
36.5224
 30
0.0
 10
12.3712
 20
36.1908
 30
0.0
  0
SPLINE
  5
50
330
1F
100
AcDbEntity
  8
ROUND
 62
   250
100
AcDbSpline
210
0.0
220
0.0
230
1.0
 70
    11
 71
     3
 72
    40
 73
    36
 74
     0
 42
0.0000000001
 43
0.0000000001
 40
0.0
 40
0.0
 40
0.0
 40
0.0
 40
0.1
 40
0.1
 40
0.1
 40
0.1
 40
0.2
 40
0.2
 40
0.2
 40
0.2
 40
0.3
 40
0.3
 40
0.3
 40
0.3
 40
0.4
 40
0.4
 40
0.4
 40
0.4
 40
0.5
 40
0.5
 40
0.5
 40
0.5
 40
0.6
 40
0.6
 40
0.6
 40
0.6
 40
0.7
 40
0.7
 40
0.7
 40
0.7
 40
0.8
 40
0.8
 40
0.8
 40
0.8
 40
1.0
 40
1.0
 40
1.0
 40
1.0
 10
-42.8114
 20
7.4866
 30
0.0
 10
-42.8114
 20
7.4866
 30
0.0
 10
-42.8114
 20
7.2387
 30
0.0
 10
-42.8114
 20
7.2387
 30
0.0
 10
-42.8114
 20
7.2387
 30
0.0
 10
-42.8114
 20
7.2387
 30
0.0
 10
-44.3918
 20
7.2387
 30
0.0
 10
-44.3918
 20
7.2387
 30
0.0
 10
-44.3918
 20
7.2387
 30
0.0
 10
-44.3349
 20
7.1789
 30
0.0
 10
-44.278
 20
7.1009
 30
0.0
 10
-44.2211
 20
7.004
 30
0.0
 10
-44.2211
 20
7.004
 30
0.0
 10
-44.1642
 20
6.9066
 30
0.0
 10
-44.1214
 20
6.8196
 30
0.0
 10
-44.0931
 20
6.7424
 30
0.0
 10
-44.0931
 20
6.7424
 30
0.0
 10
-44.0931
 20
6.7424
 30
0.0
 10
-44.3326
 20
6.7424
 30
0.0
 10
-44.3326
 20
6.7424
 30
0.0
 10
-44.3326
 20
6.7424
 30
0.0
 10
-44.3979
 20
6.8812
 30
0.0
 10
-44.477
 20
7.0026
 30
0.0
 10
-44.5696
 20
7.1065
 30
0.0
 10
-44.5696
 20
7.1065
 30
0.0
 10
-44.6628
 20
7.21
 30
0.0
 10
-44.7526
 20
7.2838
 30
0.0
 10
-44.8401
 20
7.3271
 30
0.0
 10
-44.8401
 20
7.3271
 30
0.0
 10
-44.8401
 20
7.3271
 30
0.0
 10
-44.8401
 20
7.4866
 30
0.0
 10
-44.8401
 20
7.4866
 30
0.0
 10
-44.8401
 20
7.4866
 30
0.0
 10
-44.8401
 20
7.4866
 30
0.0
 10
-42.8114
 20
7.4866
 30
0.0
 10
-42.8114
 20
7.4866
 30
0.0
  0
SPLINE
  5
51
330
1F
100
AcDbEntity
  8
ROUND
 62
   250
100
AcDbSpline
210
0.0
220
0.0
230
1.0
 70
    11
 71
     3
 72
    92
 73
    88
 74
     0
 42
0.0000000001
 43
0.0000000001
 40
0.0
 40
0.0
 40
0.0
 40
0.0
 40
0.0434782608695652
 40
0.0434782608695652
 40
0.0434782608695652
 40
0.0434782608695652
 40
0.0869565217391304
 40
0.0869565217391304
 40
0.0869565217391304
 40
0.0869565217391304
 40
0.1304347826086956
 40
0.1304347826086956
 40
0.1304347826086956
 40
0.1304347826086956
 40
0.1739130434782609
 40
0.1739130434782609
 40
0.1739130434782609
 40
0.1739130434782609
 40
0.2173913043478261
 40
0.2173913043478261
 40
0.2173913043478261
 40
0.2173913043478261
 40
0.2608695652173913
 40
0.2608695652173913
 40
0.2608695652173913
 40
0.2608695652173913
 40
0.3043478260869565
 40
0.3043478260869565
 40
0.3043478260869565
 40
0.3043478260869565
 40
0.3478260869565217
 40
0.3478260869565217
 40
0.3478260869565217
 40
0.3478260869565217
 40
0.391304347826087
 40
0.391304347826087
 40
0.391304347826087
 40
0.391304347826087
 40
0.4347826086956522
 40
0.4347826086956522
 40
0.4347826086956522
 40
0.4347826086956522
 40
0.4782608695652174
 40
0.4782608695652174
 40
0.4782608695652174
 40
0.4782608695652174
 40
0.5217391304347826
 40
0.5217391304347826
 40
0.5217391304347826
 40
0.5217391304347826
 40
0.5652173913043478
 40
0.5652173913043478
 40
0.5652173913043478
 40
0.5652173913043478
 40
0.6086956521739131
 40
0.6086956521739131
 40
0.6086956521739131
 40
0.6086956521739131
 40
0.6521739130434783
 40
0.6521739130434783
 40
0.6521739130434783
 40
0.6521739130434783
 40
0.6956521739130435
 40
0.6956521739130435
 40
0.6956521739130435
 40
0.6956521739130435
 40
0.7391304347826086
 40
0.7391304347826086
 40
0.7391304347826086
 40
0.7391304347826086
 40
0.782608695652174
 40
0.782608695652174
 40
0.782608695652174
 40
0.782608695652174
 40
0.8260869565217391
 40
0.8260869565217391
 40
0.8260869565217391
 40
0.8260869565217391
 40
0.8695652173913043
 40
0.8695652173913043
 40
0.8695652173913043
 40
0.8695652173913043
 40
0.9130434782608695
 40
0.9130434782608695
 40
0.9130434782608695
 40
0.9130434782608695
 40
1.0
 40
1.0
 40
1.0
 40
1.0
 10
-43.0499
 20
9.4259
 30
0.0
 10
-43.0499
 20
9.4259
 30
0.0
 10
-42.8114
 20
9.4259
 30
0.0
 10
-42.8114
 20
9.4259
 30
0.0
 10
-42.8114
 20
9.4259
 30
0.0
 10
-42.8114
 20
9.4259
 30
0.0
 10
-42.8114
 20
8.0905
 30
0.0
 10
-42.8114
 20
8.0905
 30
0.0
 10
-42.8114
 20
8.0905
 30
0.0
 10
-42.8711
 20
8.0886
 30
0.0
 10
-42.9285
 20
8.098
 30
0.0
 10
-42.9836
 20
8.1192
 30
0.0
 10
-42.9836
 20
8.1192
 30
0.0
 10
-43.0748
 20
8.1531
 30
0.0
 10
-43.1642
 20
8.2076
 30
0.0
 10
-43.2526
 20
8.2824
 30
0.0
 10
-43.2526
 20
8.2824
 30
0.0
 10
-43.3406
 20
8.3577
 30
0.0
 10
-43.4426
 20
8.4659
 30
0.0
 10
-43.5583
 20
8.607
 30
0.0
 10
-43.5583
 20
8.607
 30
0.0
 10
-43.7385
 20
8.8266
 30
0.0
 10
-43.881
 20
8.9753
 30
0.0
 10
-43.9864
 20
9.0524
 30
0.0
 10
-43.9864
 20
9.0524
 30
0.0
 10
-44.0913
 20
9.1295
 30
0.0
 10
-44.191
 20
9.1681
 30
0.0
 10
-44.2846
 20
9.1681
 30
0.0
 10
-44.2846
 20
9.1681
 30
0.0
 10
-44.3829
 20
9.1681
 30
0.0
 10
-44.4657
 20
9.1328
 30
0.0
 10
-44.5334
 20
9.0628
 30
0.0
 10
-44.5334
 20
9.0628
 30
0.0
 10
-44.6007
 20
8.9922
 30
0.0
 10
-44.6345
 20
8.9005
 30
0.0
 10
-44.6345
 20
8.7876
 30
0.0
 10
-44.6345
 20
8.7876
 30
0.0
 10
-44.6345
 20
8.6681
 30
0.0
 10
-44.5988
 20
8.5726
 30
0.0
 10
-44.5268
 20
8.5011
 30
0.0
 10
-44.5268
 20
8.5011
 30
0.0
 10
-44.4553
 20
8.4292
 30
0.0
 10
-44.3561
 20
8.393
 30
0.0
 10
-44.2296
 20
8.392
 30
0.0
 10
-44.2296
 20
8.392
 30
0.0
 10
-44.2296
 20
8.392
 30
0.0
 10
-44.2554
 20
8.1371
 30
0.0
 10
-44.2554
 20
8.1371
 30
0.0
 10
-44.2554
 20
8.1371
 30
0.0
 10
-44.4459
 20
8.1545
 30
0.0
 10
-44.5908
 20
8.2203
 30
0.0
 10
-44.6905
 20
8.3342
 30
0.0
 10
-44.6905
 20
8.3342
 30
0.0
 10
-44.7902
 20
8.448
 30
0.0
 10
-44.8401
 20
8.6013
 30
0.0
 10
-44.8401
 20
8.7932
 30
0.0
 10
-44.8401
 20
8.7932
 30
0.0
 10
-44.8401
 20
8.987
 30
0.0
 10
-44.786
 20
9.1404
 30
0.0
 10
-44.6788
 20
9.2533
 30
0.0
 10
-44.6788
 20
9.2533
 30
0.0
 10
-44.571
 20
9.3666
 30
0.0
 10
-44.4379
 20
9.4231
 30
0.0
 10
-44.2789
 20
9.4231
 30
0.0
 10
-44.2789
 20
9.4231
 30
0.0
 10
-44.198
 20
9.4231
 30
0.0
 10
-44.1185
 20
9.4066
 30
0.0
 10
-44.0405
 20
9.3732
 30
0.0
 10
-44.0405
 20
9.3732
 30
0.0
 10
-43.9624
 20
9.3403
 30
0.0
 10
-43.8801
 20
9.2852
 30
0.0
 10
-43.794
 20
9.2086
 30
0.0
 10
-43.794
 20
9.2086
 30
0.0
 10
-43.7074
 20
9.1319
 30
0.0
 10
-43.5889
 20
9.0044
 30
0.0
 10
-43.4384
 20
8.8262
 30
0.0
 10
-43.4384
 20
8.8262
 30
0.0
 10
-43.3133
 20
8.6775
 30
0.0
 10
-43.2286
 20
8.582
 30
0.0
 10
-43.1839
 20
8.5397
 30
0.0
 10
-43.1839
 20
8.5397
 30
0.0
 10
-43.1397
 20
8.4974
 30
0.0
 10
-43.095
 20
8.4626
 30
0.0
 10
-43.0499
 20
8.4348
 30
0.0
 10
-43.0499
 20
8.4348
 30
0.0
 10
-43.0499
 20
8.4348
 30
0.0
 10
-43.0499
 20
9.4259
 30
0.0
 10
-43.0499
 20
9.4259
 30
0.0
  0
SPLINE
  5
52
330
1F
100
AcDbEntity
  8
ROUND
 62
   250
100
AcDbSpline
210
0.0
220
0.0
230
1.0
 70
    11
 71
     3
 72
    52
 73
    48
 74
     0
 42
0.0000000001
 43
0.0000000001
 40
0.0
 40
0.0
 40
0.0
 40
0.0
 40
0.0769230769230769
 40
0.0769230769230769
 40
0.0769230769230769
 40
0.0769230769230769
 40
0.1538461538461539
 40
0.1538461538461539
 40
0.1538461538461539
 40
0.1538461538461539
 40
0.2307692307692308
 40
0.2307692307692308
 40
0.2307692307692308
 40
0.2307692307692308
 40
0.3076923076923077
 40
0.3076923076923077
 40
0.3076923076923077
 40
0.3076923076923077
 40
0.3846153846153846
 40
0.3846153846153846
 40
0.3846153846153846
 40
0.3846153846153846
 40
0.4615384615384616
 40
0.4615384615384616
 40
0.4615384615384616
 40
0.4615384615384616
 40
0.5384615384615384
 40
0.5384615384615384
 40
0.5384615384615384
 40
0.5384615384615384
 40
0.6153846153846154
 40
0.6153846153846154
 40
0.6153846153846154
 40
0.6153846153846154
 40
0.6923076923076923
 40
0.6923076923076923
 40
0.6923076923076923
 40
0.6923076923076923
 40
0.7692307692307693
 40
0.7692307692307693
 40
0.7692307692307693
 40
0.7692307692307693
 40
0.8461538461538461
 40
0.8461538461538461
 40
0.8461538461538461
 40
0.8461538461538461
 40
1.0
 40
1.0
 40
1.0
 40
1.0
 10
-43.8076
 20
9.6916
 30
0.0
 10
-44.0466
 20
9.6916
 30
0.0
 10
-44.239
 20
9.7161
 30
0.0
 10
-44.3843
 20
9.7655
 30
0.0
 10
-44.3843
 20
9.7655
 30
0.0
 10
-44.5301
 20
9.8144
 30
0.0
 10
-44.6425
 20
9.8878
 30
0.0
 10
-44.7216
 20
9.9847
 30
0.0
 10
-44.7216
 20
9.9847
 30
0.0
 10
-44.8006
 20
10.0816
 30
0.0
 10
-44.8401
 20
10.2034
 30
0.0
 10
-44.8401
 20
10.3501
 30
0.0
 10
-44.8401
 20
10.3501
 30
0.0
 10
-44.8401
 20
10.4588
 30
0.0
 10
-44.818
 20
10.5538
 30
0.0
 10
-44.7742
 20
10.6356
 30
0.0
 10
-44.7742
 20
10.6356
 30
0.0
 10
-44.731
 20
10.7175
 30
0.0
 10
-44.6679
 20
10.7848
 30
0.0
 10
-44.5856
 20
10.8384
 30
0.0
 10
-44.5856
 20
10.8384
 30
0.0
 10
-44.5033
 20
10.8915
 30
0.0
 10
-44.4031
 20
10.9334
 30
0.0
 10
-44.2851
 20
10.9635
 30
0.0
 10
-44.2851
 20
10.9635
 30
0.0
 10
-44.167
 20
10.9941
 30
0.0
 10
-44.008
 20
11.0091
 30
0.0
 10
-43.8076
 20
11.0091
 30
0.0
 10
-43.8076
 20
11.0091
 30
0.0
 10
-43.5706
 20
11.0091
 30
0.0
 10
-43.3796
 20
10.9847
 30
0.0
 10
-43.2338
 20
10.9362
 30
0.0
 10
-43.2338
 20
10.9362
 30
0.0
 10
-43.088
 20
10.8873
 30
0.0
 10
-42.9756
 20
10.8144
 30
0.0
 10
-42.8961
 20
10.7175
 30
0.0
 10
-42.8961
 20
10.7175
 30
0.0
 10
-42.8166
 20
10.6206
 30
0.0
 10
-42.7771
 20
10.4983
 30
0.0
 10
-42.7771
 20
10.3501
 30
0.0
 10
-42.7771
 20
10.3501
 30
0.0
 10
-42.7771
 20
10.1554
 30
0.0
 10
-42.8467
 20
10.0025
 30
0.0
 10
-42.9864
 20
9.8915
 30
0.0
 10
-42.9864
 20
9.8915
 30
0.0
 10
-43.1543
 20
9.7584
 30
0.0
 10
-43.4285
 20
9.6916
 30
0.0
 10
-43.8076
 20
9.6916
 30
0.0
  0
SPLINE
  5
53
330
1F
100
AcDbEntity
  8
ROUND
 62
   250
100
AcDbSpline
210
0.0
220
0.0
230
1.0
 70
    11
 71
     3
 72
    36
 73
    32
 74
     0
 42
0.0000000001
 43
0.0000000001
 40
0.0
 40
0.0
 40
0.0
 40
0.0
 40
0.1111111111111111
 40
0.1111111111111111
 40
0.1111111111111111
 40
0.1111111111111111
 40
0.2222222222222222
 40
0.2222222222222222
 40
0.2222222222222222
 40
0.2222222222222222
 40
0.3333333333333333
 40
0.3333333333333333
 40
0.3333333333333333
 40
0.3333333333333333
 40
0.4444444444444444
 40
0.4444444444444444
 40
0.4444444444444444
 40
0.4444444444444444
 40
0.5555555555555556
 40
0.5555555555555556
 40
0.5555555555555556
 40
0.5555555555555556
 40
0.6666666666666666
 40
0.6666666666666666
 40
0.6666666666666666
 40
0.6666666666666666
 40
0.7777777777777778
 40
0.7777777777777778
 40
0.7777777777777778
 40
0.7777777777777778
 40
1.0
 40
1.0
 40
1.0
 40
1.0
 10
-43.8076
 20
9.9466
 30
0.0
 10
-43.476
 20
9.9466
 30
0.0
 10
-43.2554
 20
9.9856
 30
0.0
 10
-43.1454
 20
10.0632
 30
0.0
 10
-43.1454
 20
10.0632
 30
0.0
 10
-43.0358
 20
10.1408
 30
0.0
 10
-42.9807
 20
10.2363
 30
0.0
 10
-42.9807
 20
10.3501
 30
0.0
 10
-42.9807
 20
10.3501
 30
0.0
 10
-42.9807
 20
10.4644
 30
0.0
 10
-43.0362
 20
10.5599
 30
0.0
 10
-43.1463
 20
10.6375
 30
0.0
 10
-43.1463
 20
10.6375
 30
0.0
 10
-43.2564
 20
10.7151
 30
0.0
 10
-43.477
 20
10.7542
 30
0.0
 10
-43.8076
 20
10.7542
 30
0.0
 10
-43.8076
 20
10.7542
 30
0.0
 10
-44.1402
 20
10.7542
 30
0.0
 10
-44.3613
 20
10.7151
 30
0.0
 10
-44.4704
 20
10.6375
 30
0.0
 10
-44.4704
 20
10.6375
 30
0.0
 10
-44.58
 20
10.5599
 30
0.0
 10
-44.6345
 20
10.4635
 30
0.0
 10
-44.6345
 20
10.3478
 30
0.0
 10
-44.6345
 20
10.3478
 30
0.0
 10
-44.6345
 20
10.2335
 30
0.0
 10
-44.5861
 20
10.1427
 30
0.0
 10
-44.4897
 20
10.0745
 30
0.0
 10
-44.4897
 20
10.0745
 30
0.0
 10
-44.3669
 20
9.9894
 30
0.0
 10
-44.1392
 20
9.9466
 30
0.0
 10
-43.8076
 20
9.9466
 30
0.0
  0
SPLINE
  5
54
330
1F
100
AcDbEntity
  8
ROUND
 62
   250
100
AcDbSpline
210
0.0
220
0.0
230
1.0
 70
    11
 71
     3
 72
    20
 73
    16
 74
     0
 42
0.0000000001
 43
0.0000000001
 40
0.0
 40
0.0
 40
0.0
 40
0.0
 40
0.2
 40
0.2
 40
0.2
 40
0.2
 40
0.4
 40
0.4
 40
0.4
 40
0.4
 40
0.6
 40
0.6
 40
0.6
 40
0.6
 40
1.0
 40
1.0
 40
1.0
 40
1.0
 10
-43.4177
 20
12.0176
 30
0.0
 10
-43.4177
 20
12.0176
 30
0.0
 10
-43.667
 20
12.0176
 30
0.0
 10
-43.667
 20
12.0176
 30
0.0
 10
-43.667
 20
12.0176
 30
0.0
 10
-43.667
 20
12.0176
 30
0.0
 10
-43.667
 20
12.78
 30
0.0
 10
-43.667
 20
12.78
 30
0.0
 10
-43.667
 20
12.78
 30
0.0
 10
-43.667
 20
12.78
 30
0.0
 10
-43.4177
 20
12.78
 30
0.0
 10
-43.4177
 20
12.78
 30
0.0
 10
-43.4177
 20
12.78
 30
0.0
 10
-43.4177
 20
12.78
 30
0.0
 10
-43.4177
 20
12.0176
 30
0.0
 10
-43.4177
 20
12.0176
 30
0.0
  0
SPLINE
  5
55
330
1F
100
AcDbEntity
  8
ROUND
 62
   250
100
AcDbSpline
210
0.0
220
0.0
230
1.0
 70
    11
 71
     3
 72
    40
 73
    36
 74
     0
 42
0.0000000001
 43
0.0000000001
 40
0.0
 40
0.0
 40
0.0
 40
0.0
 40
0.1
 40
0.1
 40
0.1
 40
0.1
 40
0.2
 40
0.2
 40
0.2
 40
0.2
 40
0.3
 40
0.3
 40
0.3
 40
0.3
 40
0.4
 40
0.4
 40
0.4
 40
0.4
 40
0.5
 40
0.5
 40
0.5
 40
0.5
 40
0.6
 40
0.6
 40
0.6
 40
0.6
 40
0.7
 40
0.7
 40
0.7
 40
0.7
 40
0.8
 40
0.8
 40
0.8
 40
0.8
 40
1.0
 40
1.0
 40
1.0
 40
1.0
 10
-42.8114
 20
14.7034
 30
0.0
 10
-42.8114
 20
14.7034
 30
0.0
 10
-42.8114
 20
14.4555
 30
0.0
 10
-42.8114
 20
14.4555
 30
0.0
 10
-42.8114
 20
14.4555
 30
0.0
 10
-42.8114
 20
14.4555
 30
0.0
 10
-44.3918
 20
14.4555
 30
0.0
 10
-44.3918
 20
14.4555
 30
0.0
 10
-44.3918
 20
14.4555
 30
0.0
 10
-44.3349
 20
14.3957
 30
0.0
 10
-44.278
 20
14.3177
 30
0.0
 10
-44.2211
 20
14.2208
 30
0.0
 10
-44.2211
 20
14.2208
 30
0.0
 10
-44.1642
 20
14.1234
 30
0.0
 10
-44.1214
 20
14.0364
 30
0.0
 10
-44.0931
 20
13.9592
 30
0.0
 10
-44.0931
 20
13.9592
 30
0.0
 10
-44.0931
 20
13.9592
 30
0.0
 10
-44.3326
 20
13.9592
 30
0.0
 10
-44.3326
 20
13.9592
 30
0.0
 10
-44.3326
 20
13.9592
 30
0.0
 10
-44.3979
 20
14.098
 30
0.0
 10
-44.477
 20
14.2194
 30
0.0
 10
-44.5696
 20
14.3233
 30
0.0
 10
-44.5696
 20
14.3233
 30
0.0
 10
-44.6628
 20
14.4268
 30
0.0
 10
-44.7526
 20
14.5006
 30
0.0
 10
-44.8401
 20
14.5439
 30
0.0
 10
-44.8401
 20
14.5439
 30
0.0
 10
-44.8401
 20
14.5439
 30
0.0
 10
-44.8401
 20
14.7034
 30
0.0
 10
-44.8401
 20
14.7034
 30
0.0
 10
-44.8401
 20
14.7034
 30
0.0
 10
-44.8401
 20
14.7034
 30
0.0
 10
-42.8114
 20
14.7034
 30
0.0
 10
-42.8114
 20
14.7034
 30
0.0
  0
SPLINE
  5
56
330
1F
100
AcDbEntity
  8
ROUND
 62
   250
100
AcDbSpline
210
0.0
220
0.0
230
1.0
 70
    11
 71
     3
 72
    92
 73
    88
 74
     0
 42
0.0000000001
 43
0.0000000001
 40
0.0
 40
0.0
 40
0.0
 40
0.0
 40
0.0434782608695652
 40
0.0434782608695652
 40
0.0434782608695652
 40
0.0434782608695652
 40
0.0869565217391304
 40
0.0869565217391304
 40
0.0869565217391304
 40
0.0869565217391304
 40
0.1304347826086956
 40
0.1304347826086956
 40
0.1304347826086956
 40
0.1304347826086956
 40
0.1739130434782609
 40
0.1739130434782609
 40
0.1739130434782609
 40
0.1739130434782609
 40
0.2173913043478261
 40
0.2173913043478261
 40
0.2173913043478261
 40
0.2173913043478261
 40
0.2608695652173913
 40
0.2608695652173913
 40
0.2608695652173913
 40
0.2608695652173913
 40
0.3043478260869565
 40
0.3043478260869565
 40
0.3043478260869565
 40
0.3043478260869565
 40
0.3478260869565217
 40
0.3478260869565217
 40
0.3478260869565217
 40
0.3478260869565217
 40
0.391304347826087
 40
0.391304347826087
 40
0.391304347826087
 40
0.391304347826087
 40
0.4347826086956522
 40
0.4347826086956522
 40
0.4347826086956522
 40
0.4347826086956522
 40
0.4782608695652174
 40
0.4782608695652174
 40
0.4782608695652174
 40
0.4782608695652174
 40
0.5217391304347826
 40
0.5217391304347826
 40
0.5217391304347826
 40
0.5217391304347826
 40
0.5652173913043478
 40
0.5652173913043478
 40
0.5652173913043478
 40
0.5652173913043478
 40
0.6086956521739131
 40
0.6086956521739131
 40
0.6086956521739131
 40
0.6086956521739131
 40
0.6521739130434783
 40
0.6521739130434783
 40
0.6521739130434783
 40
0.6521739130434783
 40
0.6956521739130435
 40
0.6956521739130435
 40
0.6956521739130435
 40
0.6956521739130435
 40
0.7391304347826086
 40
0.7391304347826086
 40
0.7391304347826086
 40
0.7391304347826086
 40
0.782608695652174
 40
0.782608695652174
 40
0.782608695652174
 40
0.782608695652174
 40
0.8260869565217391
 40
0.8260869565217391
 40
0.8260869565217391
 40
0.8260869565217391
 40
0.8695652173913043
 40
0.8695652173913043
 40
0.8695652173913043
 40
0.8695652173913043
 40
0.9130434782608695
 40
0.9130434782608695
 40
0.9130434782608695
 40
0.9130434782608695
 40
1.0
 40
1.0
 40
1.0
 40
1.0
 10
-43.3406
 20
15.3388
 30
0.0
 10
-43.3406
 20
15.3388
 30
0.0
 10
-43.3627
 20
15.5994
 30
0.0
 10
-43.3627
 20
15.5994
 30
0.0
 10
-43.3627
 20
15.5994
 30
0.0
 10
-43.2357
 20
15.6187
 30
0.0
 10
-43.1407
 20
15.6634
 30
0.0
 10
-43.0767
 20
15.7335
 30
0.0
 10
-43.0767
 20
15.7335
 30
0.0
 10
-43.0127
 20
15.804
 30
0.0
 10
-42.9807
 20
15.8887
 30
0.0
 10
-42.9807
 20
15.9879
 30
0.0
 10
-42.9807
 20
15.9879
 30
0.0
 10
-42.9807
 20
16.1074
 30
0.0
 10
-43.0259
 20
16.2085
 30
0.0
 10
-43.1157
 20
16.2908
 30
0.0
 10
-43.1157
 20
16.2908
 30
0.0
 10
-43.206
 20
16.3736
 30
0.0
 10
-43.3255
 20
16.415
 30
0.0
 10
-43.4741
 20
16.415
 30
0.0
 10
-43.4741
 20
16.415
 30
0.0
 10
-43.6157
 20
16.415
 30
0.0
 10
-43.7272
 20
16.3755
 30
0.0
 10
-43.809
 20
16.296
 30
0.0
 10
-43.809
 20
16.296
 30
0.0
 10
-43.8909
 20
16.2165
 30
0.0
 10
-43.9318
 20
16.1126
 30
0.0
 10
-43.9318
 20
15.9837
 30
0.0
 10
-43.9318
 20
15.9837
 30
0.0
 10
-43.9318
 20
15.9037
 30
0.0
 10
-43.9135
 20
15.8318
 30
0.0
 10
-43.8773
 20
15.7673
 30
0.0
 10
-43.8773
 20
15.7673
 30
0.0
 10
-43.841
 20
15.7029
 30
0.0
 10
-43.794
 20
15.6526
 30
0.0
 10
-43.7361
 20
15.6159
 30
0.0
 10
-43.7361
 20
15.6159
 30
0.0
 10
-43.7361
 20
15.6159
 30
0.0
 10
-43.7662
 20
15.383
 30
0.0
 10
-43.7662
 20
15.383
 30
0.0
 10
-43.7662
 20
15.383
 30
0.0
 10
-43.7662
 20
15.383
 30
0.0
 10
-44.8039
 20
15.5787
 30
0.0
 10
-44.8039
 20
15.5787
 30
0.0
 10
-44.8039
 20
15.5787
 30
0.0
 10
-44.8039
 20
15.5787
 30
0.0
 10
-44.8039
 20
16.5834
 30
0.0
 10
-44.8039
 20
16.5834
 30
0.0
 10
-44.8039
 20
16.5834
 30
0.0
 10
-44.8039
 20
16.5834
 30
0.0
 10
-44.5668
 20
16.5834
 30
0.0
 10
-44.5668
 20
16.5834
 30
0.0
 10
-44.5668
 20
16.5834
 30
0.0
 10
-44.5668
 20
16.5834
 30
0.0
 10
-44.5668
 20
15.7772
 30
0.0
 10
-44.5668
 20
15.7772
 30
0.0
 10
-44.5668
 20
15.7772
 30
0.0
 10
-44.5668
 20
15.7772
 30
0.0
 10
-44.024
 20
15.6681
 30
0.0
 10
-44.024
 20
15.6681
 30
0.0
 10
-44.024
 20
15.6681
 30
0.0
 10
-44.1087
 20
15.7894
 30
0.0
 10
-44.151
 20
15.9169
 30
0.0
 10
-44.151
 20
16.05
 30
0.0
 10
-44.151
 20
16.05
 30
0.0
 10
-44.151
 20
16.2264
 30
0.0
 10
-44.0899
 20
16.375
 30
0.0
 10
-43.9676
 20
16.4964
 30
0.0
 10
-43.9676
 20
16.4964
 30
0.0
 10
-43.8453
 20
16.6177
 30
0.0
 10
-43.6882
 20
16.6784
 30
0.0
 10
-43.4963
 20
16.6784
 30
0.0
 10
-43.4963
 20
16.6784
 30
0.0
 10
-43.3133
 20
16.6784
 30
0.0
 10
-43.1552
 20
16.6248
 30
0.0
 10
-43.0221
 20
16.5185
 30
0.0
 10
-43.0221
 20
16.5185
 30
0.0
 10
-42.8589
 20
16.3887
 30
0.0
 10
-42.7771
 20
16.2118
 30
0.0
 10
-42.7771
 20
15.9879
 30
0.0
 10
-42.7771
 20
15.9879
 30
0.0
 10
-42.7771
 20
15.804
 30
0.0
 10
-42.8283
 20
15.654
 30
0.0
 10
-42.9313
 20
15.5378
 30
0.0
 10
-42.9313
 20
15.5378
 30
0.0
 10
-43.0344
 20
15.4216
 30
0.0
 10
-43.1708
 20
15.3553
 30
0.0
 10
-43.3406
 20
15.3388
 30
0.0
  0
SPLINE
  5
57
330
1F
100
AcDbEntity
  8
ROUND
 62
   250
100
AcDbSpline
210
0.0
220
0.0
230
1.0
 70
    11
 71
     3
 72
    52
 73
    48
 74
     0
 42
0.0000000001
 43
0.0000000001
 40
0.0
 40
0.0
 40
0.0
 40
0.0
 40
0.0769230769230769
 40
0.0769230769230769
 40
0.0769230769230769
 40
0.0769230769230769
 40
0.1538461538461539
 40
0.1538461538461539
 40
0.1538461538461539
 40
0.1538461538461539
 40
0.2307692307692308
 40
0.2307692307692308
 40
0.2307692307692308
 40
0.2307692307692308
 40
0.3076923076923077
 40
0.3076923076923077
 40
0.3076923076923077
 40
0.3076923076923077
 40
0.3846153846153846
 40
0.3846153846153846
 40
0.3846153846153846
 40
0.3846153846153846
 40
0.4615384615384616
 40
0.4615384615384616
 40
0.4615384615384616
 40
0.4615384615384616
 40
0.5384615384615384
 40
0.5384615384615384
 40
0.5384615384615384
 40
0.5384615384615384
 40
0.6153846153846154
 40
0.6153846153846154
 40
0.6153846153846154
 40
0.6153846153846154
 40
0.6923076923076923
 40
0.6923076923076923
 40
0.6923076923076923
 40
0.6923076923076923
 40
0.7692307692307693
 40
0.7692307692307693
 40
0.7692307692307693
 40
0.7692307692307693
 40
0.8461538461538461
 40
0.8461538461538461
 40
0.8461538461538461
 40
0.8461538461538461
 40
1.0
 40
1.0
 40
1.0
 40
1.0
 10
-43.8076
 20
16.9084
 30
0.0
 10
-44.0466
 20
16.9084
 30
0.0
 10
-44.239
 20
16.9329
 30
0.0
 10
-44.3843
 20
16.9823
 30
0.0
 10
-44.3843
 20
16.9823
 30
0.0
 10
-44.5301
 20
17.0312
 30
0.0
 10
-44.6425
 20
17.1046
 30
0.0
 10
-44.7216
 20
17.2015
 30
0.0
 10
-44.7216
 20
17.2015
 30
0.0
 10
-44.8006
 20
17.2984
 30
0.0
 10
-44.8401
 20
17.4202
 30
0.0
 10
-44.8401
 20
17.5669
 30
0.0
 10
-44.8401
 20
17.5669
 30
0.0
 10
-44.8401
 20
17.6756
 30
0.0
 10
-44.818
 20
17.7706
 30
0.0
 10
-44.7742
 20
17.8524
 30
0.0
 10
-44.7742
 20
17.8524
 30
0.0
 10
-44.731
 20
17.9343
 30
0.0
 10
-44.6679
 20
18.0016
 30
0.0
 10
-44.5856
 20
18.0552
 30
0.0
 10
-44.5856
 20
18.0552
 30
0.0
 10
-44.5033
 20
18.1083
 30
0.0
 10
-44.4031
 20
18.1502
 30
0.0
 10
-44.2851
 20
18.1803
 30
0.0
 10
-44.2851
 20
18.1803
 30
0.0
 10
-44.167
 20
18.2109
 30
0.0
 10
-44.008
 20
18.2259
 30
0.0
 10
-43.8076
 20
18.2259
 30
0.0
 10
-43.8076
 20
18.2259
 30
0.0
 10
-43.5706
 20
18.2259
 30
0.0
 10
-43.3796
 20
18.2015
 30
0.0
 10
-43.2338
 20
18.153
 30
0.0
 10
-43.2338
 20
18.153
 30
0.0
 10
-43.088
 20
18.1041
 30
0.0
 10
-42.9756
 20
18.0312
 30
0.0
 10
-42.8961
 20
17.9343
 30
0.0
 10
-42.8961
 20
17.9343
 30
0.0
 10
-42.8166
 20
17.8374
 30
0.0
 10
-42.7771
 20
17.7151
 30
0.0
 10
-42.7771
 20
17.5669
 30
0.0
 10
-42.7771
 20
17.5669
 30
0.0
 10
-42.7771
 20
17.3722
 30
0.0
 10
-42.8467
 20
17.2193
 30
0.0
 10
-42.9864
 20
17.1083
 30
0.0
 10
-42.9864
 20
17.1083
 30
0.0
 10
-43.1543
 20
16.9752
 30
0.0
 10
-43.4285
 20
16.9084
 30
0.0
 10
-43.8076
 20
16.9084
 30
0.0
  0
SPLINE
  5
58
330
1F
100
AcDbEntity
  8
ROUND
 62
   250
100
AcDbSpline
210
0.0
220
0.0
230
1.0
 70
    11
 71
     3
 72
    36
 73
    32
 74
     0
 42
0.0000000001
 43
0.0000000001
 40
0.0
 40
0.0
 40
0.0
 40
0.0
 40
0.1111111111111111
 40
0.1111111111111111
 40
0.1111111111111111
 40
0.1111111111111111
 40
0.2222222222222222
 40
0.2222222222222222
 40
0.2222222222222222
 40
0.2222222222222222
 40
0.3333333333333333
 40
0.3333333333333333
 40
0.3333333333333333
 40
0.3333333333333333
 40
0.4444444444444444
 40
0.4444444444444444
 40
0.4444444444444444
 40
0.4444444444444444
 40
0.5555555555555556
 40
0.5555555555555556
 40
0.5555555555555556
 40
0.5555555555555556
 40
0.6666666666666666
 40
0.6666666666666666
 40
0.6666666666666666
 40
0.6666666666666666
 40
0.7777777777777778
 40
0.7777777777777778
 40
0.7777777777777778
 40
0.7777777777777778
 40
1.0
 40
1.0
 40
1.0
 40
1.0
 10
-43.8076
 20
17.1634
 30
0.0
 10
-43.476
 20
17.1634
 30
0.0
 10
-43.2554
 20
17.2024
 30
0.0
 10
-43.1454
 20
17.28
 30
0.0
 10
-43.1454
 20
17.28
 30
0.0
 10
-43.0358
 20
17.3576
 30
0.0
 10
-42.9807
 20
17.4531
 30
0.0
 10
-42.9807
 20
17.5669
 30
0.0
 10
-42.9807
 20
17.5669
 30
0.0
 10
-42.9807
 20
17.6812
 30
0.0
 10
-43.0362
 20
17.7767
 30
0.0
 10
-43.1463
 20
17.8543
 30
0.0
 10
-43.1463
 20
17.8543
 30
0.0
 10
-43.2564
 20
17.9319
 30
0.0
 10
-43.477
 20
17.971
 30
0.0
 10
-43.8076
 20
17.971
 30
0.0
 10
-43.8076
 20
17.971
 30
0.0
 10
-44.1402
 20
17.971
 30
0.0
 10
-44.3613
 20
17.9319
 30
0.0
 10
-44.4704
 20
17.8543
 30
0.0
 10
-44.4704
 20
17.8543
 30
0.0
 10
-44.58
 20
17.7767
 30
0.0
 10
-44.6345
 20
17.6803
 30
0.0
 10
-44.6345
 20
17.5646
 30
0.0
 10
-44.6345
 20
17.5646
 30
0.0
 10
-44.6345
 20
17.4503
 30
0.0
 10
-44.5861
 20
17.3595
 30
0.0
 10
-44.4897
 20
17.2913
 30
0.0
 10
-44.4897
 20
17.2913
 30
0.0
 10
-44.3669
 20
17.2062
 30
0.0
 10
-44.1392
 20
17.1634
 30
0.0
 10
-43.8076
 20
17.1634
 30
0.0
  0
SPLINE
  5
59
330
1F
100
AcDbEntity
  8
ROUND
 62
   250
100
AcDbSpline
210
0.0
220
0.0
230
1.0
 70
    11
 71
     3
 72
    84
 73
    80
 74
     0
 42
0.0000000001
 43
0.0000000001
 40
0.0
 40
0.0
 40
0.0
 40
0.0
 40
0.0476190476190476
 40
0.0476190476190476
 40
0.0476190476190476
 40
0.0476190476190476
 40
0.0952380952380952
 40
0.0952380952380952
 40
0.0952380952380952
 40
0.0952380952380952
 40
0.1428571428571428
 40
0.1428571428571428
 40
0.1428571428571428
 40
0.1428571428571428
 40
0.1904761904761905
 40
0.1904761904761905
 40
0.1904761904761905
 40
0.1904761904761905
 40
0.2380952380952381
 40
0.2380952380952381
 40
0.2380952380952381
 40
0.2380952380952381
 40
0.2857142857142857
 40
0.2857142857142857
 40
0.2857142857142857
 40
0.2857142857142857
 40
0.3333333333333333
 40
0.3333333333333333
 40
0.3333333333333333
 40
0.3333333333333333
 40
0.3809523809523809
 40
0.3809523809523809
 40
0.3809523809523809
 40
0.3809523809523809
 40
0.4285714285714285
 40
0.4285714285714285
 40
0.4285714285714285
 40
0.4285714285714285
 40
0.4761904761904762
 40
0.4761904761904762
 40
0.4761904761904762
 40
0.4761904761904762
 40
0.5238095238095238
 40
0.5238095238095238
 40
0.5238095238095238
 40
0.5238095238095238
 40
0.5714285714285714
 40
0.5714285714285714
 40
0.5714285714285714
 40
0.5714285714285714
 40
0.6190476190476191
 40
0.6190476190476191
 40
0.6190476190476191
 40
0.6190476190476191
 40
0.6666666666666666
 40
0.6666666666666666
 40
0.6666666666666666
 40
0.6666666666666666
 40
0.7142857142857143
 40
0.7142857142857143
 40
0.7142857142857143
 40
0.7142857142857143
 40
0.7619047619047619
 40
0.7619047619047619
 40
0.7619047619047619
 40
0.7619047619047619
 40
0.8095238095238095
 40
0.8095238095238095
 40
0.8095238095238095
 40
0.8095238095238095
 40
0.8571428571428571
 40
0.8571428571428571
 40
0.8571428571428571
 40
0.8571428571428571
 40
0.9047619047619048
 40
0.9047619047619048
 40
0.9047619047619048
 40
0.9047619047619048
 40
1.0
 40
1.0
 40
1.0
 40
1.0
 10
14.5127
 20
7.2753
 30
0.0
 10
14.5127
 20
7.2753
 30
0.0
 10
14.2535
 20
7.5068
 30
0.0
 10
14.2535
 20
7.5068
 30
0.0
 10
14.2535
 20
7.5068
 30
0.0
 10
14.2535
 20
7.5068
 30
0.0
 10
14.3692
 20
7.6431
 30
0.0
 10
14.3692
 20
7.6431
 30
0.0
 10
14.3692
 20
7.6431
 30
0.0
 10
14.3692
 20
7.6431
 30
0.0
 10
14.6421
 20
7.4009
 30
0.0
 10
14.6421
 20
7.4009
 30
0.0
 10
14.6421
 20
7.4009
 30
0.0
 10
14.7596
 20
7.4799
 30
0.0
 10
14.8626
 20
7.5331
 30
0.0
 10
14.9507
 20
7.5608
 30
0.0
 10
14.9507
 20
7.5608
 30
0.0
 10
15.0664
 20
7.5976
 30
0.0
 10
15.1961
 20
7.6159
 30
0.0
 10
15.3391
 20
7.6159
 30
0.0
 10
15.3391
 20
7.6159
 30
0.0
 10
15.5461
 20
7.6159
 30
0.0
 10
15.7305
 20
7.574
 30
0.0
 10
15.8918
 20
7.4902
 30
0.0
 10
15.8918
 20
7.4902
 30
0.0
 10
16.0537
 20
7.4065
 30
0.0
 10
16.176
 20
7.2895
 30
0.0
 10
16.2587
 20
7.1384
 30
0.0
 10
16.2587
 20
7.1384
 30
0.0
 10
16.341
 20
6.987
 30
0.0
 10
16.3825
 20
6.8266
 30
0.0
 10
16.3825
 20
6.6568
 30
0.0
 10
16.3825
 20
6.6568
 30
0.0
 10
16.3825
 20
6.5298
 30
0.0
 10
16.3645
 20
6.415
 30
0.0
 10
16.3288
 20
6.312
 30
0.0
 10
16.3288
 20
6.312
 30
0.0
 10
16.301
 20
6.233
 30
0.0
 10
16.2483
 20
6.1407
 30
0.0
 10
16.1703
 20
6.0349
 30
0.0
 10
16.1703
 20
6.0349
 30
0.0
 10
16.1703
 20
6.0349
 30
0.0
 10
16.4294
 20
5.8035
 30
0.0
 10
16.4294
 20
5.8035
 30
0.0
 10
16.4294
 20
5.8035
 30
0.0
 10
16.4294
 20
5.8035
 30
0.0
 10
16.3137
 20
5.6671
 30
0.0
 10
16.3137
 20
5.6671
 30
0.0
 10
16.3137
 20
5.6671
 30
0.0
 10
16.3137
 20
5.6671
 30
0.0
 10
16.0424
 20
5.9098
 30
0.0
 10
16.0424
 20
5.9098
 30
0.0
 10
16.0424
 20
5.9098
 30
0.0
 10
15.9055
 20
5.8196
 30
0.0
 10
15.7883
 20
5.7593
 30
0.0
 10
15.6914
 20
5.7291
 30
0.0
 10
15.6914
 20
5.7291
 30
0.0
 10
15.5945
 20
5.6991
 30
0.0
 10
15.478
 20
5.6836
 30
0.0
 10
15.342
 20
5.6836
 30
0.0
 10
15.342
 20
5.6836
 30
0.0
 10
15.1345
 20
5.6836
 30
0.0
 10
14.9497
 20
5.7249
 30
0.0
 10
14.7874
 20
5.8077
 30
0.0
 10
14.7874
 20
5.8077
 30
0.0
 10
14.6251
 20
5.8905
 30
0.0
 10
14.5023
 20
6.0062
 30
0.0
 10
14.4187
 20
6.1558
 30
0.0
 10
14.4187
 20
6.1558
 30
0.0
 10
14.3353
 20
6.3049
 30
0.0
 10
14.2935
 20
6.471
 30
0.0
 10
14.2935
 20
6.654
 30
0.0
 10
14.2935
 20
6.654
 30
0.0
 10
14.2935
 20
6.7772
 30
0.0
 10
14.3094
 20
6.8848
 30
0.0
 10
14.3424
 20
6.9771
 30
0.0
 10
14.3424
 20
6.9771
 30
0.0
 10
14.3748
 20
7.0693
 30
0.0
 10
14.4319
 20
7.169
 30
0.0
 10
14.5127
 20
7.2753
 30
0.0
  0
SPLINE
  5
5A
330
1F
100
AcDbEntity
  8
ROUND
 62
   250
100
AcDbSpline
210
0.0
220
0.0
230
1.0
 70
    11
 71
     3
 72
    32
 73
    28
 74
     0
 42
0.0000000001
 43
0.0000000001
 40
0.0
 40
0.0
 40
0.0
 40
0.0
 40
0.125
 40
0.125
 40
0.125
 40
0.125
 40
0.25
 40
0.25
 40
0.25
 40
0.25
 40
0.375
 40
0.375
 40
0.375
 40
0.375
 40
0.5
 40
0.5
 40
0.5
 40
0.5
 40
0.625
 40
0.625
 40
0.625
 40
0.625
 40
0.75
 40
0.75
 40
0.75
 40
0.75
 40
1.0
 40
1.0
 40
1.0
 40
1.0
 10
14.6985
 20
7.1103
 30
0.0
 10
14.6307
 20
7.0237
 30
0.0
 10
14.5842
 20
6.948
 30
0.0
 10
14.5593
 20
6.8835
 30
0.0
 10
14.5593
 20
6.8835
 30
0.0
 10
14.5348
 20
6.8186
 30
0.0
 10
14.5221
 20
6.7424
 30
0.0
 10
14.5221
 20
6.6553
 30
0.0
 10
14.5221
 20
6.6553
 30
0.0
 10
14.5221
 20
6.4541
 30
0.0
 10
14.5903
 20
6.2879
 30
0.0
 10
14.7268
 20
6.1563
 30
0.0
 10
14.7268
 20
6.1563
 30
0.0
 10
14.8631
 20
6.025
 30
0.0
 10
15.0667
 20
5.9592
 30
0.0
 10
15.3382
 20
5.9592
 30
0.0
 10
15.3382
 20
5.9592
 30
0.0
 10
15.4445
 20
5.9592
 30
0.0
 10
15.5391
 20
5.9695
 30
0.0
 10
15.6218
 20
5.9898
 30
0.0
 10
15.6218
 20
5.9898
 30
0.0
 10
15.6834
 20
6.0044
 30
0.0
 10
15.7592
 20
6.0349
 30
0.0
 10
15.8491
 20
6.082
 30
0.0
 10
15.8491
 20
6.082
 30
0.0
 10
15.8491
 20
6.082
 30
0.0
 10
14.6985
 20
7.1103
 30
0.0
 10
14.6985
 20
7.1103
 30
0.0
  0
SPLINE
  5
5B
330
1F
100
AcDbEntity
  8
ROUND
 62
   250
100
AcDbSpline
210
0.0
220
0.0
230
1.0
 70
    11
 71
     3
 72
    28
 73
    24
 74
     0
 42
0.0000000001
 43
0.0000000001
 40
0.0
 40
0.0
 40
0.0
 40
0.0
 40
0.1428571428571428
 40
0.1428571428571428
 40
0.1428571428571428
 40
0.1428571428571428
 40
0.2857142857142857
 40
0.2857142857142857
 40
0.2857142857142857
 40
0.2857142857142857
 40
0.4285714285714285
 40
0.4285714285714285
 40
0.4285714285714285
 40
0.4285714285714285
 40
0.5714285714285714
 40
0.5714285714285714
 40
0.5714285714285714
 40
0.5714285714285714
 40
0.7142857142857143
 40
0.7142857142857143
 40
0.7142857142857143
 40
0.7142857142857143
 40
1.0
 40
1.0
 40
1.0
 40
1.0
 10
14.8406
 20
7.2231
 30
0.0
 10
14.8406
 20
7.2231
 30
0.0
 10
15.9868
 20
6.1991
 30
0.0
 10
15.9868
 20
6.1991
 30
0.0
 10
15.9868
 20
6.1991
 30
0.0
 10
16.0447
 20
6.2696
 30
0.0
 10
16.0852
 20
6.335
 30
0.0
 10
16.1082
 20
6.3948
 30
0.0
 10
16.1082
 20
6.3948
 30
0.0
 10
16.1388
 20
6.4729
 30
0.0
 10
16.1538
 20
6.5576
 30
0.0
 10
16.1538
 20
6.6483
 30
0.0
 10
16.1538
 20
6.6483
 30
0.0
 10
16.1538
 20
6.8487
 30
0.0
 10
16.0833
 20
7.0137
 30
0.0
 10
15.9417
 20
7.1445
 30
0.0
 10
15.9417
 20
7.1445
 30
0.0
 10
15.8001
 20
7.2749
 30
0.0
 10
15.6016
 20
7.3403
 30
0.0
 10
15.3462
 20
7.3403
 30
0.0
 10
15.3462
 20
7.3403
 30
0.0
 10
15.1553
 20
7.3403
 30
0.0
 10
14.9864
 20
7.3012
 30
0.0
 10
14.8406
 20
7.2231
 30
0.0
  0
SPLINE
  5
5C
330
1F
100
AcDbEntity
  8
ROUND
 62
   250
100
AcDbSpline
210
0.0
220
0.0
230
1.0
 70
    11
 71
     3
 72
   124
 73
   120
 74
     0
 42
0.0000000001
 43
0.0000000001
 40
0.0
 40
0.0
 40
0.0
 40
0.0
 40
0.032258064516129
 40
0.032258064516129
 40
0.032258064516129
 40
0.032258064516129
 40
0.0645161290322581
 40
0.0645161290322581
 40
0.0645161290322581
 40
0.0645161290322581
 40
0.0967741935483871
 40
0.0967741935483871
 40
0.0967741935483871
 40
0.0967741935483871
 40
0.1290322580645161
 40
0.1290322580645161
 40
0.1290322580645161
 40
0.1290322580645161
 40
0.1612903225806452
 40
0.1612903225806452
 40
0.1612903225806452
 40
0.1612903225806452
 40
0.1935483870967742
 40
0.1935483870967742
 40
0.1935483870967742
 40
0.1935483870967742
 40
0.2258064516129032
 40
0.2258064516129032
 40
0.2258064516129032
 40
0.2258064516129032
 40
0.2580645161290323
 40
0.2580645161290323
 40
0.2580645161290323
 40
0.2580645161290323
 40
0.2903225806451613
 40
0.2903225806451613
 40
0.2903225806451613
 40
0.2903225806451613
 40
0.3225806451612903
 40
0.3225806451612903
 40
0.3225806451612903
 40
0.3225806451612903
 40
0.3548387096774194
 40
0.3548387096774194
 40
0.3548387096774194
 40
0.3548387096774194
 40
0.3870967741935484
 40
0.3870967741935484
 40
0.3870967741935484
 40
0.3870967741935484
 40
0.4193548387096774
 40
0.4193548387096774
 40
0.4193548387096774
 40
0.4193548387096774
 40
0.4516129032258064
 40
0.4516129032258064
 40
0.4516129032258064
 40
0.4516129032258064
 40
0.4838709677419355
 40
0.4838709677419355
 40
0.4838709677419355
 40
0.4838709677419355
 40
0.5161290322580645
 40
0.5161290322580645
 40
0.5161290322580645
 40
0.5161290322580645
 40
0.5483870967741935
 40
0.5483870967741935
 40
0.5483870967741935
 40
0.5483870967741935
 40
0.5806451612903226
 40
0.5806451612903226
 40
0.5806451612903226
 40
0.5806451612903226
 40
0.6129032258064516
 40
0.6129032258064516
 40
0.6129032258064516
 40
0.6129032258064516
 40
0.6451612903225806
 40
0.6451612903225806
 40
0.6451612903225806
 40
0.6451612903225806
 40
0.6774193548387096
 40
0.6774193548387096
 40
0.6774193548387096
 40
0.6774193548387096
 40
0.7096774193548387
 40
0.7096774193548387
 40
0.7096774193548387
 40
0.7096774193548387
 40
0.7419354838709677
 40
0.7419354838709677
 40
0.7419354838709677
 40
0.7419354838709677
 40
0.7741935483870968
 40
0.7741935483870968
 40
0.7741935483870968
 40
0.7741935483870968
 40
0.8064516129032258
 40
0.8064516129032258
 40
0.8064516129032258
 40
0.8064516129032258
 40
0.8387096774193549
 40
0.8387096774193549
 40
0.8387096774193549
 40
0.8387096774193549
 40
0.8709677419354839
 40
0.8709677419354839
 40
0.8709677419354839
 40
0.8709677419354839
 40
0.9032258064516129
 40
0.9032258064516129
 40
0.9032258064516129
 40
0.9032258064516129
 40
0.9354838709677419
 40
0.9354838709677419
 40
0.9354838709677419
 40
0.9354838709677419
 40
1.0
 40
1.0
 40
1.0
 40
1.0
 10
15.8147
 20
7.8666
 30
0.0
 10
15.8147
 20
7.8666
 30
0.0
 10
15.7817
 20
8.1144
 30
0.0
 10
15.7817
 20
8.1144
 30
0.0
 10
15.7817
 20
8.1144
 30
0.0
 10
15.9224
 20
8.1432
 30
0.0
 10
16.0236
 20
8.1916
 30
0.0
 10
16.0856
 20
8.2597
 30
0.0
 10
16.0856
 20
8.2597
 30
0.0
 10
16.1477
 20
8.3285
 30
0.0
 10
16.1787
 20
8.4117
 30
0.0
 10
16.1787
 20
8.5101
 30
0.0
 10
16.1787
 20
8.5101
 30
0.0
 10
16.1787
 20
8.6266
 30
0.0
 10
16.1383
 20
8.7255
 30
0.0
 10
16.0574
 20
8.8058
 30
0.0
 10
16.0574
 20
8.8058
 30
0.0
 10
15.9765
 20
8.8859
 30
0.0
 10
15.8764
 20
8.9263
 30
0.0
 10
15.7568
 20
8.9263
 30
0.0
 10
15.7568
 20
8.9263
 30
0.0
 10
15.643
 20
8.9263
 30
0.0
 10
15.5489
 20
8.8891
 30
0.0
 10
15.4751
 20
8.8148
 30
0.0
 10
15.4751
 20
8.8148
 30
0.0
 10
15.4012
 20
8.7401
 30
0.0
 10
15.3641
 20
8.6455
 30
0.0
 10
15.3641
 20
8.5307
 30
0.0
 10
15.3641
 20
8.5307
 30
0.0
 10
15.3641
 20
8.4836
 30
0.0
 10
15.3735
 20
8.4254
 30
0.0
 10
15.3918
 20
8.3557
 30
0.0
 10
15.3918
 20
8.3557
 30
0.0
 10
15.3918
 20
8.3557
 30
0.0
 10
15.1741
 20
8.3835
 30
0.0
 10
15.1741
 20
8.3835
 30
0.0
 10
15.1741
 20
8.3835
 30
0.0
 10
15.176
 20
8.4
 30
0.0
 10
15.1768
 20
8.4132
 30
0.0
 10
15.1768
 20
8.4235
 30
0.0
 10
15.1768
 20
8.4235
 30
0.0
 10
15.1768
 20
8.5289
 30
0.0
 10
15.1491
 20
8.6239
 30
0.0
 10
15.0941
 20
8.7086
 30
0.0
 10
15.0941
 20
8.7086
 30
0.0
 10
15.0391
 20
8.7931
 30
0.0
 10
14.9539
 20
8.8355
 30
0.0
 10
14.8391
 20
8.8355
 30
0.0
 10
14.8391
 20
8.8355
 30
0.0
 10
14.7483
 20
8.8355
 30
0.0
 10
14.6726
 20
8.8045
 30
0.0
 10
14.6133
 20
8.7428
 30
0.0
 10
14.6133
 20
8.7428
 30
0.0
 10
14.5536
 20
8.6813
 30
0.0
 10
14.5235
 20
8.6017
 30
0.0
 10
14.5235
 20
8.5043
 30
0.0
 10
14.5235
 20
8.5043
 30
0.0
 10
14.5235
 20
8.4079
 30
0.0
 10
14.5541
 20
8.3275
 30
0.0
 10
14.6143
 20
8.2636
 30
0.0
 10
14.6143
 20
8.2636
 30
0.0
 10
14.6749
 20
8.1991
 30
0.0
 10
14.7662
 20
8.1577
 30
0.0
 10
14.8875
 20
8.1393
 30
0.0
 10
14.8875
 20
8.1393
 30
0.0
 10
14.8875
 20
8.1393
 30
0.0
 10
14.8433
 20
7.8915
 30
0.0
 10
14.8433
 20
7.8915
 30
0.0
 10
14.8433
 20
7.8915
 30
0.0
 10
14.6768
 20
7.9216
 30
0.0
 10
14.5479
 20
7.9907
 30
0.0
 10
14.4568
 20
8.098
 30
0.0
 10
14.4568
 20
8.098
 30
0.0
 10
14.3655
 20
8.2057
 30
0.0
 10
14.3194
 20
8.3393
 30
0.0
 10
14.3194
 20
8.4992
 30
0.0
 10
14.3194
 20
8.4992
 30
0.0
 10
14.3194
 20
8.6093
 30
0.0
 10
14.3433
 20
8.7109
 30
0.0
 10
14.3904
 20
8.8036
 30
0.0
 10
14.3904
 20
8.8036
 30
0.0
 10
14.438
 20
8.8962
 30
0.0
 10
14.5023
 20
8.9672
 30
0.0
 10
14.5842
 20
9.0167
 30
0.0
 10
14.5842
 20
9.0167
 30
0.0
 10
14.666
 20
9.0655
 30
0.0
 10
14.7525
 20
9.0905
 30
0.0
 10
14.8448
 20
9.0905
 30
0.0
 10
14.8448
 20
9.0905
 30
0.0
 10
14.9317
 20
9.0905
 30
0.0
 10
15.0113
 20
9.067
 30
0.0
 10
15.0833
 20
9.0199
 30
0.0
 10
15.0833
 20
9.0199
 30
0.0
 10
15.1548
 20
8.9728
 30
0.0
 10
15.2117
 20
8.9037
 30
0.0
 10
15.254
 20
8.8121
 30
0.0
 10
15.254
 20
8.8121
 30
0.0
 10
15.2813
 20
8.9315
 30
0.0
 10
15.3387
 20
9.0241
 30
0.0
 10
15.4257
 20
9.0905
 30
0.0
 10
15.4257
 20
9.0905
 30
0.0
 10
15.5122
 20
9.1563
 30
0.0
 10
15.6209
 20
9.1893
 30
0.0
 10
15.7512
 20
9.1893
 30
0.0
 10
15.7512
 20
9.1893
 30
0.0
 10
15.9275
 20
9.1893
 30
0.0
 10
16.0771
 20
9.1253
 30
0.0
 10
16.1999
 20
8.9964
 30
0.0
 10
16.1999
 20
8.9964
 30
0.0
 10
16.3227
 20
8.868
 30
0.0
 10
16.3838
 20
8.7052
 30
0.0
 10
16.3838
 20
8.5086
 30
0.0
 10
16.3838
 20
8.5086
 30
0.0
 10
16.3838
 20
8.3312
 30
0.0
 10
16.3312
 20
8.184
 30
0.0
 10
16.2253
 20
8.0669
 30
0.0
 10
16.2253
 20
8.0669
 30
0.0
 10
16.1199
 20
7.9498
 30
0.0
 10
15.9831
 20
7.883
 30
0.0
 10
15.8147
 20
7.8666
 30
0.0
  0
SPLINE
  5
5D
330
1F
100
AcDbEntity
  8
ROUND
 62
   250
100
AcDbSpline
210
0.0
220
0.0
230
1.0
 70
    11
 71
     3
 72
    92
 73
    88
 74
     0
 42
0.0000000001
 43
0.0000000001
 40
0.0
 40
0.0
 40
0.0
 40
0.0
 40
0.0434782608695652
 40
0.0434782608695652
 40
0.0434782608695652
 40
0.0434782608695652
 40
0.0869565217391304
 40
0.0869565217391304
 40
0.0869565217391304
 40
0.0869565217391304
 40
0.1304347826086956
 40
0.1304347826086956
 40
0.1304347826086956
 40
0.1304347826086956
 40
0.1739130434782609
 40
0.1739130434782609
 40
0.1739130434782609
 40
0.1739130434782609
 40
0.2173913043478261
 40
0.2173913043478261
 40
0.2173913043478261
 40
0.2173913043478261
 40
0.2608695652173913
 40
0.2608695652173913
 40
0.2608695652173913
 40
0.2608695652173913
 40
0.3043478260869565
 40
0.3043478260869565
 40
0.3043478260869565
 40
0.3043478260869565
 40
0.3478260869565217
 40
0.3478260869565217
 40
0.3478260869565217
 40
0.3478260869565217
 40
0.391304347826087
 40
0.391304347826087
 40
0.391304347826087
 40
0.391304347826087
 40
0.4347826086956522
 40
0.4347826086956522
 40
0.4347826086956522
 40
0.4347826086956522
 40
0.4782608695652174
 40
0.4782608695652174
 40
0.4782608695652174
 40
0.4782608695652174
 40
0.5217391304347826
 40
0.5217391304347826
 40
0.5217391304347826
 40
0.5217391304347826
 40
0.5652173913043478
 40
0.5652173913043478
 40
0.5652173913043478
 40
0.5652173913043478
 40
0.6086956521739131
 40
0.6086956521739131
 40
0.6086956521739131
 40
0.6086956521739131
 40
0.6521739130434783
 40
0.6521739130434783
 40
0.6521739130434783
 40
0.6521739130434783
 40
0.6956521739130435
 40
0.6956521739130435
 40
0.6956521739130435
 40
0.6956521739130435
 40
0.7391304347826086
 40
0.7391304347826086
 40
0.7391304347826086
 40
0.7391304347826086
 40
0.782608695652174
 40
0.782608695652174
 40
0.782608695652174
 40
0.782608695652174
 40
0.8260869565217391
 40
0.8260869565217391
 40
0.8260869565217391
 40
0.8260869565217391
 40
0.8695652173913043
 40
0.8695652173913043
 40
0.8695652173913043
 40
0.8695652173913043
 40
0.9130434782608695
 40
0.9130434782608695
 40
0.9130434782608695
 40
0.9130434782608695
 40
1.0
 40
1.0
 40
1.0
 40
1.0
 10
16.1096
 20
10.7386
 30
0.0
 10
16.1096
 20
10.7386
 30
0.0
 10
16.3481
 20
10.7386
 30
0.0
 10
16.3481
 20
10.7386
 30
0.0
 10
16.3481
 20
10.7386
 30
0.0
 10
16.3481
 20
10.7386
 30
0.0
 10
16.3481
 20
9.4032
 30
0.0
 10
16.3481
 20
9.4032
 30
0.0
 10
16.3481
 20
9.4032
 30
0.0
 10
16.2883
 20
9.4014
 30
0.0
 10
16.231
 20
9.4108
 30
0.0
 10
16.176
 20
9.432
 30
0.0
 10
16.176
 20
9.432
 30
0.0
 10
16.0847
 20
9.4659
 30
0.0
 10
15.9953
 20
9.5204
 30
0.0
 10
15.9069
 20
9.5951
 30
0.0
 10
15.9069
 20
9.5951
 30
0.0
 10
15.8189
 20
9.6705
 30
0.0
 10
15.7168
 20
9.7786
 30
0.0
 10
15.6011
 20
9.9198
 30
0.0
 10
15.6011
 20
9.9198
 30
0.0
 10
15.421
 20
10.1394
 30
0.0
 10
15.2785
 20
10.2881
 30
0.0
 10
15.1731
 20
10.3651
 30
0.0
 10
15.1731
 20
10.3651
 30
0.0
 10
15.0682
 20
10.4424
 30
0.0
 10
14.9685
 20
10.481
 30
0.0
 10
14.8748
 20
10.481
 30
0.0
 10
14.8748
 20
10.481
 30
0.0
 10
14.7766
 20
10.481
 30
0.0
 10
14.6938
 20
10.4456
 30
0.0
 10
14.626
 20
10.3755
 30
0.0
 10
14.626
 20
10.3755
 30
0.0
 10
14.5588
 20
10.305
 30
0.0
 10
14.5249
 20
10.2132
 30
0.0
 10
14.5249
 20
10.1004
 30
0.0
 10
14.5249
 20
10.1004
 30
0.0
 10
14.5249
 20
9.981
 30
0.0
 10
14.5606
 20
9.8854
 30
0.0
 10
14.6326
 20
9.8139
 30
0.0
 10
14.6326
 20
9.8139
 30
0.0
 10
14.7041
 20
9.742
 30
0.0
 10
14.8033
 20
9.7057
 30
0.0
 10
14.9299
 20
9.7047
 30
0.0
 10
14.9299
 20
9.7047
 30
0.0
 10
14.9299
 20
9.7047
 30
0.0
 10
14.9041
 20
9.4498
 30
0.0
 10
14.9041
 20
9.4498
 30
0.0
 10
14.9041
 20
9.4498
 30
0.0
 10
14.7136
 20
9.4672
 30
0.0
 10
14.5687
 20
9.5331
 30
0.0
 10
14.469
 20
9.6469
 30
0.0
 10
14.469
 20
9.6469
 30
0.0
 10
14.3692
 20
9.7608
 30
0.0
 10
14.3194
 20
9.9141
 30
0.0
 10
14.3194
 20
10.106
 30
0.0
 10
14.3194
 20
10.106
 30
0.0
 10
14.3194
 20
10.2998
 30
0.0
 10
14.3734
 20
10.4532
 30
0.0
 10
14.4807
 20
10.566
 30
0.0
 10
14.4807
 20
10.566
 30
0.0
 10
14.5884
 20
10.6794
 30
0.0
 10
14.7215
 20
10.7359
 30
0.0
 10
14.8806
 20
10.7359
 30
0.0
 10
14.8806
 20
10.7359
 30
0.0
 10
14.9614
 20
10.7359
 30
0.0
 10
15.041
 20
10.7193
 30
0.0
 10
15.119
 20
10.686
 30
0.0
 10
15.119
 20
10.686
 30
0.0
 10
15.1971
 20
10.6531
 30
0.0
 10
15.2795
 20
10.598
 30
0.0
 10
15.3655
 20
10.5213
 30
0.0
 10
15.3655
 20
10.5213
 30
0.0
 10
15.4521
 20
10.4447
 30
0.0
 10
15.5706
 20
10.3172
 30
0.0
 10
15.7211
 20
10.139
 30
0.0
 10
15.7211
 20
10.139
 30
0.0
 10
15.8462
 20
9.9903
 30
0.0
 10
15.9309
 20
9.8948
 30
0.0
 10
15.9756
 20
9.8524
 30
0.0
 10
15.9756
 20
9.8524
 30
0.0
 10
16.0198
 20
9.8102
 30
0.0
 10
16.0644
 20
9.7753
 30
0.0
 10
16.1096
 20
9.7476
 30
0.0
 10
16.1096
 20
9.7476
 30
0.0
 10
16.1096
 20
9.7476
 30
0.0
 10
16.1096
 20
10.7386
 30
0.0
 10
16.1096
 20
10.7386
 30
0.0
  0
SPLINE
  5
5E
330
1F
100
AcDbEntity
  8
ROUND
 62
   250
100
AcDbSpline
210
0.0
220
0.0
230
1.0
 70
    11
 71
     3
 72
    20
 73
    16
 74
     0
 42
0.0000000001
 43
0.0000000001
 40
0.0
 40
0.0
 40
0.0
 40
0.0
 40
0.2
 40
0.2
 40
0.2
 40
0.2
 40
0.4
 40
0.4
 40
0.4
 40
0.4
 40
0.6
 40
0.6
 40
0.6
 40
0.6
 40
1.0
 40
1.0
 40
1.0
 40
1.0
 10
17.6353
 20
5.2057
 30
0.0
 10
17.6353
 20
5.2057
 30
0.0
 10
17.212
 20
2.2057
 30
0.0
 10
17.212
 20
2.2057
 30
0.0
 10
17.212
 20
2.2057
 30
0.0
 10
17.212
 20
2.2057
 30
0.0
 10
17.1179
 20
2.2057
 30
0.0
 10
17.1179
 20
2.2057
 30
0.0
 10
17.1179
 20
2.2057
 30
0.0
 10
17.1179
 20
2.2057
 30
0.0
 10
16.6664
 20
5.2057
 30
0.0
 10
16.6664
 20
5.2057
 30
0.0
 10
16.6664
 20
5.2057
 30
0.0
 10
16.6664
 20
5.2057
 30
0.0
 10
17.6353
 20
5.2057
 30
0.0
 10
17.6353
 20
5.2057
 30
0.0
  0
SPLINE
  5
5F
330
1F
100
AcDbEntity
  8
ROUND
 62
   250
100
AcDbSpline
210
0.0
220
0.0
230
1.0
 70
    11
 71
     3
 72
    20
 73
    16
 74
     0
 42
0.0000000001
 43
0.0000000001
 40
0.0
 40
0.0
 40
0.0
 40
0.0
 40
0.2
 40
0.2
 40
0.2
 40
0.2
 40
0.4
 40
0.4
 40
0.4
 40
0.4
 40
0.6
 40
0.6
 40
0.6
 40
0.6
 40
1.0
 40
1.0
 40
1.0
 40
1.0
 10
16.7291
 20
-9.9674
 30
0.0
 10
16.7291
 20
-9.9674
 30
0.0
 10
17.1525
 20
-6.9674
 30
0.0
 10
17.1525
 20
-6.9674
 30
0.0
 10
17.1525
 20
-6.9674
 30
0.0
 10
17.1525
 20
-6.9674
 30
0.0
 10
17.2465
 20
-6.9674
 30
0.0
 10
17.2465
 20
-6.9674
 30
0.0
 10
17.2465
 20
-6.9674
 30
0.0
 10
17.2465
 20
-6.9674
 30
0.0
 10
17.698
 20
-9.9674
 30
0.0
 10
17.698
 20
-9.9674
 30
0.0
 10
17.698
 20
-9.9674
 30
0.0
 10
17.698
 20
-9.9674
 30
0.0
 10
16.7291
 20
-9.9674
 30
0.0
 10
16.7291
 20
-9.9674
 30
0.0
  0
SPLINE
  5
60
330
1F
100
AcDbEntity
  8
ROUND
 62
   250
100
AcDbSpline
210
0.0
220
0.0
230
1.0
 70
    11
 71
     3
 72
    20
 73
    16
 74
     0
 42
0.0000000001
 43
0.0000000001
 40
0.0
 40
0.0
 40
0.0
 40
0.0
 40
0.2
 40
0.2
 40
0.2
 40
0.2
 40
0.4
 40
0.4
 40
0.4
 40
0.4
 40
0.6
 40
0.6
 40
0.6
 40
0.6
 40
1.0
 40
1.0
 40
1.0
 40
1.0
 10
-36.6991
 20
29.494
 30
0.0
 10
-36.6991
 20
29.494
 30
0.0
 10
-33.699
 20
29.0706
 30
0.0
 10
-33.699
 20
29.0706
 30
0.0
 10
-33.699
 20
29.0706
 30
0.0
 10
-33.699
 20
29.0706
 30
0.0
 10
-33.699
 20
28.9766
 30
0.0
 10
-33.699
 20
28.9766
 30
0.0
 10
-33.699
 20
28.9766
 30
0.0
 10
-33.699
 20
28.9766
 30
0.0
 10
-36.6991
 20
28.5251
 30
0.0
 10
-36.6991
 20
28.5251
 30
0.0
 10
-36.6991
 20
28.5251
 30
0.0
 10
-36.6991
 20
28.5251
 30
0.0
 10
-36.6991
 20
29.494
 30
0.0
 10
-36.6991
 20
29.494
 30
0.0
  0
SPLINE
  5
61
330
1F
100
AcDbEntity
  8
ROUND
 62
   250
100
AcDbSpline
210
0.0
220
0.0
230
1.0
 70
    11
 71
     3
 72
    20
 73
    16
 74
     0
 42
0.0000000001
 43
0.0000000001
 40
0.0
 40
0.0
 40
0.0
 40
0.0
 40
0.2
 40
0.2
 40
0.2
 40
0.2
 40
0.4
 40
0.4
 40
0.4
 40
0.4
 40
0.6
 40
0.6
 40
0.6
 40
0.6
 40
1.0
 40
1.0
 40
1.0
 40
1.0
 10
-19.3861
 20
28.5484
 30
0.0
 10
-19.3861
 20
28.5484
 30
0.0
 10
-22.3861
 20
28.9718
 30
0.0
 10
-22.3861
 20
28.9718
 30
0.0
 10
-22.3861
 20
28.9718
 30
0.0
 10
-22.3861
 20
28.9718
 30
0.0
 10
-22.3861
 20
29.0658
 30
0.0
 10
-22.3861
 20
29.0658
 30
0.0
 10
-22.3861
 20
29.0658
 30
0.0
 10
-22.3861
 20
29.0658
 30
0.0
 10
-19.3861
 20
29.5173
 30
0.0
 10
-19.3861
 20
29.5173
 30
0.0
 10
-19.3861
 20
29.5173
 30
0.0
 10
-19.3861
 20
29.5173
 30
0.0
 10
-19.3861
 20
28.5484
 30
0.0
 10
-19.3861
 20
28.5484
 30
0.0
  0
SPLINE
  5
62
330
1F
100
AcDbEntity
  8
ROUND
 62
   250
100
AcDbSpline
210
0.0
220
0.0
230
1.0
 70
    11
 71
     3
 72
    40
 73
    36
 74
     0
 42
0.0000000001
 43
0.0000000001
 40
0.0
 40
0.0
 40
0.0
 40
0.0
 40
0.1
 40
0.1
 40
0.1
 40
0.1
 40
0.2
 40
0.2
 40
0.2
 40
0.2
 40
0.3
 40
0.3
 40
0.3
 40
0.3
 40
0.4
 40
0.4
 40
0.4
 40
0.4
 40
0.5
 40
0.5
 40
0.5
 40
0.5
 40
0.6
 40
0.6
 40
0.6
 40
0.6
 40
0.7
 40
0.7
 40
0.7
 40
0.7
 40
0.8
 40
0.8
 40
0.8
 40
0.8
 40
1.0
 40
1.0
 40
1.0
 40
1.0
 10
-42.8911
 20
-18.3767
 30
0.0
 10
-42.8911
 20
-18.3767
 30
0.0
 10
-42.8911
 20
-18.6246
 30
0.0
 10
-42.8911
 20
-18.6246
 30
0.0
 10
-42.8911
 20
-18.6246
 30
0.0
 10
-42.8911
 20
-18.6246
 30
0.0
 10
-44.4715
 20
-18.6246
 30
0.0
 10
-44.4715
 20
-18.6246
 30
0.0
 10
-44.4715
 20
-18.6246
 30
0.0
 10
-44.4146
 20
-18.6844
 30
0.0
 10
-44.3577
 20
-18.7624
 30
0.0
 10
-44.3008
 20
-18.8593
 30
0.0
 10
-44.3008
 20
-18.8593
 30
0.0
 10
-44.2439
 20
-18.9567
 30
0.0
 10
-44.2011
 20
-19.0437
 30
0.0
 10
-44.1728
 20
-19.1209
 30
0.0
 10
-44.1728
 20
-19.1209
 30
0.0
 10
-44.1728
 20
-19.1209
 30
0.0
 10
-44.4123
 20
-19.1209
 30
0.0
 10
-44.4123
 20
-19.1209
 30
0.0
 10
-44.4123
 20
-19.1209
 30
0.0
 10
-44.4776
 20
-18.9821
 30
0.0
 10
-44.5567
 20
-18.8607
 30
0.0
 10
-44.6493
 20
-18.7568
 30
0.0
 10
-44.6493
 20
-18.7568
 30
0.0
 10
-44.7425
 20
-18.6533
 30
0.0
 10
-44.8323
 20
-18.5795
 30
0.0
 10
-44.9198
 20
-18.5362
 30
0.0
 10
-44.9198
 20
-18.5362
 30
0.0
 10
-44.9198
 20
-18.5362
 30
0.0
 10
-44.9198
 20
-18.3767
 30
0.0
 10
-44.9198
 20
-18.3767
 30
0.0
 10
-44.9198
 20
-18.3767
 30
0.0
 10
-44.9198
 20
-18.3767
 30
0.0
 10
-42.8911
 20
-18.3767
 30
0.0
 10
-42.8911
 20
-18.3767
 30
0.0
  0
SPLINE
  5
63
330
1F
100
AcDbEntity
  8
ROUND
 62
   250
100
AcDbSpline
210
0.0
220
0.0
230
1.0
 70
    11
 71
     3
 72
    40
 73
    36
 74
     0
 42
0.0000000001
 43
0.0000000001
 40
0.0
 40
0.0
 40
0.0
 40
0.0
 40
0.1
 40
0.1
 40
0.1
 40
0.1
 40
0.2
 40
0.2
 40
0.2
 40
0.2
 40
0.3
 40
0.3
 40
0.3
 40
0.3
 40
0.4
 40
0.4
 40
0.4
 40
0.4
 40
0.5
 40
0.5
 40
0.5
 40
0.5
 40
0.6
 40
0.6
 40
0.6
 40
0.6
 40
0.7
 40
0.7
 40
0.7
 40
0.7
 40
0.8
 40
0.8
 40
0.8
 40
0.8
 40
1.0
 40
1.0
 40
1.0
 40
1.0
 10
-42.8911
 20
-17.0164
 30
0.0
 10
-42.8911
 20
-17.0164
 30
0.0
 10
-42.8911
 20
-17.2643
 30
0.0
 10
-42.8911
 20
-17.2643
 30
0.0
 10
-42.8911
 20
-17.2643
 30
0.0
 10
-42.8911
 20
-17.2643
 30
0.0
 10
-44.4715
 20
-17.2643
 30
0.0
 10
-44.4715
 20
-17.2643
 30
0.0
 10
-44.4715
 20
-17.2643
 30
0.0
 10
-44.4146
 20
-17.3241
 30
0.0
 10
-44.3577
 20
-17.4021
 30
0.0
 10
-44.3008
 20
-17.499
 30
0.0
 10
-44.3008
 20
-17.499
 30
0.0
 10
-44.2439
 20
-17.5964
 30
0.0
 10
-44.2011
 20
-17.6834
 30
0.0
 10
-44.1728
 20
-17.7606
 30
0.0
 10
-44.1728
 20
-17.7606
 30
0.0
 10
-44.1728
 20
-17.7606
 30
0.0
 10
-44.4123
 20
-17.7606
 30
0.0
 10
-44.4123
 20
-17.7606
 30
0.0
 10
-44.4123
 20
-17.7606
 30
0.0
 10
-44.4776
 20
-17.6218
 30
0.0
 10
-44.5567
 20
-17.5004
 30
0.0
 10
-44.6493
 20
-17.3965
 30
0.0
 10
-44.6493
 20
-17.3965
 30
0.0
 10
-44.7425
 20
-17.293
 30
0.0
 10
-44.8323
 20
-17.2192
 30
0.0
 10
-44.9198
 20
-17.1759
 30
0.0
 10
-44.9198
 20
-17.1759
 30
0.0
 10
-44.9198
 20
-17.1759
 30
0.0
 10
-44.9198
 20
-17.0164
 30
0.0
 10
-44.9198
 20
-17.0164
 30
0.0
 10
-44.9198
 20
-17.0164
 30
0.0
 10
-44.9198
 20
-17.0164
 30
0.0
 10
-42.8911
 20
-17.0164
 30
0.0
 10
-42.8911
 20
-17.0164
 30
0.0
  0
SPLINE
  5
64
330
1F
100
AcDbEntity
  8
ROUND
 62
   250
100
AcDbSpline
210
0.0
220
0.0
230
1.0
 70
    11
 71
     3
 72
    52
 73
    48
 74
     0
 42
0.0000000001
 43
0.0000000001
 40
0.0
 40
0.0
 40
0.0
 40
0.0
 40
0.0769230769230769
 40
0.0769230769230769
 40
0.0769230769230769
 40
0.0769230769230769
 40
0.1538461538461539
 40
0.1538461538461539
 40
0.1538461538461539
 40
0.1538461538461539
 40
0.2307692307692308
 40
0.2307692307692308
 40
0.2307692307692308
 40
0.2307692307692308
 40
0.3076923076923077
 40
0.3076923076923077
 40
0.3076923076923077
 40
0.3076923076923077
 40
0.3846153846153846
 40
0.3846153846153846
 40
0.3846153846153846
 40
0.3846153846153846
 40
0.4615384615384616
 40
0.4615384615384616
 40
0.4615384615384616
 40
0.4615384615384616
 40
0.5384615384615384
 40
0.5384615384615384
 40
0.5384615384615384
 40
0.5384615384615384
 40
0.6153846153846154
 40
0.6153846153846154
 40
0.6153846153846154
 40
0.6153846153846154
 40
0.6923076923076923
 40
0.6923076923076923
 40
0.6923076923076923
 40
0.6923076923076923
 40
0.7692307692307693
 40
0.7692307692307693
 40
0.7692307692307693
 40
0.7692307692307693
 40
0.8461538461538461
 40
0.8461538461538461
 40
0.8461538461538461
 40
0.8461538461538461
 40
1.0
 40
1.0
 40
1.0
 40
1.0
 10
-43.8873
 20
-16.381
 30
0.0
 10
-44.1263
 20
-16.381
 30
0.0
 10
-44.3187
 20
-16.3565
 30
0.0
 10
-44.464
 20
-16.3071
 30
0.0
 10
-44.464
 20
-16.3071
 30
0.0
 10
-44.6098
 20
-16.2582
 30
0.0
 10
-44.7222
 20
-16.1848
 30
0.0
 10
-44.8013
 20
-16.0879
 30
0.0
 10
-44.8013
 20
-16.0879
 30
0.0
 10
-44.8803
 20
-15.991
 30
0.0
 10
-44.9198
 20
-15.8692
 30
0.0
 10
-44.9198
 20
-15.7225
 30
0.0
 10
-44.9198
 20
-15.7225
 30
0.0
 10
-44.9198
 20
-15.6138
 30
0.0
 10
-44.8977
 20
-15.5188
 30
0.0
 10
-44.8539
 20
-15.437
 30
0.0
 10
-44.8539
 20
-15.437
 30
0.0
 10
-44.8107
 20
-15.3551
 30
0.0
 10
-44.7476
 20
-15.2878
 30
0.0
 10
-44.6653
 20
-15.2342
 30
0.0
 10
-44.6653
 20
-15.2342
 30
0.0
 10
-44.583
 20
-15.1811
 30
0.0
 10
-44.4828
 20
-15.1392
 30
0.0
 10
-44.3648
 20
-15.1091
 30
0.0
 10
-44.3648
 20
-15.1091
 30
0.0
 10
-44.2467
 20
-15.0785
 30
0.0
 10
-44.0877
 20
-15.0635
 30
0.0
 10
-43.8873
 20
-15.0635
 30
0.0
 10
-43.8873
 20
-15.0635
 30
0.0
 10
-43.6503
 20
-15.0635
 30
0.0
 10
-43.4593
 20
-15.0879
 30
0.0
 10
-43.3135
 20
-15.1364
 30
0.0
 10
-43.3135
 20
-15.1364
 30
0.0
 10
-43.1677
 20
-15.1853
 30
0.0
 10
-43.0553
 20
-15.2582
 30
0.0
 10
-42.9758
 20
-15.3551
 30
0.0
 10
-42.9758
 20
-15.3551
 30
0.0
 10
-42.8963
 20
-15.452
 30
0.0
 10
-42.8568
 20
-15.5743
 30
0.0
 10
-42.8568
 20
-15.7225
 30
0.0
 10
-42.8568
 20
-15.7225
 30
0.0
 10
-42.8568
 20
-15.9172
 30
0.0
 10
-42.9264
 20
-16.0701
 30
0.0
 10
-43.0661
 20
-16.1811
 30
0.0
 10
-43.0661
 20
-16.1811
 30
0.0
 10
-43.234
 20
-16.3142
 30
0.0
 10
-43.5082
 20
-16.381
 30
0.0
 10
-43.8873
 20
-16.381
 30
0.0
  0
SPLINE
  5
65
330
1F
100
AcDbEntity
  8
ROUND
 62
   250
100
AcDbSpline
210
0.0
220
0.0
230
1.0
 70
    11
 71
     3
 72
    36
 73
    32
 74
     0
 42
0.0000000001
 43
0.0000000001
 40
0.0
 40
0.0
 40
0.0
 40
0.0
 40
0.1111111111111111
 40
0.1111111111111111
 40
0.1111111111111111
 40
0.1111111111111111
 40
0.2222222222222222
 40
0.2222222222222222
 40
0.2222222222222222
 40
0.2222222222222222
 40
0.3333333333333333
 40
0.3333333333333333
 40
0.3333333333333333
 40
0.3333333333333333
 40
0.4444444444444444
 40
0.4444444444444444
 40
0.4444444444444444
 40
0.4444444444444444
 40
0.5555555555555556
 40
0.5555555555555556
 40
0.5555555555555556
 40
0.5555555555555556
 40
0.6666666666666666
 40
0.6666666666666666
 40
0.6666666666666666
 40
0.6666666666666666
 40
0.7777777777777778
 40
0.7777777777777778
 40
0.7777777777777778
 40
0.7777777777777778
 40
1.0
 40
1.0
 40
1.0
 40
1.0
 10
-43.8873
 20
-16.126
 30
0.0
 10
-43.5557
 20
-16.126
 30
0.0
 10
-43.3351
 20
-16.087
 30
0.0
 10
-43.2251
 20
-16.0094
 30
0.0
 10
-43.2251
 20
-16.0094
 30
0.0
 10
-43.1155
 20
-15.9318
 30
0.0
 10
-43.0604
 20
-15.8363
 30
0.0
 10
-43.0604
 20
-15.7225
 30
0.0
 10
-43.0604
 20
-15.7225
 30
0.0
 10
-43.0604
 20
-15.6082
 30
0.0
 10
-43.1159
 20
-15.5127
 30
0.0
 10
-43.226
 20
-15.4351
 30
0.0
 10
-43.226
 20
-15.4351
 30
0.0
 10
-43.3361
 20
-15.3575
 30
0.0
 10
-43.5567
 20
-15.3184
 30
0.0
 10
-43.8873
 20
-15.3184
 30
0.0
 10
-43.8873
 20
-15.3184
 30
0.0
 10
-44.2199
 20
-15.3184
 30
0.0
 10
-44.441
 20
-15.3575
 30
0.0
 10
-44.5501
 20
-15.4351
 30
0.0
 10
-44.5501
 20
-15.4351
 30
0.0
 10
-44.6597
 20
-15.5127
 30
0.0
 10
-44.7142
 20
-15.6091
 30
0.0
 10
-44.7142
 20
-15.7248
 30
0.0
 10
-44.7142
 20
-15.7248
 30
0.0
 10
-44.7142
 20
-15.8391
 30
0.0
 10
-44.6658
 20
-15.9299
 30
0.0
 10
-44.5694
 20
-15.9981
 30
0.0
 10
-44.5694
 20
-15.9981
 30
0.0
 10
-44.4466
 20
-16.0832
 30
0.0
 10
-44.2189
 20
-16.126
 30
0.0
 10
-43.8873
 20
-16.126
 30
0.0
  0
SPLINE
  5
66
330
1F
100
AcDbEntity
  8
ROUND
 62
   250
100
AcDbSpline
210
0.0
220
0.0
230
1.0
 70
    11
 71
     3
 72
    68
 73
    64
 74
     0
 42
0.0000000001
 43
0.0000000001
 40
0.0
 40
0.0
 40
0.0
 40
0.0
 40
0.0588235294117647
 40
0.0588235294117647
 40
0.0588235294117647
 40
0.0588235294117647
 40
0.1176470588235294
 40
0.1176470588235294
 40
0.1176470588235294
 40
0.1176470588235294
 40
0.1764705882352941
 40
0.1764705882352941
 40
0.1764705882352941
 40
0.1764705882352941
 40
0.2352941176470588
 40
0.2352941176470588
 40
0.2352941176470588
 40
0.2352941176470588
 40
0.2941176470588235
 40
0.2941176470588235
 40
0.2941176470588235
 40
0.2941176470588235
 40
0.3529411764705883
 40
0.3529411764705883
 40
0.3529411764705883
 40
0.3529411764705883
 40
0.4117647058823529
 40
0.4117647058823529
 40
0.4117647058823529
 40
0.4117647058823529
 40
0.4705882352941176
 40
0.4705882352941176
 40
0.4705882352941176
 40
0.4705882352941176
 40
0.5294117647058824
 40
0.5294117647058824
 40
0.5294117647058824
 40
0.5294117647058824
 40
0.5882352941176471
 40
0.5882352941176471
 40
0.5882352941176471
 40
0.5882352941176471
 40
0.6470588235294118
 40
0.6470588235294118
 40
0.6470588235294118
 40
0.6470588235294118
 40
0.7058823529411765
 40
0.7058823529411765
 40
0.7058823529411765
 40
0.7058823529411765
 40
0.7647058823529411
 40
0.7647058823529411
 40
0.7647058823529411
 40
0.7647058823529411
 40
0.8235294117647058
 40
0.8235294117647058
 40
0.8235294117647058
 40
0.8235294117647058
 40
0.8823529411764706
 40
0.8823529411764706
 40
0.8823529411764706
 40
0.8823529411764706
 40
1.0
 40
1.0
 40
1.0
 40
1.0
 10
-17.3118
 20
-34.7291
 30
0.0
 10
-17.4149
 20
-34.6915
 30
0.0
 10
-17.4911
 20
-34.6379
 30
0.0
 10
-17.5409
 20
-34.5678
 30
0.0
 10
-17.5409
 20
-34.5678
 30
0.0
 10
-17.5903
 20
-34.4982
 30
0.0
 10
-17.6152
 20
-34.4144
 30
0.0
 10
-17.6152
 20
-34.3171
 30
0.0
 10
-17.6152
 20
-34.3171
 30
0.0
 10
-17.6152
 20
-34.1699
 30
0.0
 10
-17.5625
 20
-34.0466
 30
0.0
 10
-17.4567
 20
-33.9464
 30
0.0
 10
-17.4567
 20
-33.9464
 30
0.0
 10
-17.3509
 20
-33.8462
 30
0.0
 10
-17.2107
 20
-33.7959
 30
0.0
 10
-17.0353
 20
-33.7959
 30
0.0
 10
-17.0353
 20
-33.7959
 30
0.0
 10
-16.8589
 20
-33.7959
 30
0.0
 10
-16.7168
 20
-33.8472
 30
0.0
 10
-16.6091
 20
-33.9497
 30
0.0
 10
-16.6091
 20
-33.9497
 30
0.0
 10
-16.5019
 20
-34.0523
 30
0.0
 10
-16.4482
 20
-34.1769
 30
0.0
 10
-16.4482
 20
-34.3241
 30
0.0
 10
-16.4482
 20
-34.3241
 30
0.0
 10
-16.4482
 20
-34.4177
 30
0.0
 10
-16.4727
 20
-34.4991
 30
0.0
 10
-16.5216
 20
-34.5687
 30
0.0
 10
-16.5216
 20
-34.5687
 30
0.0
 10
-16.571
 20
-34.6379
 30
0.0
 10
-16.6453
 20
-34.6915
 30
0.0
 10
-16.7455
 20
-34.7291
 30
0.0
 10
-16.7455
 20
-34.7291
 30
0.0
 10
-16.6218
 20
-34.7696
 30
0.0
 10
-16.5273
 20
-34.8345
 30
0.0
 10
-16.4624
 20
-34.9248
 30
0.0
 10
-16.4624
 20
-34.9248
 30
0.0
 10
-16.3979
 20
-35.0146
 30
0.0
 10
-16.3655
 20
-35.1223
 30
0.0
 10
-16.3655
 20
-35.247
 30
0.0
 10
-16.3655
 20
-35.247
 30
0.0
 10
-16.3655
 20
-35.4201
 30
0.0
 10
-16.4266
 20
-35.565
 30
0.0
 10
-16.5484
 20
-35.6825
 30
0.0
 10
-16.5484
 20
-35.6825
 30
0.0
 10
-16.6707
 20
-35.8001
 30
0.0
 10
-16.8316
 20
-35.8589
 30
0.0
 10
-17.031
 20
-35.8589
 30
0.0
 10
-17.031
 20
-35.8589
 30
0.0
 10
-17.2305
 20
-35.8589
 30
0.0
 10
-17.3909
 20
-35.8001
 30
0.0
 10
-17.5132
 20
-35.6821
 30
0.0
 10
-17.5132
 20
-35.6821
 30
0.0
 10
-17.6355
 20
-35.564
 30
0.0
 10
-17.6966
 20
-35.4168
 30
0.0
 10
-17.6966
 20
-35.2404
 30
0.0
 10
-17.6966
 20
-35.2404
 30
0.0
 10
-17.6966
 20
-35.1092
 30
0.0
 10
-17.6632
 20
-34.9991
 30
0.0
 10
-17.5964
 20
-34.9102
 30
0.0
 10
-17.5964
 20
-34.9102
 30
0.0
 10
-17.5301
 20
-34.8218
 30
0.0
 10
-17.4351
 20
-34.7611
 30
0.0
 10
-17.3118
 20
-34.7291
 30
0.0
  0
SPLINE
  5
67
330
1F
100
AcDbEntity
  8
ROUND
 62
   250
100
AcDbSpline
210
0.0
220
0.0
230
1.0
 70
    11
 71
     3
 72
    36
 73
    32
 74
     0
 42
0.0000000001
 43
0.0000000001
 40
0.0
 40
0.0
 40
0.0
 40
0.0
 40
0.1111111111111111
 40
0.1111111111111111
 40
0.1111111111111111
 40
0.1111111111111111
 40
0.2222222222222222
 40
0.2222222222222222
 40
0.2222222222222222
 40
0.2222222222222222
 40
0.3333333333333333
 40
0.3333333333333333
 40
0.3333333333333333
 40
0.3333333333333333
 40
0.4444444444444444
 40
0.4444444444444444
 40
0.4444444444444444
 40
0.4444444444444444
 40
0.5555555555555556
 40
0.5555555555555556
 40
0.5555555555555556
 40
0.5555555555555556
 40
0.6666666666666666
 40
0.6666666666666666
 40
0.6666666666666666
 40
0.6666666666666666
 40
0.7777777777777778
 40
0.7777777777777778
 40
0.7777777777777778
 40
0.7777777777777778
 40
1.0
 40
1.0
 40
1.0
 40
1.0
 10
-17.3617
 20
-34.3086
 30
0.0
 10
-17.3617
 20
-34.4041
 30
0.0
 10
-17.3307
 20
-34.4822
 30
0.0
 10
-17.2695
 20
-34.5429
 30
0.0
 10
-17.2695
 20
-34.5429
 30
0.0
 10
-17.2079
 20
-34.6035
 30
0.0
 10
-17.1279
 20
-34.6341
 30
0.0
 10
-17.0296
 20
-34.6341
 30
0.0
 10
-17.0296
 20
-34.6341
 30
0.0
 10
-16.9341
 20
-34.6341
 30
0.0
 10
-16.8556
 20
-34.604
 30
0.0
 10
-16.7944
 20
-34.5438
 30
0.0
 10
-16.7944
 20
-34.5438
 30
0.0
 10
-16.7333
 20
-34.4836
 30
0.0
 10
-16.7032
 20
-34.4097
 30
0.0
 10
-16.7032
 20
-34.3227
 30
0.0
 10
-16.7032
 20
-34.3227
 30
0.0
 10
-16.7032
 20
-34.2315
 30
0.0
 10
-16.7342
 20
-34.1553
 30
0.0
 10
-16.7973
 20
-34.0932
 30
0.0
 10
-16.7973
 20
-34.0932
 30
0.0
 10
-16.8603
 20
-34.0311
 30
0.0
 10
-16.9384
 20
-34.0
 30
0.0
 10
-17.0324
 20
-34.0
 30
0.0
 10
-17.0324
 20
-34.0
 30
0.0
 10
-17.127
 20
-34.0
 30
0.0
 10
-17.2055
 20
-34.0306
 30
0.0
 10
-17.2681
 20
-34.0908
 30
0.0
 10
-17.2681
 20
-34.0908
 30
0.0
 10
-17.3307
 20
-34.1515
 30
0.0
 10
-17.3617
 20
-34.2244
 30
0.0
 10
-17.3617
 20
-34.3086
 30
0.0
  0
SPLINE
  5
68
330
1F
100
AcDbEntity
  8
ROUND
 62
   250
100
AcDbSpline
210
0.0
220
0.0
230
1.0
 70
    11
 71
     3
 72
    40
 73
    36
 74
     0
 42
0.0000000001
 43
0.0000000001
 40
0.0
 40
0.0
 40
0.0
 40
0.0
 40
0.1
 40
0.1
 40
0.1
 40
0.1
 40
0.2
 40
0.2
 40
0.2
 40
0.2
 40
0.3
 40
0.3
 40
0.3
 40
0.3
 40
0.4
 40
0.4
 40
0.4
 40
0.4
 40
0.5
 40
0.5
 40
0.5
 40
0.5
 40
0.6
 40
0.6
 40
0.6
 40
0.6
 40
0.7
 40
0.7
 40
0.7
 40
0.7
 40
0.8
 40
0.8
 40
0.8
 40
0.8
 40
1.0
 40
1.0
 40
1.0
 40
1.0
 10
-17.4417
 20
-35.2418
 30
0.0
 10
-17.4417
 20
-35.3124
 30
0.0
 10
-17.4247
 20
-35.381
 30
0.0
 10
-17.3913
 20
-35.4469
 30
0.0
 10
-17.3913
 20
-35.4469
 30
0.0
 10
-17.3579
 20
-35.5132
 30
0.0
 10
-17.3081
 20
-35.5645
 30
0.0
 10
-17.2418
 20
-35.6007
 30
0.0
 10
-17.2418
 20
-35.6007
 30
0.0
 10
-17.1754
 20
-35.6369
 30
0.0
 10
-17.1044
 20
-35.6553
 30
0.0
 10
-17.0282
 20
-35.6553
 30
0.0
 10
-17.0282
 20
-35.6553
 30
0.0
 10
-16.9097
 20
-35.6553
 30
0.0
 10
-16.8118
 20
-35.6172
 30
0.0
 10
-16.7347
 20
-35.5405
 30
0.0
 10
-16.7347
 20
-35.5405
 30
0.0
 10
-16.6576
 20
-35.4643
 30
0.0
 10
-16.619
 20
-35.3674
 30
0.0
 10
-16.619
 20
-35.2498
 30
0.0
 10
-16.619
 20
-35.2498
 30
0.0
 10
-16.619
 20
-35.1303
 30
0.0
 10
-16.6585
 20
-35.0316
 30
0.0
 10
-16.738
 20
-34.9535
 30
0.0
 10
-16.738
 20
-34.9535
 30
0.0
 10
-16.8175
 20
-34.8754
 30
0.0
 10
-16.9172
 20
-34.8364
 30
0.0
 10
-17.0367
 20
-34.8364
 30
0.0
 10
-17.0367
 20
-34.8364
 30
0.0
 10
-17.1533
 20
-34.8364
 30
0.0
 10
-17.2498
 20
-34.8749
 30
0.0
 10
-17.3264
 20
-34.9521
 30
0.0
 10
-17.3264
 20
-34.9521
 30
0.0
 10
-17.4031
 20
-35.0297
 30
0.0
 10
-17.4417
 20
-35.1261
 30
0.0
 10
-17.4417
 20
-35.2418
 30
0.0
  0
SPLINE
  5
69
330
1F
100
AcDbEntity
  8
ROUND
 62
   250
100
AcDbSpline
210
0.0
220
0.0
230
1.0
 70
    11
 71
     3
 72
    52
 73
    48
 74
     0
 42
0.0000000001
 43
0.0000000001
 40
0.0
 40
0.0
 40
0.0
 40
0.0
 40
0.0769230769230769
 40
0.0769230769230769
 40
0.0769230769230769
 40
0.0769230769230769
 40
0.1538461538461539
 40
0.1538461538461539
 40
0.1538461538461539
 40
0.1538461538461539
 40
0.2307692307692308
 40
0.2307692307692308
 40
0.2307692307692308
 40
0.2307692307692308
 40
0.3076923076923077
 40
0.3076923076923077
 40
0.3076923076923077
 40
0.3076923076923077
 40
0.3846153846153846
 40
0.3846153846153846
 40
0.3846153846153846
 40
0.3846153846153846
 40
0.4615384615384616
 40
0.4615384615384616
 40
0.4615384615384616
 40
0.4615384615384616
 40
0.5384615384615384
 40
0.5384615384615384
 40
0.5384615384615384
 40
0.5384615384615384
 40
0.6153846153846154
 40
0.6153846153846154
 40
0.6153846153846154
 40
0.6153846153846154
 40
0.6923076923076923
 40
0.6923076923076923
 40
0.6923076923076923
 40
0.6923076923076923
 40
0.7692307692307693
 40
0.7692307692307693
 40
0.7692307692307693
 40
0.7692307692307693
 40
0.8461538461538461
 40
0.8461538461538461
 40
0.8461538461538461
 40
0.8461538461538461
 40
1.0
 40
1.0
 40
1.0
 40
1.0
 10
-16.1242
 20
-34.8284
 30
0.0
 10
-16.1242
 20
-34.5894
 30
0.0
 10
-16.0997
 20
-34.397
 30
0.0
 10
-16.0503
 20
-34.2517
 30
0.0
 10
-16.0503
 20
-34.2517
 30
0.0
 10
-16.0014
 20
-34.1059
 30
0.0
 10
-15.928
 20
-33.9935
 30
0.0
 10
-15.8311
 20
-33.9144
 30
0.0
 10
-15.8311
 20
-33.9144
 30
0.0
 10
-15.7342
 20
-33.8354
 30
0.0
 10
-15.6124
 20
-33.7959
 30
0.0
 10
-15.4657
 20
-33.7959
 30
0.0
 10
-15.4657
 20
-33.7959
 30
0.0
 10
-15.357
 20
-33.7959
 30
0.0
 10
-15.262
 20
-33.818
 30
0.0
 10
-15.1802
 20
-33.8618
 30
0.0
 10
-15.1802
 20
-33.8618
 30
0.0
 10
-15.0983
 20
-33.905
 30
0.0
 10
-15.031
 20
-33.9681
 30
0.0
 10
-14.9774
 20
-34.0504
 30
0.0
 10
-14.9774
 20
-34.0504
 30
0.0
 10
-14.9243
 20
-34.1327
 30
0.0
 10
-14.8824
 20
-34.2329
 30
0.0
 10
-14.8523
 20
-34.3509
 30
0.0
 10
-14.8523
 20
-34.3509
 30
0.0
 10
-14.8217
 20
-34.469
 30
0.0
 10
-14.8067
 20
-34.628
 30
0.0
 10
-14.8067
 20
-34.8284
 30
0.0
 10
-14.8067
 20
-34.8284
 30
0.0
 10
-14.8067
 20
-35.0654
 30
0.0
 10
-14.8311
 20
-35.2564
 30
0.0
 10
-14.8796
 20
-35.4022
 30
0.0
 10
-14.8796
 20
-35.4022
 30
0.0
 10
-14.9285
 20
-35.548
 30
0.0
 10
-15.0014
 20
-35.6604
 30
0.0
 10
-15.0983
 20
-35.7399
 30
0.0
 10
-15.0983
 20
-35.7399
 30
0.0
 10
-15.1952
 20
-35.8194
 30
0.0
 10
-15.3175
 20
-35.8589
 30
0.0
 10
-15.4657
 20
-35.8589
 30
0.0
 10
-15.4657
 20
-35.8589
 30
0.0
 10
-15.6604
 20
-35.8589
 30
0.0
 10
-15.8133
 20
-35.7893
 30
0.0
 10
-15.9243
 20
-35.6496
 30
0.0
 10
-15.9243
 20
-35.6496
 30
0.0
 10
-16.0574
 20
-35.4817
 30
0.0
 10
-16.1242
 20
-35.2075
 30
0.0
 10
-16.1242
 20
-34.8284
 30
0.0
  0
SPLINE
  5
6A
330
1F
100
AcDbEntity
  8
ROUND
 62
   250
100
AcDbSpline
210
0.0
220
0.0
230
1.0
 70
    11
 71
     3
 72
    36
 73
    32
 74
     0
 42
0.0000000001
 43
0.0000000001
 40
0.0
 40
0.0
 40
0.0
 40
0.0
 40
0.1111111111111111
 40
0.1111111111111111
 40
0.1111111111111111
 40
0.1111111111111111
 40
0.2222222222222222
 40
0.2222222222222222
 40
0.2222222222222222
 40
0.2222222222222222
 40
0.3333333333333333
 40
0.3333333333333333
 40
0.3333333333333333
 40
0.3333333333333333
 40
0.4444444444444444
 40
0.4444444444444444
 40
0.4444444444444444
 40
0.4444444444444444
 40
0.5555555555555556
 40
0.5555555555555556
 40
0.5555555555555556
 40
0.5555555555555556
 40
0.6666666666666666
 40
0.6666666666666666
 40
0.6666666666666666
 40
0.6666666666666666
 40
0.7777777777777778
 40
0.7777777777777778
 40
0.7777777777777778
 40
0.7777777777777778
 40
1.0
 40
1.0
 40
1.0
 40
1.0
 10
-15.8692
 20
-34.8284
 30
0.0
 10
-15.8692
 20
-35.16
 30
0.0
 10
-15.8302
 20
-35.3806
 30
0.0
 10
-15.7526
 20
-35.4906
 30
0.0
 10
-15.7526
 20
-35.4906
 30
0.0
 10
-15.675
 20
-35.6002
 30
0.0
 10
-15.5795
 20
-35.6553
 30
0.0
 10
-15.4657
 20
-35.6553
 30
0.0
 10
-15.4657
 20
-35.6553
 30
0.0
 10
-15.3514
 20
-35.6553
 30
0.0
 10
-15.2559
 20
-35.5998
 30
0.0
 10
-15.1783
 20
-35.4897
 30
0.0
 10
-15.1783
 20
-35.4897
 30
0.0
 10
-15.1007
 20
-35.3796
 30
0.0
 10
-15.0616
 20
-35.159
 30
0.0
 10
-15.0616
 20
-34.8284
 30
0.0
 10
-15.0616
 20
-34.8284
 30
0.0
 10
-15.0616
 20
-34.4958
 30
0.0
 10
-15.1007
 20
-34.2747
 30
0.0
 10
-15.1783
 20
-34.1656
 30
0.0
 10
-15.1783
 20
-34.1656
 30
0.0
 10
-15.2559
 20
-34.056
 30
0.0
 10
-15.3523
 20
-34.0015
 30
0.0
 10
-15.468
 20
-34.0015
 30
0.0
 10
-15.468
 20
-34.0015
 30
0.0
 10
-15.5823
 20
-34.0015
 30
0.0
 10
-15.6731
 20
-34.0499
 30
0.0
 10
-15.7413
 20
-34.1463
 30
0.0
 10
-15.7413
 20
-34.1463
 30
0.0
 10
-15.8264
 20
-34.2691
 30
0.0
 10
-15.8692
 20
-34.4968
 30
0.0
 10
-15.8692
 20
-34.8284
 30
0.0
  0
SPLINE
  5
6B
330
1F
100
AcDbEntity
  8
ROUND
 62
   250
100
AcDbSpline
210
0.0
220
0.0
230
1.0
 70
    11
 71
     3
 72
   120
 73
   116
 74
     0
 42
0.0000000001
 43
0.0000000001
 40
0.0
 40
0.0
 40
0.0
 40
0.0
 40
0.0333333333333333
 40
0.0333333333333333
 40
0.0333333333333333
 40
0.0333333333333333
 40
0.0666666666666667
 40
0.0666666666666667
 40
0.0666666666666667
 40
0.0666666666666667
 40
0.1
 40
0.1
 40
0.1
 40
0.1
 40
0.1333333333333333
 40
0.1333333333333333
 40
0.1333333333333333
 40
0.1333333333333333
 40
0.1666666666666667
 40
0.1666666666666667
 40
0.1666666666666667
 40
0.1666666666666667
 40
0.2
 40
0.2
 40
0.2
 40
0.2
 40
0.2333333333333333
 40
0.2333333333333333
 40
0.2333333333333333
 40
0.2333333333333333
 40
0.2666666666666667
 40
0.2666666666666667
 40
0.2666666666666667
 40
0.2666666666666667
 40
0.3
 40
0.3
 40
0.3
 40
0.3
 40
0.3333333333333333
 40
0.3333333333333333
 40
0.3333333333333333
 40
0.3333333333333333
 40
0.3666666666666666
 40
0.3666666666666666
 40
0.3666666666666666
 40
0.3666666666666666
 40
0.4
 40
0.4
 40
0.4
 40
0.4
 40
0.4333333333333333
 40
0.4333333333333333
 40
0.4333333333333333
 40
0.4333333333333333
 40
0.4666666666666667
 40
0.4666666666666667
 40
0.4666666666666667
 40
0.4666666666666667
 40
0.5
 40
0.5
 40
0.5
 40
0.5
 40
0.5333333333333333
 40
0.5333333333333333
 40
0.5333333333333333
 40
0.5333333333333333
 40
0.5666666666666667
 40
0.5666666666666667
 40
0.5666666666666667
 40
0.5666666666666667
 40
0.6
 40
0.6
 40
0.6
 40
0.6
 40
0.6333333333333333
 40
0.6333333333333333
 40
0.6333333333333333
 40
0.6333333333333333
 40
0.6666666666666666
 40
0.6666666666666666
 40
0.6666666666666666
 40
0.6666666666666666
 40
0.7
 40
0.7
 40
0.7
 40
0.7
 40
0.7333333333333333
 40
0.7333333333333333
 40
0.7333333333333333
 40
0.7333333333333333
 40
0.7666666666666667
 40
0.7666666666666667
 40
0.7666666666666667
 40
0.7666666666666667
 40
0.8
 40
0.8
 40
0.8
 40
0.8
 40
0.8333333333333334
 40
0.8333333333333334
 40
0.8333333333333334
 40
0.8333333333333334
 40
0.8666666666666667
 40
0.8666666666666667
 40
0.8666666666666667
 40
0.8666666666666667
 40
0.9
 40
0.9
 40
0.9
 40
0.9
 40
0.9333333333333333
 40
0.9333333333333333
 40
0.9333333333333333
 40
0.9333333333333333
 40
1.0
 40
1.0
 40
1.0
 40
1.0
 10
-30.1572
 20
30.349
 30
0.0
 10
-30.1572
 20
30.349
 30
0.0
 10
-30.1572
 20
30.5856
 30
0.0
 10
-30.1572
 20
30.5856
 30
0.0
 10
-30.1572
 20
30.5856
 30
0.0
 10
-30.1572
 20
30.5856
 30
0.0
 10
-29.3016
 20
30.587
 30
0.0
 10
-29.3016
 20
30.587
 30
0.0
 10
-29.3016
 20
30.587
 30
0.0
 10
-29.3016
 20
30.587
 30
0.0
 10
-29.3016
 20
29.8377
 30
0.0
 10
-29.3016
 20
29.8377
 30
0.0
 10
-29.3016
 20
29.8377
 30
0.0
 10
-29.4328
 20
29.7328
 30
0.0
 10
-29.5683
 20
29.6542
 30
0.0
 10
-29.708
 20
29.6011
 30
0.0
 10
-29.708
 20
29.6011
 30
0.0
 10
-29.8477
 20
29.5484
 30
0.0
 10
-29.9911
 20
29.5221
 30
0.0
 10
-30.1379
 20
29.5221
 30
0.0
 10
-30.1379
 20
29.5221
 30
0.0
 10
-30.3364
 20
29.5221
 30
0.0
 10
-30.517
 20
29.5644
 30
0.0
 10
-30.6788
 20
29.6495
 30
0.0
 10
-30.6788
 20
29.6495
 30
0.0
 10
-30.8411
 20
29.7342
 30
0.0
 10
-30.9634
 20
29.8574
 30
0.0
 10
-31.0462
 20
30.0178
 30
0.0
 10
-31.0462
 20
30.0178
 30
0.0
 10
-31.129
 20
30.1787
 30
0.0
 10
-31.1704
 20
30.3584
 30
0.0
 10
-31.1704
 20
30.5569
 30
0.0
 10
-31.1704
 20
30.5569
 30
0.0
 10
-31.1704
 20
30.7535
 30
0.0
 10
-31.129
 20
30.9369
 30
0.0
 10
-31.0466
 20
31.1072
 30
0.0
 10
-31.0466
 20
31.1072
 30
0.0
 10
-30.9648
 20
31.2779
 30
0.0
 10
-30.8463
 20
31.4045
 30
0.0
 10
-30.692
 20
31.4873
 30
0.0
 10
-30.692
 20
31.4873
 30
0.0
 10
-30.5377
 20
31.5696
 30
0.0
 10
-30.3599
 20
31.611
 30
0.0
 10
-30.1586
 20
31.611
 30
0.0
 10
-30.1586
 20
31.611
 30
0.0
 10
-30.0128
 20
31.611
 30
0.0
 10
-29.8806
 20
31.5874
 30
0.0
 10
-29.7625
 20
31.5399
 30
0.0
 10
-29.7625
 20
31.5399
 30
0.0
 10
-29.6445
 20
31.4929
 30
0.0
 10
-29.5518
 20
31.427
 30
0.0
 10
-29.485
 20
31.3424
 30
0.0
 10
-29.485
 20
31.3424
 30
0.0
 10
-29.4178
 20
31.2577
 30
0.0
 10
-29.367
 20
31.1477
 30
0.0
 10
-29.3317
 20
31.0117
 30
0.0
 10
-29.3317
 20
31.0117
 30
0.0
 10
-29.3317
 20
31.0117
 30
0.0
 10
-29.573
 20
30.9454
 30
0.0
 10
-29.573
 20
30.9454
 30
0.0
 10
-29.573
 20
30.9454
 30
0.0
 10
-29.6036
 20
31.0484
 30
0.0
 10
-29.6412
 20
31.1293
 30
0.0
 10
-29.6859
 20
31.1881
 30
0.0
 10
-29.6859
 20
31.1881
 30
0.0
 10
-29.731
 20
31.2469
 30
0.0
 10
-29.7955
 20
31.2939
 30
0.0
 10
-29.8792
 20
31.3292
 30
0.0
 10
-29.8792
 20
31.3292
 30
0.0
 10
-29.9625
 20
31.3645
 30
0.0
 10
-30.0556
 20
31.3824
 30
0.0
 10
-30.1572
 20
31.3824
 30
0.0
 10
-30.1572
 20
31.3824
 30
0.0
 10
-30.2795
 20
31.3824
 30
0.0
 10
-30.3853
 20
31.3635
 30
0.0
 10
-30.4742
 20
31.3264
 30
0.0
 10
-30.4742
 20
31.3264
 30
0.0
 10
-30.5636
 20
31.2892
 30
0.0
 10
-30.6351
 20
31.2403
 30
0.0
 10
-30.6901
 20
31.1796
 30
0.0
 10
-30.6901
 20
31.1796
 30
0.0
 10
-30.7447
 20
31.119
 30
0.0
 10
-30.787
 20
31.0526
 30
0.0
 10
-30.8176
 20
30.9797
 30
0.0
 10
-30.8176
 20
30.9797
 30
0.0
 10
-30.8688
 20
30.8551
 30
0.0
 10
-30.8947
 20
30.7196
 30
0.0
 10
-30.8947
 20
30.5733
 30
0.0
 10
-30.8947
 20
30.5733
 30
0.0
 10
-30.8947
 20
30.3932
 30
0.0
 10
-30.8637
 20
30.2427
 30
0.0
 10
-30.8016
 20
30.1213
 30
0.0
 10
-30.8016
 20
30.1213
 30
0.0
 10
-30.7395
 20
30.0
 30
0.0
 10
-30.6492
 20
29.9101
 30
0.0
 10
-30.5307
 20
29.8513
 30
0.0
 10
-30.5307
 20
29.8513
 30
0.0
 10
-30.4121
 20
29.7925
 30
0.0
 10
-30.2865
 20
29.7629
 30
0.0
 10
-30.1534
 20
29.7629
 30
0.0
 10
-30.1534
 20
29.7629
 30
0.0
 10
-30.0372
 20
29.7629
 30
0.0
 10
-29.9244
 20
29.7855
 30
0.0
 10
-29.8143
 20
29.8302
 30
0.0
 10
-29.8143
 20
29.8302
 30
0.0
 10
-29.7037
 20
29.8744
 30
0.0
 10
-29.6205
 20
29.9219
 30
0.0
 10
-29.5636
 20
29.9727
 30
0.0
 10
-29.5636
 20
29.9727
 30
0.0
 10
-29.5636
 20
29.9727
 30
0.0
 10
-29.5636
 20
30.349
 30
0.0
 10
-29.5636
 20
30.349
 30
0.0
 10
-29.5636
 20
30.349
 30
0.0
 10
-29.5636
 20
30.349
 30
0.0
 10
-30.1572
 20
30.349
 30
0.0
 10
-30.1572
 20
30.349
 30
0.0
  0
SPLINE
  5
6C
330
1F
100
AcDbEntity
  8
ROUND
 62
   250
100
AcDbSpline
210
0.0
220
0.0
230
1.0
 70
    11
 71
     3
 72
    92
 73
    88
 74
     0
 42
0.0000000001
 43
0.0000000001
 40
0.0
 40
0.0
 40
0.0
 40
0.0
 40
0.0434782608695652
 40
0.0434782608695652
 40
0.0434782608695652
 40
0.0434782608695652
 40
0.0869565217391304
 40
0.0869565217391304
 40
0.0869565217391304
 40
0.0869565217391304
 40
0.1304347826086956
 40
0.1304347826086956
 40
0.1304347826086956
 40
0.1304347826086956
 40
0.1739130434782609
 40
0.1739130434782609
 40
0.1739130434782609
 40
0.1739130434782609
 40
0.2173913043478261
 40
0.2173913043478261
 40
0.2173913043478261
 40
0.2173913043478261
 40
0.2608695652173913
 40
0.2608695652173913
 40
0.2608695652173913
 40
0.2608695652173913
 40
0.3043478260869565
 40
0.3043478260869565
 40
0.3043478260869565
 40
0.3043478260869565
 40
0.3478260869565217
 40
0.3478260869565217
 40
0.3478260869565217
 40
0.3478260869565217
 40
0.391304347826087
 40
0.391304347826087
 40
0.391304347826087
 40
0.391304347826087
 40
0.4347826086956522
 40
0.4347826086956522
 40
0.4347826086956522
 40
0.4347826086956522
 40
0.4782608695652174
 40
0.4782608695652174
 40
0.4782608695652174
 40
0.4782608695652174
 40
0.5217391304347826
 40
0.5217391304347826
 40
0.5217391304347826
 40
0.5217391304347826
 40
0.5652173913043478
 40
0.5652173913043478
 40
0.5652173913043478
 40
0.5652173913043478
 40
0.6086956521739131
 40
0.6086956521739131
 40
0.6086956521739131
 40
0.6086956521739131
 40
0.6521739130434783
 40
0.6521739130434783
 40
0.6521739130434783
 40
0.6521739130434783
 40
0.6956521739130435
 40
0.6956521739130435
 40
0.6956521739130435
 40
0.6956521739130435
 40
0.7391304347826086
 40
0.7391304347826086
 40
0.7391304347826086
 40
0.7391304347826086
 40
0.782608695652174
 40
0.782608695652174
 40
0.782608695652174
 40
0.782608695652174
 40
0.8260869565217391
 40
0.8260869565217391
 40
0.8260869565217391
 40
0.8260869565217391
 40
0.8695652173913043
 40
0.8695652173913043
 40
0.8695652173913043
 40
0.8695652173913043
 40
0.9130434782608695
 40
0.9130434782608695
 40
0.9130434782608695
 40
0.9130434782608695
 40
1.0
 40
1.0
 40
1.0
 40
1.0
 10
-28.224
 20
30.0856
 30
0.0
 10
-28.224
 20
30.0856
 30
0.0
 10
-27.9634
 20
30.1077
 30
0.0
 10
-27.9634
 20
30.1077
 30
0.0
 10
-27.9634
 20
30.1077
 30
0.0
 10
-27.9441
 20
29.9807
 30
0.0
 10
-27.8994
 20
29.8857
 30
0.0
 10
-27.8293
 20
29.8217
 30
0.0
 10
-27.8293
 20
29.8217
 30
0.0
 10
-27.7588
 20
29.7577
 30
0.0
 10
-27.6741
 20
29.7257
 30
0.0
 10
-27.5749
 20
29.7257
 30
0.0
 10
-27.5749
 20
29.7257
 30
0.0
 10
-27.4554
 20
29.7257
 30
0.0
 10
-27.3543
 20
29.7709
 30
0.0
 10
-27.272
 20
29.8607
 30
0.0
 10
-27.272
 20
29.8607
 30
0.0
 10
-27.1892
 20
29.951
 30
0.0
 10
-27.1478
 20
30.0705
 30
0.0
 10
-27.1478
 20
30.2191
 30
0.0
 10
-27.1478
 20
30.2191
 30
0.0
 10
-27.1478
 20
30.3607
 30
0.0
 10
-27.1873
 20
30.4722
 30
0.0
 10
-27.2668
 20
30.554
 30
0.0
 10
-27.2668
 20
30.554
 30
0.0
 10
-27.3463
 20
30.6359
 30
0.0
 10
-27.4502
 20
30.6768
 30
0.0
 10
-27.5791
 20
30.6768
 30
0.0
 10
-27.5791
 20
30.6768
 30
0.0
 10
-27.6591
 20
30.6768
 30
0.0
 10
-27.731
 20
30.6585
 30
0.0
 10
-27.7955
 20
30.6223
 30
0.0
 10
-27.7955
 20
30.6223
 30
0.0
 10
-27.8599
 20
30.586
 30
0.0
 10
-27.9102
 20
30.539
 30
0.0
 10
-27.9469
 20
30.4811
 30
0.0
 10
-27.9469
 20
30.4811
 30
0.0
 10
-27.9469
 20
30.4811
 30
0.0
 10
-28.1798
 20
30.5112
 30
0.0
 10
-28.1798
 20
30.5112
 30
0.0
 10
-28.1798
 20
30.5112
 30
0.0
 10
-28.1798
 20
30.5112
 30
0.0
 10
-27.9841
 20
31.5489
 30
0.0
 10
-27.9841
 20
31.5489
 30
0.0
 10
-27.9841
 20
31.5489
 30
0.0
 10
-27.9841
 20
31.5489
 30
0.0
 10
-26.9794
 20
31.5489
 30
0.0
 10
-26.9794
 20
31.5489
 30
0.0
 10
-26.9794
 20
31.5489
 30
0.0
 10
-26.9794
 20
31.5489
 30
0.0
 10
-26.9794
 20
31.3118
 30
0.0
 10
-26.9794
 20
31.3118
 30
0.0
 10
-26.9794
 20
31.3118
 30
0.0
 10
-26.9794
 20
31.3118
 30
0.0
 10
-27.7856
 20
31.3118
 30
0.0
 10
-27.7856
 20
31.3118
 30
0.0
 10
-27.7856
 20
31.3118
 30
0.0
 10
-27.7856
 20
31.3118
 30
0.0
 10
-27.8947
 20
30.769
 30
0.0
 10
-27.8947
 20
30.769
 30
0.0
 10
-27.8947
 20
30.769
 30
0.0
 10
-27.7734
 20
30.8537
 30
0.0
 10
-27.6459
 20
30.896
 30
0.0
 10
-27.5128
 20
30.896
 30
0.0
 10
-27.5128
 20
30.896
 30
0.0
 10
-27.3364
 20
30.896
 30
0.0
 10
-27.1878
 20
30.8349
 30
0.0
 10
-27.0664
 20
30.7126
 30
0.0
 10
-27.0664
 20
30.7126
 30
0.0
 10
-26.9451
 20
30.5903
 30
0.0
 10
-26.8844
 20
30.4332
 30
0.0
 10
-26.8844
 20
30.2413
 30
0.0
 10
-26.8844
 20
30.2413
 30
0.0
 10
-26.8844
 20
30.0583
 30
0.0
 10
-26.938
 20
29.9002
 30
0.0
 10
-27.0443
 20
29.7671
 30
0.0
 10
-27.0443
 20
29.7671
 30
0.0
 10
-27.1741
 20
29.6039
 30
0.0
 10
-27.351
 20
29.5221
 30
0.0
 10
-27.5749
 20
29.5221
 30
0.0
 10
-27.5749
 20
29.5221
 30
0.0
 10
-27.7588
 20
29.5221
 30
0.0
 10
-27.9088
 20
29.5733
 30
0.0
 10
-28.025
 20
29.6763
 30
0.0
 10
-28.025
 20
29.6763
 30
0.0
 10
-28.1412
 20
29.7794
 30
0.0
 10
-28.2075
 20
29.9158
 30
0.0
 10
-28.224
 20
30.0856
 30
0.0
  0
SPLINE
  5
6D
330
1F
100
AcDbEntity
  8
ROUND
 62
   250
100
AcDbSpline
210
0.0
220
0.0
230
1.0
 70
    11
 71
     3
 72
    20
 73
    16
 74
     0
 42
0.0000000001
 43
0.0000000001
 40
0.0
 40
0.0
 40
0.0
 40
0.0
 40
0.2
 40
0.2
 40
0.2
 40
0.2
 40
0.4
 40
0.4
 40
0.4
 40
0.4
 40
0.6
 40
0.6
 40
0.6
 40
0.6
 40
1.0
 40
1.0
 40
1.0
 40
1.0
 10
-26.7715
 20
29.5221
 30
0.0
 10
-26.7715
 20
29.5221
 30
0.0
 10
-26.1859
 20
31.611
 30
0.0
 10
-26.1859
 20
31.611
 30
0.0
 10
-26.1859
 20
31.611
 30
0.0
 10
-26.1859
 20
31.611
 30
0.0
 10
-25.9874
 20
31.611
 30
0.0
 10
-25.9874
 20
31.611
 30
0.0
 10
-25.9874
 20
31.611
 30
0.0
 10
-25.9874
 20
31.611
 30
0.0
 10
-26.5716
 20
29.5221
 30
0.0
 10
-26.5716
 20
29.5221
 30
0.0
 10
-26.5716
 20
29.5221
 30
0.0
 10
-26.5716
 20
29.5221
 30
0.0
 10
-26.7715
 20
29.5221
 30
0.0
 10
-26.7715
 20
29.5221
 30
0.0
  0
SPLINE
  5
6E
330
1F
100
AcDbEntity
  8
ROUND
 62
   250
100
AcDbSpline
210
0.0
220
0.0
230
1.0
 70
    11
 71
     3
 72
    48
 73
    44
 74
     0
 42
0.0000000001
 43
0.0000000001
 40
0.0
 40
0.0
 40
0.0
 40
0.0
 40
0.0833333333333333
 40
0.0833333333333333
 40
0.0833333333333333
 40
0.0833333333333333
 40
0.1666666666666667
 40
0.1666666666666667
 40
0.1666666666666667
 40
0.1666666666666667
 40
0.25
 40
0.25
 40
0.25
 40
0.25
 40
0.3333333333333333
 40
0.3333333333333333
 40
0.3333333333333333
 40
0.3333333333333333
 40
0.4166666666666667
 40
0.4166666666666667
 40
0.4166666666666667
 40
0.4166666666666667
 40
0.5
 40
0.5
 40
0.5
 40
0.5
 40
0.5833333333333334
 40
0.5833333333333334
 40
0.5833333333333334
 40
0.5833333333333334
 40
0.6666666666666666
 40
0.6666666666666666
 40
0.6666666666666666
 40
0.6666666666666666
 40
0.75
 40
0.75
 40
0.75
 40
0.75
 40
0.8333333333333334
 40
0.8333333333333334
 40
0.8333333333333334
 40
0.8333333333333334
 40
1.0
 40
1.0
 40
1.0
 40
1.0
 10
-25.0754
 20
29.5564
 30
0.0
 10
-25.0754
 20
29.5564
 30
0.0
 10
-25.0754
 20
30.0399
 30
0.0
 10
-25.0754
 20
30.0399
 30
0.0
 10
-25.0754
 20
30.0399
 30
0.0
 10
-25.0754
 20
30.0399
 30
0.0
 10
-25.9517
 20
30.0399
 30
0.0
 10
-25.9517
 20
30.0399
 30
0.0
 10
-25.9517
 20
30.0399
 30
0.0
 10
-25.9517
 20
30.0399
 30
0.0
 10
-25.9517
 20
30.2676
 30
0.0
 10
-25.9517
 20
30.2676
 30
0.0
 10
-25.9517
 20
30.2676
 30
0.0
 10
-25.9517
 20
30.2676
 30
0.0
 10
-25.0297
 20
31.5766
 30
0.0
 10
-25.0297
 20
31.5766
 30
0.0
 10
-25.0297
 20
31.5766
 30
0.0
 10
-25.0297
 20
31.5766
 30
0.0
 10
-24.827
 20
31.5766
 30
0.0
 10
-24.827
 20
31.5766
 30
0.0
 10
-24.827
 20
31.5766
 30
0.0
 10
-24.827
 20
31.5766
 30
0.0
 10
-24.827
 20
30.2676
 30
0.0
 10
-24.827
 20
30.2676
 30
0.0
 10
-24.827
 20
30.2676
 30
0.0
 10
-24.827
 20
30.2676
 30
0.0
 10
-24.5542
 20
30.2676
 30
0.0
 10
-24.5542
 20
30.2676
 30
0.0
 10
-24.5542
 20
30.2676
 30
0.0
 10
-24.5542
 20
30.2676
 30
0.0
 10
-24.5542
 20
30.0399
 30
0.0
 10
-24.5542
 20
30.0399
 30
0.0
 10
-24.5542
 20
30.0399
 30
0.0
 10
-24.5542
 20
30.0399
 30
0.0
 10
-24.827
 20
30.0399
 30
0.0
 10
-24.827
 20
30.0399
 30
0.0
 10
-24.827
 20
30.0399
 30
0.0
 10
-24.827
 20
30.0399
 30
0.0
 10
-24.827
 20
29.5564
 30
0.0
 10
-24.827
 20
29.5564
 30
0.0
 10
-24.827
 20
29.5564
 30
0.0
 10
-24.827
 20
29.5564
 30
0.0
 10
-25.0754
 20
29.5564
 30
0.0
 10
-25.0754
 20
29.5564
 30
0.0
  0
SPLINE
  5
6F
330
1F
100
AcDbEntity
  8
ROUND
 62
   250
100
AcDbSpline
210
0.0
220
0.0
230
1.0
 70
    11
 71
     3
 72
    16
 73
    12
 74
     0
 42
0.0000000001
 43
0.0000000001
 40
0.0
 40
0.0
 40
0.0
 40
0.0
 40
0.25
 40
0.25
 40
0.25
 40
0.25
 40
0.5
 40
0.5
 40
0.5
 40
0.5
 40
1.0
 40
1.0
 40
1.0
 40
1.0
 10
-25.0754
 20
30.2676
 30
0.0
 10
-25.0754
 20
30.2676
 30
0.0
 10
-25.0754
 20
31.1782
 30
0.0
 10
-25.0754
 20
31.1782
 30
0.0
 10
-25.0754
 20
31.1782
 30
0.0
 10
-25.0754
 20
31.1782
 30
0.0
 10
-25.7075
 20
30.2676
 30
0.0
 10
-25.7075
 20
30.2676
 30
0.0
 10
-25.7075
 20
30.2676
 30
0.0
 10
-25.7075
 20
30.2676
 30
0.0
 10
-25.0754
 20
30.2676
 30
0.0
 10
-25.0754
 20
30.2676
 30
0.0
  0
SPLINE
  5
70
330
1F
100
AcDbEntity
  8
ROUND
 62
   250
100
AcDbSpline
210
0.0
220
0.0
230
1.0
 70
    11
 71
     3
 72
    28
 73
    24
 74
     0
 42
0.0000000001
 43
0.0000000001
 40
0.0
 40
0.0
 40
0.0
 40
0.0
 40
0.1428571428571428
 40
0.1428571428571428
 40
0.1428571428571428
 40
0.1428571428571428
 40
0.2857142857142857
 40
0.2857142857142857
 40
0.2857142857142857
 40
0.2857142857142857
 40
0.4285714285714285
 40
0.4285714285714285
 40
0.4285714285714285
 40
0.4285714285714285
 40
0.5714285714285714
 40
0.5714285714285714
 40
0.5714285714285714
 40
0.5714285714285714
 40
0.7142857142857143
 40
0.7142857142857143
 40
0.7142857142857143
 40
0.7142857142857143
 40
1.0
 40
1.0
 40
1.0
 40
1.0
 10
-24.2193
 20
30.8612
 30
0.0
 10
-24.2193
 20
30.8612
 30
0.0
 10
-24.2884
 20
31.246
 30
0.0
 10
-24.2884
 20
31.246
 30
0.0
 10
-24.2884
 20
31.246
 30
0.0
 10
-24.2884
 20
31.246
 30
0.0
 10
-24.2884
 20
31.5766
 30
0.0
 10
-24.2884
 20
31.5766
 30
0.0
 10
-24.2884
 20
31.5766
 30
0.0
 10
-24.2884
 20
31.5766
 30
0.0
 10
-24.0058
 20
31.5766
 30
0.0
 10
-24.0058
 20
31.5766
 30
0.0
 10
-24.0058
 20
31.5766
 30
0.0
 10
-24.0058
 20
31.5766
 30
0.0
 10
-24.0058
 20
31.246
 30
0.0
 10
-24.0058
 20
31.246
 30
0.0
 10
-24.0058
 20
31.246
 30
0.0
 10
-24.0058
 20
31.246
 30
0.0
 10
-24.0678
 20
30.8612
 30
0.0
 10
-24.0678
 20
30.8612
 30
0.0
 10
-24.0678
 20
30.8612
 30
0.0
 10
-24.0678
 20
30.8612
 30
0.0
 10
-24.2193
 20
30.8612
 30
0.0
 10
-24.2193
 20
30.8612
 30
0.0
  0
SPLINE
  5
71
330
1F
100
AcDbEntity
  8
ROUND
 62
   250
100
AcDbSpline
210
0.0
220
0.0
230
1.0
 70
    11
 71
     3
 72
    28
 73
    24
 74
     0
 42
0.0000000001
 43
0.0000000001
 40
0.0
 40
0.0
 40
0.0
 40
0.0
 40
0.1428571428571428
 40
0.1428571428571428
 40
0.1428571428571428
 40
0.1428571428571428
 40
0.2857142857142857
 40
0.2857142857142857
 40
0.2857142857142857
 40
0.2857142857142857
 40
0.4285714285714285
 40
0.4285714285714285
 40
0.4285714285714285
 40
0.4285714285714285
 40
0.5714285714285714
 40
0.5714285714285714
 40
0.5714285714285714
 40
0.5714285714285714
 40
0.7142857142857143
 40
0.7142857142857143
 40
0.7142857142857143
 40
0.7142857142857143
 40
1.0
 40
1.0
 40
1.0
 40
1.0
 10
-23.763
 20
30.8612
 30
0.0
 10
-23.763
 20
30.8612
 30
0.0
 10
-23.8308
 20
31.246
 30
0.0
 10
-23.8308
 20
31.246
 30
0.0
 10
-23.8308
 20
31.246
 30
0.0
 10
-23.8308
 20
31.246
 30
0.0
 10
-23.8308
 20
31.5766
 30
0.0
 10
-23.8308
 20
31.5766
 30
0.0
 10
-23.8308
 20
31.5766
 30
0.0
 10
-23.8308
 20
31.5766
 30
0.0
 10
-23.5481
 20
31.5766
 30
0.0
 10
-23.5481
 20
31.5766
 30
0.0
 10
-23.5481
 20
31.5766
 30
0.0
 10
-23.5481
 20
31.5766
 30
0.0
 10
-23.5481
 20
31.246
 30
0.0
 10
-23.5481
 20
31.246
 30
0.0
 10
-23.5481
 20
31.246
 30
0.0
 10
-23.5481
 20
31.246
 30
0.0
 10
-23.6144
 20
30.8612
 30
0.0
 10
-23.6144
 20
30.8612
 30
0.0
 10
-23.6144
 20
30.8612
 30
0.0
 10
-23.6144
 20
30.8612
 30
0.0
 10
-23.763
 20
30.8612
 30
0.0
 10
-23.763
 20
30.8612
 30
0.0
  0
SPLINE
  5
72
330
1F
100
AcDbEntity
  8
ROUND
 62
   250
100
AcDbSpline
210
0.0
220
0.0
230
1.0
 70
    11
 71
     3
 72
    20
 73
    16
 74
     0
 42
0.0000000001
 43
0.0000000001
 40
0.0
 40
0.0
 40
0.0
 40
0.0
 40
0.2
 40
0.2
 40
0.2
 40
0.2
 40
0.4
 40
0.4
 40
0.4
 40
0.4
 40
0.6
 40
0.6
 40
0.6
 40
0.6
 40
1.0
 40
1.0
 40
1.0
 40
1.0
 10
-8.8336
 20
-35.962
 30
0.0
 10
-8.8336
 20
-35.962
 30
0.0
 10
-5.8336
 20
-36.3854
 30
0.0
 10
-5.8336
 20
-36.3854
 30
0.0
 10
-5.8336
 20
-36.3854
 30
0.0
 10
-5.8336
 20
-36.3854
 30
0.0
 10
-5.8336
 20
-36.4794
 30
0.0
 10
-5.8336
 20
-36.4794
 30
0.0
 10
-5.8336
 20
-36.4794
 30
0.0
 10
-5.8336
 20
-36.4794
 30
0.0
 10
-8.8336
 20
-36.931
 30
0.0
 10
-8.8336
 20
-36.931
 30
0.0
 10
-8.8336
 20
-36.931
 30
0.0
 10
-8.8336
 20
-36.931
 30
0.0
 10
-8.8336
 20
-35.962
 30
0.0
 10
-8.8336
 20
-35.962
 30
0.0
  0
SPLINE
  5
73
330
1F
100
AcDbEntity
  8
ROUND
 62
   250
100
AcDbSpline
210
0.0
220
0.0
230
1.0
 70
    11
 71
     3
 72
    20
 73
    16
 74
     0
 42
0.0000000001
 43
0.0000000001
 40
0.0
 40
0.0
 40
0.0
 40
0.0
 40
0.2
 40
0.2
 40
0.2
 40
0.2
 40
0.4
 40
0.4
 40
0.4
 40
0.4
 40
0.6
 40
0.6
 40
0.6
 40
0.6
 40
1.0
 40
1.0
 40
1.0
 40
1.0
 10
-24.9811
 20
-36.8752
 30
0.0
 10
-24.9811
 20
-36.8752
 30
0.0
 10
-27.9811
 20
-36.4518
 30
0.0
 10
-27.9811
 20
-36.4518
 30
0.0
 10
-27.9811
 20
-36.4518
 30
0.0
 10
-27.9811
 20
-36.4518
 30
0.0
 10
-27.9811
 20
-36.3578
 30
0.0
 10
-27.9811
 20
-36.3578
 30
0.0
 10
-27.9811
 20
-36.3578
 30
0.0
 10
-27.9811
 20
-36.3578
 30
0.0
 10
-24.9811
 20
-35.9062
 30
0.0
 10
-24.9811
 20
-35.9062
 30
0.0
 10
-24.9811
 20
-35.9062
 30
0.0
 10
-24.9811
 20
-35.9062
 30
0.0
 10
-24.9811
 20
-36.8752
 30
0.0
 10
-24.9811
 20
-36.8752
 30
0.0
  0
SPLINE
  5
74
330
1F
100
AcDbEntity
  8
ROUND
 62
   250
100
AcDbSpline
210
0.0
220
0.0
230
1.0
 70
    11
 71
     3
 72
    20
 73
    16
 74
     0
 42
0.0000000001
 43
0.0000000001
 40
0.0
 40
0.0
 40
0.0
 40
0.0
 40
0.2
 40
0.2
 40
0.2
 40
0.2
 40
0.4
 40
0.4
 40
0.4
 40
0.4
 40
0.6
 40
0.6
 40
0.6
 40
0.6
 40
1.0
 40
1.0
 40
1.0
 40
1.0
 10
-41.7159
 20
-28.9543
 30
0.0
 10
-41.7159
 20
-28.9543
 30
0.0
 10
-42.1393
 20
-31.9543
 30
0.0
 10
-42.1393
 20
-31.9543
 30
0.0
 10
-42.1393
 20
-31.9543
 30
0.0
 10
-42.1393
 20
-31.9543
 30
0.0
 10
-42.2334
 20
-31.9543
 30
0.0
 10
-42.2334
 20
-31.9543
 30
0.0
 10
-42.2334
 20
-31.9543
 30
0.0
 10
-42.2334
 20
-31.9543
 30
0.0
 10
-42.6849
 20
-28.9543
 30
0.0
 10
-42.6849
 20
-28.9543
 30
0.0
 10
-42.6849
 20
-28.9543
 30
0.0
 10
-42.6849
 20
-28.9543
 30
0.0
 10
-41.7159
 20
-28.9543
 30
0.0
 10
-41.7159
 20
-28.9543
 30
0.0
  0
SPLINE
  5
75
330
1F
100
AcDbEntity
  8
ROUND
 62
   250
100
AcDbSpline
210
0.0
220
0.0
230
1.0
 70
    11
 71
     3
 72
    20
 73
    16
 74
     0
 42
0.0000000001
 43
0.0000000001
 40
0.0
 40
0.0
 40
0.0
 40
0.0
 40
0.2
 40
0.2
 40
0.2
 40
0.2
 40
0.4
 40
0.4
 40
0.4
 40
0.4
 40
0.6
 40
0.6
 40
0.6
 40
0.6
 40
1.0
 40
1.0
 40
1.0
 40
1.0
 10
-42.6533
 20
-5.5313
 30
0.0
 10
-42.6533
 20
-5.5313
 30
0.0
 10
-42.2299
 20
-2.5313
 30
0.0
 10
-42.2299
 20
-2.5313
 30
0.0
 10
-42.2299
 20
-2.5313
 30
0.0
 10
-42.2299
 20
-2.5313
 30
0.0
 10
-42.1359
 20
-2.5313
 30
0.0
 10
-42.1359
 20
-2.5313
 30
0.0
 10
-42.1359
 20
-2.5313
 30
0.0
 10
-42.1359
 20
-2.5313
 30
0.0
 10
-41.6843
 20
-5.5313
 30
0.0
 10
-41.6843
 20
-5.5313
 30
0.0
 10
-41.6843
 20
-5.5313
 30
0.0
 10
-41.6843
 20
-5.5313
 30
0.0
 10
-42.6533
 20
-5.5313
 30
0.0
 10
-42.6533
 20
-5.5313
 30
0.0
  0
SPLINE
  5
76
330
1F
100
AcDbEntity
  8
ROUND
 62
   250
100
AcDbSpline
210
0.0
220
0.0
230
1.0
 70
    11
 71
     3
 72
    20
 73
    16
 74
     0
 42
0.0000000001
 43
0.0000000001
 40
0.0
 40
0.0
 40
0.0
 40
0.0
 40
0.2
 40
0.2
 40
0.2
 40
0.2
 40
0.4
 40
0.4
 40
0.4
 40
0.4
 40
0.6
 40
0.6
 40
0.6
 40
0.6
 40
1.0
 40
1.0
 40
1.0
 40
1.0
 10
-42.7228
 20
22.7269
 30
0.0
 10
-42.7228
 20
22.7269
 30
0.0
 10
-42.2994
 20
25.7269
 30
0.0
 10
-42.2994
 20
25.7269
 30
0.0
 10
-42.2994
 20
25.7269
 30
0.0
 10
-42.2994
 20
25.7269
 30
0.0
 10
-42.2054
 20
25.7269
 30
0.0
 10
-42.2054
 20
25.7269
 30
0.0
 10
-42.2054
 20
25.7269
 30
0.0
 10
-42.2054
 20
25.7269
 30
0.0
 10
-41.7538
 20
22.7269
 30
0.0
 10
-41.7538
 20
22.7269
 30
0.0
 10
-41.7538
 20
22.7269
 30
0.0
 10
-41.7538
 20
22.7269
 30
0.0
 10
-42.7228
 20
22.7269
 30
0.0
 10
-42.7228
 20
22.7269
 30
0.0
  0
SPLINE
  5
77
330
1F
100
AcDbEntity
  8
ROUND
 62
   250
100
AcDbSpline
210
0.0
220
0.0
230
1.0
 70
    11
 71
     3
 72
    20
 73
    16
 74
     0
 42
0.0000000001
 43
0.0000000001
 40
0.0
 40
0.0
 40
0.0
 40
0.0
 40
0.2
 40
0.2
 40
0.2
 40
0.2
 40
0.4
 40
0.4
 40
0.4
 40
0.4
 40
0.6
 40
0.6
 40
0.6
 40
0.6
 40
1.0
 40
1.0
 40
1.0
 40
1.0
 10
-41.7026
 20
0.6334
 30
0.0
 10
-41.7026
 20
0.6334
 30
0.0
 10
-42.126
 20
-2.3666
 30
0.0
 10
-42.126
 20
-2.3666
 30
0.0
 10
-42.126
 20
-2.3666
 30
0.0
 10
-42.126
 20
-2.3666
 30
0.0
 10
-42.22
 20
-2.3666
 30
0.0
 10
-42.22
 20
-2.3666
 30
0.0
 10
-42.22
 20
-2.3666
 30
0.0
 10
-42.22
 20
-2.3666
 30
0.0
 10
-42.6716
 20
0.6334
 30
0.0
 10
-42.6716
 20
0.6334
 30
0.0
 10
-42.6716
 20
0.6334
 30
0.0
 10
-42.6716
 20
0.6334
 30
0.0
 10
-41.7026
 20
0.6334
 30
0.0
 10
-41.7026
 20
0.6334
 30
0.0
  0
SPLINE
  5
78
330
1F
100
AcDbEntity
  8
ROUND
 62
   250
100
AcDbSpline
210
0.0
220
0.0
230
1.0
 70
    11
 71
     3
 72
    20
 73
    16
 74
     0
 42
0.0000000001
 43
0.0000000001
 40
0.0
 40
0.0
 40
0.0
 40
0.0
 40
0.2
 40
0.2
 40
0.2
 40
0.2
 40
0.4
 40
0.4
 40
0.4
 40
0.4
 40
0.6
 40
0.6
 40
0.6
 40
0.6
 40
1.0
 40
1.0
 40
1.0
 40
1.0
 10
0.2083
 20
-14.3241
 30
0.0
 10
0.2083
 20
-14.3241
 30
0.0
 10
0.2083
 20
-14.871
 30
0.0
 10
0.2083
 20
-14.871
 30
0.0
 10
0.2083
 20
-14.871
 30
0.0
 10
0.2083
 20
-14.871
 30
0.0
 10
-11.7443
 20
-14.871
 30
0.0
 10
-11.7443
 20
-14.871
 30
0.0
 10
-11.7443
 20
-14.871
 30
0.0
 10
-11.7443
 20
-14.871
 30
0.0
 10
-11.7443
 20
-14.3241
 30
0.0
 10
-11.7443
 20
-14.3241
 30
0.0
 10
-11.7443
 20
-14.3241
 30
0.0
 10
-11.7443
 20
-14.3241
 30
0.0
 10
0.2083
 20
-14.3241
 30
0.0
 10
0.2083
 20
-14.3241
 30
0.0
  0
SPLINE
  5
79
330
1F
100
AcDbEntity
  8
ROUND
 62
   250
100
AcDbSpline
210
0.0
220
0.0
230
1.0
 70
     8
 71
     3
 72
     8
 73
     4
 74
     0
 42
0.0000000001
 43
0.0000000001
 40
0.0
 40
0.0
 40
0.0
 40
0.0
 40
1.0
 40
1.0
 40
1.0
 40
1.0
 10
-11.0659
 20
-12.1155
 30
0.0
 10
-11.4505
 20
-12.1155
 30
0.0
 10
-11.7622
 20
-12.4272
 30
0.0
 10
-11.7622
 20
-12.8118
 30
0.0
  0
SPLINE
  5
7A
330
1F
100
AcDbEntity
  8
ROUND
 62
   250
100
AcDbSpline
210
0.0
220
0.0
230
1.0
 70
     8
 71
     3
 72
   124
 73
   120
 74
     0
 42
0.0000000001
 43
0.0000000001
 40
0.0
 40
0.0
 40
0.0
 40
0.0
 40
0.032258064516129
 40
0.032258064516129
 40
0.032258064516129
 40
0.032258064516129
 40
0.0645161290322581
 40
0.0645161290322581
 40
0.0645161290322581
 40
0.0645161290322581
 40
0.0967741935483871
 40
0.0967741935483871
 40
0.0967741935483871
 40
0.0967741935483871
 40
0.1290322580645161
 40
0.1290322580645161
 40
0.1290322580645161
 40
0.1290322580645161
 40
0.1612903225806452
 40
0.1612903225806452
 40
0.1612903225806452
 40
0.1612903225806452
 40
0.1935483870967742
 40
0.1935483870967742
 40
0.1935483870967742
 40
0.1935483870967742
 40
0.2258064516129032
 40
0.2258064516129032
 40
0.2258064516129032
 40
0.2258064516129032
 40
0.2580645161290323
 40
0.2580645161290323
 40
0.2580645161290323
 40
0.2580645161290323
 40
0.2903225806451613
 40
0.2903225806451613
 40
0.2903225806451613
 40
0.2903225806451613
 40
0.3225806451612903
 40
0.3225806451612903
 40
0.3225806451612903
 40
0.3225806451612903
 40
0.3548387096774194
 40
0.3548387096774194
 40
0.3548387096774194
 40
0.3548387096774194
 40
0.3870967741935484
 40
0.3870967741935484
 40
0.3870967741935484
 40
0.3870967741935484
 40
0.4193548387096774
 40
0.4193548387096774
 40
0.4193548387096774
 40
0.4193548387096774
 40
0.4516129032258064
 40
0.4516129032258064
 40
0.4516129032258064
 40
0.4516129032258064
 40
0.4838709677419355
 40
0.4838709677419355
 40
0.4838709677419355
 40
0.4838709677419355
 40
0.5161290322580645
 40
0.5161290322580645
 40
0.5161290322580645
 40
0.5161290322580645
 40
0.5483870967741935
 40
0.5483870967741935
 40
0.5483870967741935
 40
0.5483870967741935
 40
0.5806451612903226
 40
0.5806451612903226
 40
0.5806451612903226
 40
0.5806451612903226
 40
0.6129032258064516
 40
0.6129032258064516
 40
0.6129032258064516
 40
0.6129032258064516
 40
0.6451612903225806
 40
0.6451612903225806
 40
0.6451612903225806
 40
0.6451612903225806
 40
0.6774193548387096
 40
0.6774193548387096
 40
0.6774193548387096
 40
0.6774193548387096
 40
0.7096774193548387
 40
0.7096774193548387
 40
0.7096774193548387
 40
0.7096774193548387
 40
0.7419354838709677
 40
0.7419354838709677
 40
0.7419354838709677
 40
0.7419354838709677
 40
0.7741935483870968
 40
0.7741935483870968
 40
0.7741935483870968
 40
0.7741935483870968
 40
0.8064516129032258
 40
0.8064516129032258
 40
0.8064516129032258
 40
0.8064516129032258
 40
0.8387096774193549
 40
0.8387096774193549
 40
0.8387096774193549
 40
0.8387096774193549
 40
0.8709677419354839
 40
0.8709677419354839
 40
0.8709677419354839
 40
0.8709677419354839
 40
0.9032258064516129
 40
0.9032258064516129
 40
0.9032258064516129
 40
0.9032258064516129
 40
0.9354838709677419
 40
0.9354838709677419
 40
0.9354838709677419
 40
0.9354838709677419
 40
1.0
 40
1.0
 40
1.0
 40
1.0
 10
-11.7622
 20
-12.8118
 30
0.0
 10
-11.7622
 20
-12.8118
 30
0.0
 10
-11.7708
 20
-12.9513
 30
0.0
 10
-11.7708
 20
-12.9513
 30
0.0
 10
-11.7708
 20
-12.9513
 30
0.0
 10
-11.7708
 20
-12.9513
 30
0.0
 10
-10.9876
 20
-12.9521
 30
0.0
 10
-10.9876
 20
-12.9521
 30
0.0
 10
-10.9876
 20
-12.9521
 30
0.0
 10
-10.9876
 20
-12.9521
 30
0.0
 10
-10.6225
 20
-12.9525
 30
0.0
 10
-10.6225
 20
-12.9525
 30
0.0
 10
-10.6225
 20
-12.9525
 30
0.0
 10
-10.6225
 20
-12.9525
 30
0.0
 10
-10.2036
 20
-12.953
 30
0.0
 10
-10.2036
 20
-12.953
 30
0.0
 10
-10.2036
 20
-12.953
 30
0.0
 10
-10.2036
 20
-12.953
 30
0.0
 10
-9.7376
 20
-12.9535
 30
0.0
 10
-9.7376
 20
-12.9535
 30
0.0
 10
-9.7376
 20
-12.9535
 30
0.0
 10
-9.7376
 20
-12.9535
 30
0.0
 10
-9.227
 20
-12.954
 30
0.0
 10
-9.227
 20
-12.954
 30
0.0
 10
-9.227
 20
-12.954
 30
0.0
 10
-9.227
 20
-12.954
 30
0.0
 10
-8.6786
 20
-12.9546
 30
0.0
 10
-8.6786
 20
-12.9546
 30
0.0
 10
-8.6786
 20
-12.9546
 30
0.0
 10
-8.6786
 20
-12.9546
 30
0.0
 10
-8.0996
 20
-12.9552
 30
0.0
 10
-8.0996
 20
-12.9552
 30
0.0
 10
-8.0996
 20
-12.9552
 30
0.0
 10
-8.0996
 20
-12.9552
 30
0.0
 10
-7.4935
 20
-12.9559
 30
0.0
 10
-7.4935
 20
-12.9559
 30
0.0
 10
-7.4935
 20
-12.9559
 30
0.0
 10
-7.4935
 20
-12.9559
 30
0.0
 10
-6.869
 20
-12.9565
 30
0.0
 10
-6.869
 20
-12.9565
 30
0.0
 10
-6.869
 20
-12.9565
 30
0.0
 10
-6.869
 20
-12.9565
 30
0.0
 10
-6.2338
 20
-12.9572
 30
0.0
 10
-6.2338
 20
-12.9572
 30
0.0
 10
-6.2338
 20
-12.9572
 30
0.0
 10
-6.2338
 20
-12.9572
 30
0.0
 10
-5.3137
 20
-12.9582
 30
0.0
 10
-5.3137
 20
-12.9582
 30
0.0
 10
-5.3137
 20
-12.9582
 30
0.0
 10
-5.3137
 20
-12.9582
 30
0.0
 10
-4.6784
 20
-12.9589
 30
0.0
 10
-4.6784
 20
-12.9589
 30
0.0
 10
-4.6784
 20
-12.9589
 30
0.0
 10
-4.6784
 20
-12.9589
 30
0.0
 10
-4.0539
 20
-12.9596
 30
0.0
 10
-4.0539
 20
-12.9596
 30
0.0
 10
-4.0539
 20
-12.9596
 30
0.0
 10
-4.0539
 20
-12.9596
 30
0.0
 10
-3.4482
 20
-12.9602
 30
0.0
 10
-3.4482
 20
-12.9602
 30
0.0
 10
-3.4482
 20
-12.9602
 30
0.0
 10
-3.4482
 20
-12.9602
 30
0.0
 10
-2.8681
 20
-12.9608
 30
0.0
 10
-2.8681
 20
-12.9608
 30
0.0
 10
-2.8681
 20
-12.9608
 30
0.0
 10
-2.8681
 20
-12.9608
 30
0.0
 10
-2.3202
 20
-12.9614
 30
0.0
 10
-2.3202
 20
-12.9614
 30
0.0
 10
-2.3202
 20
-12.9614
 30
0.0
 10
-2.3202
 20
-12.9614
 30
0.0
 10
-1.8104
 20
-12.962
 30
0.0
 10
-1.8104
 20
-12.962
 30
0.0
 10
-1.8104
 20
-12.962
 30
0.0
 10
-1.8104
 20
-12.962
 30
0.0
 10
-1.343
 20
-12.9625
 30
0.0
 10
-1.343
 20
-12.9625
 30
0.0
 10
-1.343
 20
-12.9625
 30
0.0
 10
-1.343
 20
-12.9625
 30
0.0
 10
-0.9251
 20
-12.9629
 30
0.0
 10
-0.9251
 20
-12.9629
 30
0.0
 10
-0.9251
 20
-12.9629
 30
0.0
 10
-0.9251
 20
-12.9629
 30
0.0
 10
-0.5612
 20
-12.9633
 30
0.0
 10
-0.5612
 20
-12.9633
 30
0.0
 10
-0.5612
 20
-12.9633
 30
0.0
 10
-0.5612
 20
-12.9633
 30
0.0
 10
-0.1041
 20
-12.9638
 30
0.0
 10
-0.1041
 20
-12.9638
 30
0.0
 10
-0.1041
 20
-12.9638
 30
0.0
 10
-0.1041
 20
-12.9638
 30
0.0
 10
0.2835
 20
-12.9642
 30
0.0
 10
0.2835
 20
-12.9642
 30
0.0
 10
0.2835
 20
-12.9642
 30
0.0
 10
0.2835
 20
-12.9642
 30
0.0
 10
0.2707
 20
-12.7193
 30
0.0
 10
0.2707
 20
-12.7193
 30
0.0
 10
0.2707
 20
-12.7193
 30
0.0
 10
0.2707
 20
-12.7193
 30
0.0
 10
0.1806
 20
-12.4873
 30
0.0
 10
0.1806
 20
-12.4873
 30
0.0
 10
0.1806
 20
-12.4873
 30
0.0
 10
0.1806
 20
-12.4873
 30
0.0
 10
0.052
 20
-12.3197
 30
0.0
 10
0.052
 20
-12.3197
 30
0.0
 10
0.052
 20
-12.3197
 30
0.0
 10
0.052
 20
-12.3197
 30
0.0
 10
-0.1925
 20
-12.1779
 30
0.0
 10
-0.1925
 20
-12.1779
 30
0.0
 10
-0.1925
 20
-12.1779
 30
0.0
 10
-0.1925
 20
-12.1779
 30
0.0
 10
-0.3211
 20
-12.1134
 30
0.0
 10
-0.3211
 20
-12.1134
 30
0.0
 10
-0.3211
 20
-12.1134
 30
0.0
 10
-0.3211
 20
-12.1134
 30
0.0
 10
-0.4112
 20
-12.1134
 30
0.0
 10
-0.4112
 20
-12.1134
 30
0.0
 10
-0.4112
 20
-12.1134
 30
0.0
 10
-0.4112
 20
-12.1134
 30
0.0
 10
-11.0659
 20
-12.1155
 30
0.0
 10
-11.0659
 20
-12.1155
 30
0.0
  0
SPLINE
  5
7B
330
1F
100
AcDbEntity
  8
ROUND
 62
   250
100
AcDbSpline
210
0.0
220
0.0
230
1.0
 70
    27
 71
     3
 72
    12
 73
     8
 74
     0
 42
0.0000000001
 43
0.0000000001
 40
0.0
 40
0.0
 40
0.0
 40
0.0
 40
0.3333333333333333
 40
0.3333333333333333
 40
0.3333333333333333
 40
0.3333333333333333
 40
1.0
 40
1.0
 40
1.0
 40
1.0
 10
0.3512
 20
-14.3432
 30
0.0
 10
0.3512
 20
-14.3432
 30
0.0
 10
0.3512
 20
-12.9518
 30
0.0
 10
0.3512
 20
-12.9518
 30
0.0
 10
0.3512
 20
-12.9518
 30
0.0
 10
0.3512
 20
-12.9518
 30
0.0
 10
0.3512
 20
-14.3432
 30
0.0
 10
0.3512
 20
-14.3432
 30
0.0
  0
SPLINE
  5
7C
330
1F
100
AcDbEntity
  8
ROUND
 62
   250
100
AcDbSpline
210
0.0
220
0.0
230
1.0
 70
    27
 71
     3
 72
    16
 73
    12
 74
     0
 42
0.0000000001
 43
0.0000000001
 40
0.0
 40
0.0
 40
0.0
 40
0.0
 40
0.25
 40
0.25
 40
0.25
 40
0.25
 40
0.5
 40
0.5
 40
0.5
 40
0.5
 40
1.0
 40
1.0
 40
1.0
 40
1.0
 10
-1.8104
 20
-14.3432
 30
0.0
 10
-1.8104
 20
-14.3432
 30
0.0
 10
-1.8104
 20
-12.962
 30
0.0
 10
-1.8104
 20
-12.962
 30
0.0
 10
-1.8104
 20
-12.962
 30
0.0
 10
-1.8104
 20
-12.962
 30
0.0
 10
-1.8104
 20
-12.9518
 30
0.0
 10
-1.8104
 20
-12.9518
 30
0.0
 10
-1.8104
 20
-12.9518
 30
0.0
 10
-1.8104
 20
-12.9518
 30
0.0
 10
-1.8104
 20
-14.3432
 30
0.0
 10
-1.8104
 20
-14.3432
 30
0.0
  0
SPLINE
  5
7D
330
1F
100
AcDbEntity
  8
ROUND
 62
   250
100
AcDbSpline
210
0.0
220
0.0
230
1.0
 70
    27
 71
     3
 72
    16
 73
    12
 74
     0
 42
0.0000000001
 43
0.0000000001
 40
0.0
 40
0.0
 40
0.0
 40
0.0
 40
0.25
 40
0.25
 40
0.25
 40
0.25
 40
0.5
 40
0.5
 40
0.5
 40
0.5
 40
1.0
 40
1.0
 40
1.0
 40
1.0
 10
-1.343
 20
-14.3432
 30
0.0
 10
-1.343
 20
-14.3432
 30
0.0
 10
-1.343
 20
-12.9625
 30
0.0
 10
-1.343
 20
-12.9625
 30
0.0
 10
-1.343
 20
-12.9625
 30
0.0
 10
-1.343
 20
-12.9625
 30
0.0
 10
-1.343
 20
-12.9518
 30
0.0
 10
-1.343
 20
-12.9518
 30
0.0
 10
-1.343
 20
-12.9518
 30
0.0
 10
-1.343
 20
-12.9518
 30
0.0
 10
-1.343
 20
-14.3432
 30
0.0
 10
-1.343
 20
-14.3432
 30
0.0
  0
SPLINE
  5
7E
330
1F
100
AcDbEntity
  8
ROUND
 62
   250
100
AcDbSpline
210
0.0
220
0.0
230
1.0
 70
    27
 71
     3
 72
    16
 73
    12
 74
     0
 42
0.0000000001
 43
0.0000000001
 40
0.0
 40
0.0
 40
0.0
 40
0.0
 40
0.25
 40
0.25
 40
0.25
 40
0.25
 40
0.5
 40
0.5
 40
0.5
 40
0.5
 40
1.0
 40
1.0
 40
1.0
 40
1.0
 10
-0.9251
 20
-14.3432
 30
0.0
 10
-0.9251
 20
-14.3432
 30
0.0
 10
-0.9251
 20
-12.9629
 30
0.0
 10
-0.9251
 20
-12.9629
 30
0.0
 10
-0.9251
 20
-12.9629
 30
0.0
 10
-0.9251
 20
-12.9629
 30
0.0
 10
-0.9251
 20
-12.9518
 30
0.0
 10
-0.9251
 20
-12.9518
 30
0.0
 10
-0.9251
 20
-12.9518
 30
0.0
 10
-0.9251
 20
-12.9518
 30
0.0
 10
-0.9251
 20
-14.3432
 30
0.0
 10
-0.9251
 20
-14.3432
 30
0.0
  0
SPLINE
  5
7F
330
1F
100
AcDbEntity
  8
ROUND
 62
   250
100
AcDbSpline
210
0.0
220
0.0
230
1.0
 70
    27
 71
     3
 72
    16
 73
    12
 74
     0
 42
0.0000000001
 43
0.0000000001
 40
0.0
 40
0.0
 40
0.0
 40
0.0
 40
0.25
 40
0.25
 40
0.25
 40
0.25
 40
0.5
 40
0.5
 40
0.5
 40
0.5
 40
1.0
 40
1.0
 40
1.0
 40
1.0
 10
-0.5612
 20
-14.3432
 30
0.0
 10
-0.5612
 20
-14.3432
 30
0.0
 10
-0.5612
 20
-12.9633
 30
0.0
 10
-0.5612
 20
-12.9633
 30
0.0
 10
-0.5612
 20
-12.9633
 30
0.0
 10
-0.5612
 20
-12.9633
 30
0.0
 10
-0.5612
 20
-12.9518
 30
0.0
 10
-0.5612
 20
-12.9518
 30
0.0
 10
-0.5612
 20
-12.9518
 30
0.0
 10
-0.5612
 20
-12.9518
 30
0.0
 10
-0.5612
 20
-14.3432
 30
0.0
 10
-0.5612
 20
-14.3432
 30
0.0
  0
SPLINE
  5
80
330
1F
100
AcDbEntity
  8
ROUND
 62
   250
100
AcDbSpline
210
0.0
220
0.0
230
1.0
 70
    27
 71
     3
 72
    16
 73
    12
 74
     0
 42
0.0000000001
 43
0.0000000001
 40
0.0
 40
0.0
 40
0.0
 40
0.0
 40
0.25
 40
0.25
 40
0.25
 40
0.25
 40
0.5
 40
0.5
 40
0.5
 40
0.5
 40
1.0
 40
1.0
 40
1.0
 40
1.0
 10
-0.1041
 20
-14.3432
 30
0.0
 10
-0.1041
 20
-14.3432
 30
0.0
 10
-0.1041
 20
-12.9638
 30
0.0
 10
-0.1041
 20
-12.9638
 30
0.0
 10
-0.1041
 20
-12.9638
 30
0.0
 10
-0.1041
 20
-12.9638
 30
0.0
 10
-0.1041
 20
-12.9518
 30
0.0
 10
-0.1041
 20
-12.9518
 30
0.0
 10
-0.1041
 20
-12.9518
 30
0.0
 10
-0.1041
 20
-12.9518
 30
0.0
 10
-0.1041
 20
-14.3432
 30
0.0
 10
-0.1041
 20
-14.3432
 30
0.0
  0
SPLINE
  5
81
330
1F
100
AcDbEntity
  8
ROUND
 62
   250
100
AcDbSpline
210
0.0
220
0.0
230
1.0
 70
    27
 71
     3
 72
    16
 73
    12
 74
     0
 42
0.0000000001
 43
0.0000000001
 40
0.0
 40
0.0
 40
0.0
 40
0.0
 40
0.25
 40
0.25
 40
0.25
 40
0.25
 40
0.5
 40
0.5
 40
0.5
 40
0.5
 40
1.0
 40
1.0
 40
1.0
 40
1.0
 10
-2.3202
 20
-14.3432
 30
0.0
 10
-2.3202
 20
-14.3432
 30
0.0
 10
-2.3202
 20
-12.9614
 30
0.0
 10
-2.3202
 20
-12.9614
 30
0.0
 10
-2.3202
 20
-12.9614
 30
0.0
 10
-2.3202
 20
-12.9614
 30
0.0
 10
-2.3202
 20
-12.9518
 30
0.0
 10
-2.3202
 20
-12.9518
 30
0.0
 10
-2.3202
 20
-12.9518
 30
0.0
 10
-2.3202
 20
-12.9518
 30
0.0
 10
-2.3202
 20
-14.3432
 30
0.0
 10
-2.3202
 20
-14.3432
 30
0.0
  0
SPLINE
  5
82
330
1F
100
AcDbEntity
  8
ROUND
 62
   250
100
AcDbSpline
210
0.0
220
0.0
230
1.0
 70
    27
 71
     3
 72
    12
 73
     8
 74
     0
 42
0.0000000001
 43
0.0000000001
 40
0.0
 40
0.0
 40
0.0
 40
0.0
 40
0.3333333333333333
 40
0.3333333333333333
 40
0.3333333333333333
 40
0.3333333333333333
 40
1.0
 40
1.0
 40
1.0
 40
1.0
 10
-11.4429
 20
-14.3432
 30
0.0
 10
-11.4429
 20
-14.3432
 30
0.0
 10
-11.4429
 20
-12.9518
 30
0.0
 10
-11.4429
 20
-12.9518
 30
0.0
 10
-11.4429
 20
-12.9518
 30
0.0
 10
-11.4429
 20
-12.9518
 30
0.0
 10
-11.4429
 20
-14.3432
 30
0.0
 10
-11.4429
 20
-14.3432
 30
0.0
  0
SPLINE
  5
83
330
1F
100
AcDbEntity
  8
ROUND
 62
   250
100
AcDbSpline
210
0.0
220
0.0
230
1.0
 70
    27
 71
     3
 72
    16
 73
    12
 74
     0
 42
0.0000000001
 43
0.0000000001
 40
0.0
 40
0.0
 40
0.0
 40
0.0
 40
0.25
 40
0.25
 40
0.25
 40
0.25
 40
0.5
 40
0.5
 40
0.5
 40
0.5
 40
1.0
 40
1.0
 40
1.0
 40
1.0
 10
-10.9876
 20
-14.3432
 30
0.0
 10
-10.9876
 20
-14.3432
 30
0.0
 10
-10.9876
 20
-12.9521
 30
0.0
 10
-10.9876
 20
-12.9521
 30
0.0
 10
-10.9876
 20
-12.9521
 30
0.0
 10
-10.9876
 20
-12.9521
 30
0.0
 10
-10.9876
 20
-12.9518
 30
0.0
 10
-10.9876
 20
-12.9518
 30
0.0
 10
-10.9876
 20
-12.9518
 30
0.0
 10
-10.9876
 20
-12.9518
 30
0.0
 10
-10.9876
 20
-14.3432
 30
0.0
 10
-10.9876
 20
-14.3432
 30
0.0
  0
SPLINE
  5
84
330
1F
100
AcDbEntity
  8
ROUND
 62
   250
100
AcDbSpline
210
0.0
220
0.0
230
1.0
 70
    27
 71
     3
 72
    16
 73
    12
 74
     0
 42
0.0000000001
 43
0.0000000001
 40
0.0
 40
0.0
 40
0.0
 40
0.0
 40
0.25
 40
0.25
 40
0.25
 40
0.25
 40
0.5
 40
0.5
 40
0.5
 40
0.5
 40
1.0
 40
1.0
 40
1.0
 40
1.0
 10
-10.6225
 20
-14.3432
 30
0.0
 10
-10.6225
 20
-14.3432
 30
0.0
 10
-10.6225
 20
-12.9525
 30
0.0
 10
-10.6225
 20
-12.9525
 30
0.0
 10
-10.6225
 20
-12.9525
 30
0.0
 10
-10.6225
 20
-12.9525
 30
0.0
 10
-10.6225
 20
-12.9518
 30
0.0
 10
-10.6225
 20
-12.9518
 30
0.0
 10
-10.6225
 20
-12.9518
 30
0.0
 10
-10.6225
 20
-12.9518
 30
0.0
 10
-10.6225
 20
-14.3432
 30
0.0
 10
-10.6225
 20
-14.3432
 30
0.0
  0
SPLINE
  5
85
330
1F
100
AcDbEntity
  8
ROUND
 62
   250
100
AcDbSpline
210
0.0
220
0.0
230
1.0
 70
    27
 71
     3
 72
    16
 73
    12
 74
     0
 42
0.0000000001
 43
0.0000000001
 40
0.0
 40
0.0
 40
0.0
 40
0.0
 40
0.25
 40
0.25
 40
0.25
 40
0.25
 40
0.5
 40
0.5
 40
0.5
 40
0.5
 40
1.0
 40
1.0
 40
1.0
 40
1.0
 10
-10.2036
 20
-14.3432
 30
0.0
 10
-10.2036
 20
-14.3432
 30
0.0
 10
-10.2036
 20
-12.953
 30
0.0
 10
-10.2036
 20
-12.953
 30
0.0
 10
-10.2036
 20
-12.953
 30
0.0
 10
-10.2036
 20
-12.953
 30
0.0
 10
-10.2036
 20
-12.9518
 30
0.0
 10
-10.2036
 20
-12.9518
 30
0.0
 10
-10.2036
 20
-12.9518
 30
0.0
 10
-10.2036
 20
-12.9518
 30
0.0
 10
-10.2036
 20
-14.3432
 30
0.0
 10
-10.2036
 20
-14.3432
 30
0.0
  0
SPLINE
  5
86
330
1F
100
AcDbEntity
  8
ROUND
 62
   250
100
AcDbSpline
210
0.0
220
0.0
230
1.0
 70
    27
 71
     3
 72
    16
 73
    12
 74
     0
 42
0.0000000001
 43
0.0000000001
 40
0.0
 40
0.0
 40
0.0
 40
0.0
 40
0.25
 40
0.25
 40
0.25
 40
0.25
 40
0.5
 40
0.5
 40
0.5
 40
0.5
 40
1.0
 40
1.0
 40
1.0
 40
1.0
 10
-9.7376
 20
-14.3432
 30
0.0
 10
-9.7376
 20
-14.3432
 30
0.0
 10
-9.7376
 20
-12.9535
 30
0.0
 10
-9.7376
 20
-12.9535
 30
0.0
 10
-9.7376
 20
-12.9535
 30
0.0
 10
-9.7376
 20
-12.9535
 30
0.0
 10
-9.7376
 20
-12.9518
 30
0.0
 10
-9.7376
 20
-12.9518
 30
0.0
 10
-9.7376
 20
-12.9518
 30
0.0
 10
-9.7376
 20
-12.9518
 30
0.0
 10
-9.7376
 20
-14.3432
 30
0.0
 10
-9.7376
 20
-14.3432
 30
0.0
  0
SPLINE
  5
87
330
1F
100
AcDbEntity
  8
ROUND
 62
   250
100
AcDbSpline
210
0.0
220
0.0
230
1.0
 70
    27
 71
     3
 72
    16
 73
    12
 74
     0
 42
0.0000000001
 43
0.0000000001
 40
0.0
 40
0.0
 40
0.0
 40
0.0
 40
0.25
 40
0.25
 40
0.25
 40
0.25
 40
0.5
 40
0.5
 40
0.5
 40
0.5
 40
1.0
 40
1.0
 40
1.0
 40
1.0
 10
-9.227
 20
-14.3432
 30
0.0
 10
-9.227
 20
-14.3432
 30
0.0
 10
-9.227
 20
-12.954
 30
0.0
 10
-9.227
 20
-12.954
 30
0.0
 10
-9.227
 20
-12.954
 30
0.0
 10
-9.227
 20
-12.954
 30
0.0
 10
-9.227
 20
-12.9518
 30
0.0
 10
-9.227
 20
-12.9518
 30
0.0
 10
-9.227
 20
-12.9518
 30
0.0
 10
-9.227
 20
-12.9518
 30
0.0
 10
-9.227
 20
-14.3432
 30
0.0
 10
-9.227
 20
-14.3432
 30
0.0
  0
SPLINE
  5
88
330
1F
100
AcDbEntity
  8
ROUND
 62
   250
100
AcDbSpline
210
0.0
220
0.0
230
1.0
 70
    27
 71
     3
 72
    16
 73
    12
 74
     0
 42
0.0000000001
 43
0.0000000001
 40
0.0
 40
0.0
 40
0.0
 40
0.0
 40
0.25
 40
0.25
 40
0.25
 40
0.25
 40
0.5
 40
0.5
 40
0.5
 40
0.5
 40
1.0
 40
1.0
 40
1.0
 40
1.0
 10
-8.6786
 20
-14.3432
 30
0.0
 10
-8.6786
 20
-14.3432
 30
0.0
 10
-8.6786
 20
-12.9546
 30
0.0
 10
-8.6786
 20
-12.9546
 30
0.0
 10
-8.6786
 20
-12.9546
 30
0.0
 10
-8.6786
 20
-12.9546
 30
0.0
 10
-8.6786
 20
-12.9518
 30
0.0
 10
-8.6786
 20
-12.9518
 30
0.0
 10
-8.6786
 20
-12.9518
 30
0.0
 10
-8.6786
 20
-12.9518
 30
0.0
 10
-8.6786
 20
-14.3432
 30
0.0
 10
-8.6786
 20
-14.3432
 30
0.0
  0
SPLINE
  5
89
330
1F
100
AcDbEntity
  8
ROUND
 62
   250
100
AcDbSpline
210
0.0
220
0.0
230
1.0
 70
    27
 71
     3
 72
    16
 73
    12
 74
     0
 42
0.0000000001
 43
0.0000000001
 40
0.0
 40
0.0
 40
0.0
 40
0.0
 40
0.25
 40
0.25
 40
0.25
 40
0.25
 40
0.5
 40
0.5
 40
0.5
 40
0.5
 40
1.0
 40
1.0
 40
1.0
 40
1.0
 10
-8.0996
 20
-14.3432
 30
0.0
 10
-8.0996
 20
-14.3432
 30
0.0
 10
-8.0996
 20
-12.9552
 30
0.0
 10
-8.0996
 20
-12.9552
 30
0.0
 10
-8.0996
 20
-12.9552
 30
0.0
 10
-8.0996
 20
-12.9552
 30
0.0
 10
-8.0996
 20
-12.9518
 30
0.0
 10
-8.0996
 20
-12.9518
 30
0.0
 10
-8.0996
 20
-12.9518
 30
0.0
 10
-8.0996
 20
-12.9518
 30
0.0
 10
-8.0996
 20
-14.3432
 30
0.0
 10
-8.0996
 20
-14.3432
 30
0.0
  0
SPLINE
  5
8A
330
1F
100
AcDbEntity
  8
ROUND
 62
   250
100
AcDbSpline
210
0.0
220
0.0
230
1.0
 70
    27
 71
     3
 72
    16
 73
    12
 74
     0
 42
0.0000000001
 43
0.0000000001
 40
0.0
 40
0.0
 40
0.0
 40
0.0
 40
0.25
 40
0.25
 40
0.25
 40
0.25
 40
0.5
 40
0.5
 40
0.5
 40
0.5
 40
1.0
 40
1.0
 40
1.0
 40
1.0
 10
-7.4935
 20
-14.3432
 30
0.0
 10
-7.4935
 20
-14.3432
 30
0.0
 10
-7.4935
 20
-12.9559
 30
0.0
 10
-7.4935
 20
-12.9559
 30
0.0
 10
-7.4935
 20
-12.9559
 30
0.0
 10
-7.4935
 20
-12.9559
 30
0.0
 10
-7.4935
 20
-12.9518
 30
0.0
 10
-7.4935
 20
-12.9518
 30
0.0
 10
-7.4935
 20
-12.9518
 30
0.0
 10
-7.4935
 20
-12.9518
 30
0.0
 10
-7.4935
 20
-14.3432
 30
0.0
 10
-7.4935
 20
-14.3432
 30
0.0
  0
SPLINE
  5
8B
330
1F
100
AcDbEntity
  8
ROUND
 62
   250
100
AcDbSpline
210
0.0
220
0.0
230
1.0
 70
    27
 71
     3
 72
    16
 73
    12
 74
     0
 42
0.0000000001
 43
0.0000000001
 40
0.0
 40
0.0
 40
0.0
 40
0.0
 40
0.25
 40
0.25
 40
0.25
 40
0.25
 40
0.5
 40
0.5
 40
0.5
 40
0.5
 40
1.0
 40
1.0
 40
1.0
 40
1.0
 10
-6.869
 20
-14.3432
 30
0.0
 10
-6.869
 20
-14.3432
 30
0.0
 10
-6.869
 20
-12.9565
 30
0.0
 10
-6.869
 20
-12.9565
 30
0.0
 10
-6.869
 20
-12.9565
 30
0.0
 10
-6.869
 20
-12.9565
 30
0.0
 10
-6.869
 20
-12.9518
 30
0.0
 10
-6.869
 20
-12.9518
 30
0.0
 10
-6.869
 20
-12.9518
 30
0.0
 10
-6.869
 20
-12.9518
 30
0.0
 10
-6.869
 20
-14.3432
 30
0.0
 10
-6.869
 20
-14.3432
 30
0.0
  0
SPLINE
  5
8C
330
1F
100
AcDbEntity
  8
ROUND
 62
   250
100
AcDbSpline
210
0.0
220
0.0
230
1.0
 70
    27
 71
     3
 72
    16
 73
    12
 74
     0
 42
0.0000000001
 43
0.0000000001
 40
0.0
 40
0.0
 40
0.0
 40
0.0
 40
0.25
 40
0.25
 40
0.25
 40
0.25
 40
0.5
 40
0.5
 40
0.5
 40
0.5
 40
1.0
 40
1.0
 40
1.0
 40
1.0
 10
-6.2338
 20
-14.3432
 30
0.0
 10
-6.2338
 20
-14.3432
 30
0.0
 10
-6.2338
 20
-12.9572
 30
0.0
 10
-6.2338
 20
-12.9572
 30
0.0
 10
-6.2338
 20
-12.9572
 30
0.0
 10
-6.2338
 20
-12.9572
 30
0.0
 10
-6.2338
 20
-12.9518
 30
0.0
 10
-6.2338
 20
-12.9518
 30
0.0
 10
-6.2338
 20
-12.9518
 30
0.0
 10
-6.2338
 20
-12.9518
 30
0.0
 10
-6.2338
 20
-14.3432
 30
0.0
 10
-6.2338
 20
-14.3432
 30
0.0
  0
SPLINE
  5
8D
330
1F
100
AcDbEntity
  8
ROUND
 62
   250
100
AcDbSpline
210
0.0
220
0.0
230
1.0
 70
    27
 71
     3
 72
    16
 73
    12
 74
     0
 42
0.0000000001
 43
0.0000000001
 40
0.0
 40
0.0
 40
0.0
 40
0.0
 40
0.25
 40
0.25
 40
0.25
 40
0.25
 40
0.5
 40
0.5
 40
0.5
 40
0.5
 40
1.0
 40
1.0
 40
1.0
 40
1.0
 10
-5.3137
 20
-14.3432
 30
0.0
 10
-5.3137
 20
-14.3432
 30
0.0
 10
-5.3137
 20
-12.9582
 30
0.0
 10
-5.3137
 20
-12.9582
 30
0.0
 10
-5.3137
 20
-12.9582
 30
0.0
 10
-5.3137
 20
-12.9582
 30
0.0
 10
-5.3137
 20
-12.9518
 30
0.0
 10
-5.3137
 20
-12.9518
 30
0.0
 10
-5.3137
 20
-12.9518
 30
0.0
 10
-5.3137
 20
-12.9518
 30
0.0
 10
-5.3137
 20
-14.3432
 30
0.0
 10
-5.3137
 20
-14.3432
 30
0.0
  0
SPLINE
  5
8E
330
1F
100
AcDbEntity
  8
ROUND
 62
   250
100
AcDbSpline
210
0.0
220
0.0
230
1.0
 70
    27
 71
     3
 72
    16
 73
    12
 74
     0
 42
0.0000000001
 43
0.0000000001
 40
0.0
 40
0.0
 40
0.0
 40
0.0
 40
0.25
 40
0.25
 40
0.25
 40
0.25
 40
0.5
 40
0.5
 40
0.5
 40
0.5
 40
1.0
 40
1.0
 40
1.0
 40
1.0
 10
-4.6784
 20
-14.3432
 30
0.0
 10
-4.6784
 20
-14.3432
 30
0.0
 10
-4.6784
 20
-12.9589
 30
0.0
 10
-4.6784
 20
-12.9589
 30
0.0
 10
-4.6784
 20
-12.9589
 30
0.0
 10
-4.6784
 20
-12.9589
 30
0.0
 10
-4.6784
 20
-12.9518
 30
0.0
 10
-4.6784
 20
-12.9518
 30
0.0
 10
-4.6784
 20
-12.9518
 30
0.0
 10
-4.6784
 20
-12.9518
 30
0.0
 10
-4.6784
 20
-14.3432
 30
0.0
 10
-4.6784
 20
-14.3432
 30
0.0
  0
SPLINE
  5
8F
330
1F
100
AcDbEntity
  8
ROUND
 62
   250
100
AcDbSpline
210
0.0
220
0.0
230
1.0
 70
    27
 71
     3
 72
    16
 73
    12
 74
     0
 42
0.0000000001
 43
0.0000000001
 40
0.0
 40
0.0
 40
0.0
 40
0.0
 40
0.25
 40
0.25
 40
0.25
 40
0.25
 40
0.5
 40
0.5
 40
0.5
 40
0.5
 40
1.0
 40
1.0
 40
1.0
 40
1.0
 10
-4.0539
 20
-14.3432
 30
0.0
 10
-4.0539
 20
-14.3432
 30
0.0
 10
-4.0539
 20
-12.9596
 30
0.0
 10
-4.0539
 20
-12.9596
 30
0.0
 10
-4.0539
 20
-12.9596
 30
0.0
 10
-4.0539
 20
-12.9596
 30
0.0
 10
-4.0539
 20
-12.9518
 30
0.0
 10
-4.0539
 20
-12.9518
 30
0.0
 10
-4.0539
 20
-12.9518
 30
0.0
 10
-4.0539
 20
-12.9518
 30
0.0
 10
-4.0539
 20
-14.3432
 30
0.0
 10
-4.0539
 20
-14.3432
 30
0.0
  0
SPLINE
  5
90
330
1F
100
AcDbEntity
  8
ROUND
 62
   250
100
AcDbSpline
210
0.0
220
0.0
230
1.0
 70
    27
 71
     3
 72
    16
 73
    12
 74
     0
 42
0.0000000001
 43
0.0000000001
 40
0.0
 40
0.0
 40
0.0
 40
0.0
 40
0.25
 40
0.25
 40
0.25
 40
0.25
 40
0.5
 40
0.5
 40
0.5
 40
0.5
 40
1.0
 40
1.0
 40
1.0
 40
1.0
 10
-3.4482
 20
-14.3432
 30
0.0
 10
-3.4482
 20
-14.3432
 30
0.0
 10
-3.4482
 20
-12.9602
 30
0.0
 10
-3.4482
 20
-12.9602
 30
0.0
 10
-3.4482
 20
-12.9602
 30
0.0
 10
-3.4482
 20
-12.9602
 30
0.0
 10
-3.4482
 20
-12.9518
 30
0.0
 10
-3.4482
 20
-12.9518
 30
0.0
 10
-3.4482
 20
-12.9518
 30
0.0
 10
-3.4482
 20
-12.9518
 30
0.0
 10
-3.4482
 20
-14.3432
 30
0.0
 10
-3.4482
 20
-14.3432
 30
0.0
  0
SPLINE
  5
91
330
1F
100
AcDbEntity
  8
ROUND
 62
   250
100
AcDbSpline
210
0.0
220
0.0
230
1.0
 70
    27
 71
     3
 72
    16
 73
    12
 74
     0
 42
0.0000000001
 43
0.0000000001
 40
0.0
 40
0.0
 40
0.0
 40
0.0
 40
0.25
 40
0.25
 40
0.25
 40
0.25
 40
0.5
 40
0.5
 40
0.5
 40
0.5
 40
1.0
 40
1.0
 40
1.0
 40
1.0
 10
-2.8681
 20
-14.3432
 30
0.0
 10
-2.8681
 20
-14.3432
 30
0.0
 10
-2.8681
 20
-12.9608
 30
0.0
 10
-2.8681
 20
-12.9608
 30
0.0
 10
-2.8681
 20
-12.9608
 30
0.0
 10
-2.8681
 20
-12.9608
 30
0.0
 10
-2.8681
 20
-12.9518
 30
0.0
 10
-2.8681
 20
-12.9518
 30
0.0
 10
-2.8681
 20
-12.9518
 30
0.0
 10
-2.8681
 20
-12.9518
 30
0.0
 10
-2.8681
 20
-14.3432
 30
0.0
 10
-2.8681
 20
-14.3432
 30
0.0
  0
SPLINE
  5
92
330
1F
100
AcDbEntity
  8
ROUND
 62
   250
100
AcDbSpline
210
0.0
220
0.0
230
1.0
 70
    27
 71
     3
 72
    12
 73
     8
 74
     0
 42
0.0000000001
 43
0.0000000001
 40
0.0
 40
0.0
 40
0.0
 40
0.0
 40
0.3333333333333333
 40
0.3333333333333333
 40
0.3333333333333333
 40
0.3333333333333333
 40
1.0
 40
1.0
 40
1.0
 40
1.0
 10
-11.8993
 20
-14.3432
 30
0.0
 10
-11.8993
 20
-14.3432
 30
0.0
 10
-11.8993
 20
-12.9518
 30
0.0
 10
-11.8993
 20
-12.9518
 30
0.0
 10
-11.8993
 20
-12.9518
 30
0.0
 10
-11.8993
 20
-12.9518
 30
0.0
 10
-11.8993
 20
-14.3432
 30
0.0
 10
-11.8993
 20
-14.3432
 30
0.0
  0
SPLINE
  5
93
330
1F
100
AcDbEntity
  8
ROUND
 62
   250
100
AcDbSpline
210
0.0
220
0.0
230
1.0
 70
    11
 71
     3
 72
    20
 73
    16
 74
     0
 42
0.0000000001
 43
0.0000000001
 40
0.0
 40
0.0
 40
0.0
 40
0.0
 40
0.2
 40
0.2
 40
0.2
 40
0.2
 40
0.4
 40
0.4
 40
0.4
 40
0.4
 40
0.6
 40
0.6
 40
0.6
 40
0.6
 40
1.0
 40
1.0
 40
1.0
 40
1.0
 10
-22.0764
 20
-0.842
 30
0.0
 10
-22.0764
 20
-0.842
 30
0.0
 10
-22.0764
 20
-1.3889
 30
0.0
 10
-22.0764
 20
-1.3889
 30
0.0
 10
-22.0764
 20
-1.3889
 30
0.0
 10
-22.0764
 20
-1.3889
 30
0.0
 10
-34.029
 20
-1.3889
 30
0.0
 10
-34.029
 20
-1.3889
 30
0.0
 10
-34.029
 20
-1.3889
 30
0.0
 10
-34.029
 20
-1.3889
 30
0.0
 10
-34.029
 20
-0.842
 30
0.0
 10
-34.029
 20
-0.842
 30
0.0
 10
-34.029
 20
-0.842
 30
0.0
 10
-34.029
 20
-0.842
 30
0.0
 10
-22.0764
 20
-0.842
 30
0.0
 10
-22.0764
 20
-0.842
 30
0.0
  0
SPLINE
  5
94
330
1F
100
AcDbEntity
  8
ROUND
 62
   250
100
AcDbSpline
210
0.0
220
0.0
230
1.0
 70
     8
 71
     3
 72
     8
 73
     4
 74
     0
 42
0.0000000001
 43
0.0000000001
 40
0.0
 40
0.0
 40
0.0
 40
0.0
 40
1.0
 40
1.0
 40
1.0
 40
1.0
 10
-33.3506
 20
1.3666
 30
0.0
 10
-33.7352
 20
1.3666
 30
0.0
 10
-34.0469
 20
1.0549
 30
0.0
 10
-34.0469
 20
0.6703
 30
0.0
  0
SPLINE
  5
95
330
1F
100
AcDbEntity
  8
ROUND
 62
   250
100
AcDbSpline
210
0.0
220
0.0
230
1.0
 70
     8
 71
     3
 72
   124
 73
   120
 74
     0
 42
0.0000000001
 43
0.0000000001
 40
0.0
 40
0.0
 40
0.0
 40
0.0
 40
0.032258064516129
 40
0.032258064516129
 40
0.032258064516129
 40
0.032258064516129
 40
0.0645161290322581
 40
0.0645161290322581
 40
0.0645161290322581
 40
0.0645161290322581
 40
0.0967741935483871
 40
0.0967741935483871
 40
0.0967741935483871
 40
0.0967741935483871
 40
0.1290322580645161
 40
0.1290322580645161
 40
0.1290322580645161
 40
0.1290322580645161
 40
0.1612903225806452
 40
0.1612903225806452
 40
0.1612903225806452
 40
0.1612903225806452
 40
0.1935483870967742
 40
0.1935483870967742
 40
0.1935483870967742
 40
0.1935483870967742
 40
0.2258064516129032
 40
0.2258064516129032
 40
0.2258064516129032
 40
0.2258064516129032
 40
0.2580645161290323
 40
0.2580645161290323
 40
0.2580645161290323
 40
0.2580645161290323
 40
0.2903225806451613
 40
0.2903225806451613
 40
0.2903225806451613
 40
0.2903225806451613
 40
0.3225806451612903
 40
0.3225806451612903
 40
0.3225806451612903
 40
0.3225806451612903
 40
0.3548387096774194
 40
0.3548387096774194
 40
0.3548387096774194
 40
0.3548387096774194
 40
0.3870967741935484
 40
0.3870967741935484
 40
0.3870967741935484
 40
0.3870967741935484
 40
0.4193548387096774
 40
0.4193548387096774
 40
0.4193548387096774
 40
0.4193548387096774
 40
0.4516129032258064
 40
0.4516129032258064
 40
0.4516129032258064
 40
0.4516129032258064
 40
0.4838709677419355
 40
0.4838709677419355
 40
0.4838709677419355
 40
0.4838709677419355
 40
0.5161290322580645
 40
0.5161290322580645
 40
0.5161290322580645
 40
0.5161290322580645
 40
0.5483870967741935
 40
0.5483870967741935
 40
0.5483870967741935
 40
0.5483870967741935
 40
0.5806451612903226
 40
0.5806451612903226
 40
0.5806451612903226
 40
0.5806451612903226
 40
0.6129032258064516
 40
0.6129032258064516
 40
0.6129032258064516
 40
0.6129032258064516
 40
0.6451612903225806
 40
0.6451612903225806
 40
0.6451612903225806
 40
0.6451612903225806
 40
0.6774193548387096
 40
0.6774193548387096
 40
0.6774193548387096
 40
0.6774193548387096
 40
0.7096774193548387
 40
0.7096774193548387
 40
0.7096774193548387
 40
0.7096774193548387
 40
0.7419354838709677
 40
0.7419354838709677
 40
0.7419354838709677
 40
0.7419354838709677
 40
0.7741935483870968
 40
0.7741935483870968
 40
0.7741935483870968
 40
0.7741935483870968
 40
0.8064516129032258
 40
0.8064516129032258
 40
0.8064516129032258
 40
0.8064516129032258
 40
0.8387096774193549
 40
0.8387096774193549
 40
0.8387096774193549
 40
0.8387096774193549
 40
0.8709677419354839
 40
0.8709677419354839
 40
0.8709677419354839
 40
0.8709677419354839
 40
0.9032258064516129
 40
0.9032258064516129
 40
0.9032258064516129
 40
0.9032258064516129
 40
0.9354838709677419
 40
0.9354838709677419
 40
0.9354838709677419
 40
0.9354838709677419
 40
1.0
 40
1.0
 40
1.0
 40
1.0
 10
-34.0469
 20
0.6703
 30
0.0
 10
-34.0469
 20
0.6703
 30
0.0
 10
-34.0555
 20
0.5308
 30
0.0
 10
-34.0555
 20
0.5308
 30
0.0
 10
-34.0555
 20
0.5308
 30
0.0
 10
-34.0555
 20
0.5308
 30
0.0
 10
-33.2723
 20
0.53
 30
0.0
 10
-33.2723
 20
0.53
 30
0.0
 10
-33.2723
 20
0.53
 30
0.0
 10
-33.2723
 20
0.53
 30
0.0
 10
-32.9072
 20
0.5296
 30
0.0
 10
-32.9072
 20
0.5296
 30
0.0
 10
-32.9072
 20
0.5296
 30
0.0
 10
-32.9072
 20
0.5296
 30
0.0
 10
-32.4883
 20
0.5291
 30
0.0
 10
-32.4883
 20
0.5291
 30
0.0
 10
-32.4883
 20
0.5291
 30
0.0
 10
-32.4883
 20
0.5291
 30
0.0
 10
-32.0223
 20
0.5286
 30
0.0
 10
-32.0223
 20
0.5286
 30
0.0
 10
-32.0223
 20
0.5286
 30
0.0
 10
-32.0223
 20
0.5286
 30
0.0
 10
-31.5117
 20
0.5281
 30
0.0
 10
-31.5117
 20
0.5281
 30
0.0
 10
-31.5117
 20
0.5281
 30
0.0
 10
-31.5117
 20
0.5281
 30
0.0
 10
-30.9633
 20
0.5275
 30
0.0
 10
-30.9633
 20
0.5275
 30
0.0
 10
-30.9633
 20
0.5275
 30
0.0
 10
-30.9633
 20
0.5275
 30
0.0
 10
-30.3843
 20
0.5269
 30
0.0
 10
-30.3843
 20
0.5269
 30
0.0
 10
-30.3843
 20
0.5269
 30
0.0
 10
-30.3843
 20
0.5269
 30
0.0
 10
-29.7782
 20
0.5262
 30
0.0
 10
-29.7782
 20
0.5262
 30
0.0
 10
-29.7782
 20
0.5262
 30
0.0
 10
-29.7782
 20
0.5262
 30
0.0
 10
-29.1537
 20
0.5256
 30
0.0
 10
-29.1537
 20
0.5256
 30
0.0
 10
-29.1537
 20
0.5256
 30
0.0
 10
-29.1537
 20
0.5256
 30
0.0
 10
-28.5185
 20
0.5249
 30
0.0
 10
-28.5185
 20
0.5249
 30
0.0
 10
-28.5185
 20
0.5249
 30
0.0
 10
-28.5185
 20
0.5249
 30
0.0
 10
-27.5984
 20
0.5239
 30
0.0
 10
-27.5984
 20
0.5239
 30
0.0
 10
-27.5984
 20
0.5239
 30
0.0
 10
-27.5984
 20
0.5239
 30
0.0
 10
-26.9631
 20
0.5232
 30
0.0
 10
-26.9631
 20
0.5232
 30
0.0
 10
-26.9631
 20
0.5232
 30
0.0
 10
-26.9631
 20
0.5232
 30
0.0
 10
-26.3386
 20
0.5225
 30
0.0
 10
-26.3386
 20
0.5225
 30
0.0
 10
-26.3386
 20
0.5225
 30
0.0
 10
-26.3386
 20
0.5225
 30
0.0
 10
-25.7329
 20
0.5219
 30
0.0
 10
-25.7329
 20
0.5219
 30
0.0
 10
-25.7329
 20
0.5219
 30
0.0
 10
-25.7329
 20
0.5219
 30
0.0
 10
-25.1528
 20
0.5213
 30
0.0
 10
-25.1528
 20
0.5213
 30
0.0
 10
-25.1528
 20
0.5213
 30
0.0
 10
-25.1528
 20
0.5213
 30
0.0
 10
-24.6049
 20
0.5207
 30
0.0
 10
-24.6049
 20
0.5207
 30
0.0
 10
-24.6049
 20
0.5207
 30
0.0
 10
-24.6049
 20
0.5207
 30
0.0
 10
-24.0951
 20
0.5201
 30
0.0
 10
-24.0951
 20
0.5201
 30
0.0
 10
-24.0951
 20
0.5201
 30
0.0
 10
-24.0951
 20
0.5201
 30
0.0
 10
-23.6277
 20
0.5196
 30
0.0
 10
-23.6277
 20
0.5196
 30
0.0
 10
-23.6277
 20
0.5196
 30
0.0
 10
-23.6277
 20
0.5196
 30
0.0
 10
-23.2098
 20
0.5192
 30
0.0
 10
-23.2098
 20
0.5192
 30
0.0
 10
-23.2098
 20
0.5192
 30
0.0
 10
-23.2098
 20
0.5192
 30
0.0
 10
-22.8459
 20
0.5188
 30
0.0
 10
-22.8459
 20
0.5188
 30
0.0
 10
-22.8459
 20
0.5188
 30
0.0
 10
-22.8459
 20
0.5188
 30
0.0
 10
-22.3888
 20
0.5183
 30
0.0
 10
-22.3888
 20
0.5183
 30
0.0
 10
-22.3888
 20
0.5183
 30
0.0
 10
-22.3888
 20
0.5183
 30
0.0
 10
-22.0012
 20
0.5179
 30
0.0
 10
-22.0012
 20
0.5179
 30
0.0
 10
-22.0012
 20
0.5179
 30
0.0
 10
-22.0012
 20
0.5179
 30
0.0
 10
-22.014
 20
0.7628
 30
0.0
 10
-22.014
 20
0.7628
 30
0.0
 10
-22.014
 20
0.7628
 30
0.0
 10
-22.014
 20
0.7628
 30
0.0
 10
-22.1041
 20
0.9948
 30
0.0
 10
-22.1041
 20
0.9948
 30
0.0
 10
-22.1041
 20
0.9948
 30
0.0
 10
-22.1041
 20
0.9948
 30
0.0
 10
-22.2327
 20
1.1624
 30
0.0
 10
-22.2327
 20
1.1624
 30
0.0
 10
-22.2327
 20
1.1624
 30
0.0
 10
-22.2327
 20
1.1624
 30
0.0
 10
-22.4772
 20
1.3042
 30
0.0
 10
-22.4772
 20
1.3042
 30
0.0
 10
-22.4772
 20
1.3042
 30
0.0
 10
-22.4772
 20
1.3042
 30
0.0
 10
-22.6058
 20
1.3687
 30
0.0
 10
-22.6058
 20
1.3687
 30
0.0
 10
-22.6058
 20
1.3687
 30
0.0
 10
-22.6058
 20
1.3687
 30
0.0
 10
-22.6959
 20
1.3687
 30
0.0
 10
-22.6959
 20
1.3687
 30
0.0
 10
-22.6959
 20
1.3687
 30
0.0
 10
-22.6959
 20
1.3687
 30
0.0
 10
-33.3506
 20
1.3666
 30
0.0
 10
-33.3506
 20
1.3666
 30
0.0
  0
SPLINE
  5
96
330
1F
100
AcDbEntity
  8
ROUND
 62
   250
100
AcDbSpline
210
0.0
220
0.0
230
1.0
 70
    27
 71
     3
 72
    12
 73
     8
 74
     0
 42
0.0000000001
 43
0.0000000001
 40
0.0
 40
0.0
 40
0.0
 40
0.0
 40
0.3333333333333333
 40
0.3333333333333333
 40
0.3333333333333333
 40
0.3333333333333333
 40
1.0
 40
1.0
 40
1.0
 40
1.0
 10
-21.9335
 20
-0.8611
 30
0.0
 10
-21.9335
 20
-0.8611
 30
0.0
 10
-21.9335
 20
0.5303
 30
0.0
 10
-21.9335
 20
0.5303
 30
0.0
 10
-21.9335
 20
0.5303
 30
0.0
 10
-21.9335
 20
0.5303
 30
0.0
 10
-21.9335
 20
-0.8611
 30
0.0
 10
-21.9335
 20
-0.8611
 30
0.0
  0
SPLINE
  5
97
330
1F
100
AcDbEntity
  8
ROUND
 62
   250
100
AcDbSpline
210
0.0
220
0.0
230
1.0
 70
    27
 71
     3
 72
    16
 73
    12
 74
     0
 42
0.0000000001
 43
0.0000000001
 40
0.0
 40
0.0
 40
0.0
 40
0.0
 40
0.25
 40
0.25
 40
0.25
 40
0.25
 40
0.5
 40
0.5
 40
0.5
 40
0.5
 40
1.0
 40
1.0
 40
1.0
 40
1.0
 10
-24.0951
 20
-0.8611
 30
0.0
 10
-24.0951
 20
-0.8611
 30
0.0
 10
-24.0951
 20
0.5201
 30
0.0
 10
-24.0951
 20
0.5201
 30
0.0
 10
-24.0951
 20
0.5201
 30
0.0
 10
-24.0951
 20
0.5201
 30
0.0
 10
-24.0951
 20
0.5303
 30
0.0
 10
-24.0951
 20
0.5303
 30
0.0
 10
-24.0951
 20
0.5303
 30
0.0
 10
-24.0951
 20
0.5303
 30
0.0
 10
-24.0951
 20
-0.8611
 30
0.0
 10
-24.0951
 20
-0.8611
 30
0.0
  0
SPLINE
  5
98
330
1F
100
AcDbEntity
  8
ROUND
 62
   250
100
AcDbSpline
210
0.0
220
0.0
230
1.0
 70
    27
 71
     3
 72
    16
 73
    12
 74
     0
 42
0.0000000001
 43
0.0000000001
 40
0.0
 40
0.0
 40
0.0
 40
0.0
 40
0.25
 40
0.25
 40
0.25
 40
0.25
 40
0.5
 40
0.5
 40
0.5
 40
0.5
 40
1.0
 40
1.0
 40
1.0
 40
1.0
 10
-23.6277
 20
-0.8611
 30
0.0
 10
-23.6277
 20
-0.8611
 30
0.0
 10
-23.6277
 20
0.5196
 30
0.0
 10
-23.6277
 20
0.5196
 30
0.0
 10
-23.6277
 20
0.5196
 30
0.0
 10
-23.6277
 20
0.5196
 30
0.0
 10
-23.6277
 20
0.5303
 30
0.0
 10
-23.6277
 20
0.5303
 30
0.0
 10
-23.6277
 20
0.5303
 30
0.0
 10
-23.6277
 20
0.5303
 30
0.0
 10
-23.6277
 20
-0.8611
 30
0.0
 10
-23.6277
 20
-0.8611
 30
0.0
  0
SPLINE
  5
99
330
1F
100
AcDbEntity
  8
ROUND
 62
   250
100
AcDbSpline
210
0.0
220
0.0
230
1.0
 70
    27
 71
     3
 72
    16
 73
    12
 74
     0
 42
0.0000000001
 43
0.0000000001
 40
0.0
 40
0.0
 40
0.0
 40
0.0
 40
0.25
 40
0.25
 40
0.25
 40
0.25
 40
0.5
 40
0.5
 40
0.5
 40
0.5
 40
1.0
 40
1.0
 40
1.0
 40
1.0
 10
-23.2098
 20
-0.8611
 30
0.0
 10
-23.2098
 20
-0.8611
 30
0.0
 10
-23.2098
 20
0.5192
 30
0.0
 10
-23.2098
 20
0.5192
 30
0.0
 10
-23.2098
 20
0.5192
 30
0.0
 10
-23.2098
 20
0.5192
 30
0.0
 10
-23.2098
 20
0.5303
 30
0.0
 10
-23.2098
 20
0.5303
 30
0.0
 10
-23.2098
 20
0.5303
 30
0.0
 10
-23.2098
 20
0.5303
 30
0.0
 10
-23.2098
 20
-0.8611
 30
0.0
 10
-23.2098
 20
-0.8611
 30
0.0
  0
SPLINE
  5
9A
330
1F
100
AcDbEntity
  8
ROUND
 62
   250
100
AcDbSpline
210
0.0
220
0.0
230
1.0
 70
    27
 71
     3
 72
    16
 73
    12
 74
     0
 42
0.0000000001
 43
0.0000000001
 40
0.0
 40
0.0
 40
0.0
 40
0.0
 40
0.25
 40
0.25
 40
0.25
 40
0.25
 40
0.5
 40
0.5
 40
0.5
 40
0.5
 40
1.0
 40
1.0
 40
1.0
 40
1.0
 10
-22.8459
 20
-0.8611
 30
0.0
 10
-22.8459
 20
-0.8611
 30
0.0
 10
-22.8459
 20
0.5188
 30
0.0
 10
-22.8459
 20
0.5188
 30
0.0
 10
-22.8459
 20
0.5188
 30
0.0
 10
-22.8459
 20
0.5188
 30
0.0
 10
-22.8459
 20
0.5303
 30
0.0
 10
-22.8459
 20
0.5303
 30
0.0
 10
-22.8459
 20
0.5303
 30
0.0
 10
-22.8459
 20
0.5303
 30
0.0
 10
-22.8459
 20
-0.8611
 30
0.0
 10
-22.8459
 20
-0.8611
 30
0.0
  0
SPLINE
  5
9B
330
1F
100
AcDbEntity
  8
ROUND
 62
   250
100
AcDbSpline
210
0.0
220
0.0
230
1.0
 70
    27
 71
     3
 72
    16
 73
    12
 74
     0
 42
0.0000000001
 43
0.0000000001
 40
0.0
 40
0.0
 40
0.0
 40
0.0
 40
0.25
 40
0.25
 40
0.25
 40
0.25
 40
0.5
 40
0.5
 40
0.5
 40
0.5
 40
1.0
 40
1.0
 40
1.0
 40
1.0
 10
-22.3888
 20
-0.8611
 30
0.0
 10
-22.3888
 20
-0.8611
 30
0.0
 10
-22.3888
 20
0.5183
 30
0.0
 10
-22.3888
 20
0.5183
 30
0.0
 10
-22.3888
 20
0.5183
 30
0.0
 10
-22.3888
 20
0.5183
 30
0.0
 10
-22.3888
 20
0.5303
 30
0.0
 10
-22.3888
 20
0.5303
 30
0.0
 10
-22.3888
 20
0.5303
 30
0.0
 10
-22.3888
 20
0.5303
 30
0.0
 10
-22.3888
 20
-0.8611
 30
0.0
 10
-22.3888
 20
-0.8611
 30
0.0
  0
SPLINE
  5
9C
330
1F
100
AcDbEntity
  8
ROUND
 62
   250
100
AcDbSpline
210
0.0
220
0.0
230
1.0
 70
    27
 71
     3
 72
    16
 73
    12
 74
     0
 42
0.0000000001
 43
0.0000000001
 40
0.0
 40
0.0
 40
0.0
 40
0.0
 40
0.25
 40
0.25
 40
0.25
 40
0.25
 40
0.5
 40
0.5
 40
0.5
 40
0.5
 40
1.0
 40
1.0
 40
1.0
 40
1.0
 10
-24.6049
 20
-0.8611
 30
0.0
 10
-24.6049
 20
-0.8611
 30
0.0
 10
-24.6049
 20
0.5207
 30
0.0
 10
-24.6049
 20
0.5207
 30
0.0
 10
-24.6049
 20
0.5207
 30
0.0
 10
-24.6049
 20
0.5207
 30
0.0
 10
-24.6049
 20
0.5303
 30
0.0
 10
-24.6049
 20
0.5303
 30
0.0
 10
-24.6049
 20
0.5303
 30
0.0
 10
-24.6049
 20
0.5303
 30
0.0
 10
-24.6049
 20
-0.8611
 30
0.0
 10
-24.6049
 20
-0.8611
 30
0.0
  0
SPLINE
  5
9D
330
1F
100
AcDbEntity
  8
ROUND
 62
   250
100
AcDbSpline
210
0.0
220
0.0
230
1.0
 70
    27
 71
     3
 72
    12
 73
     8
 74
     0
 42
0.0000000001
 43
0.0000000001
 40
0.0
 40
0.0
 40
0.0
 40
0.0
 40
0.3333333333333333
 40
0.3333333333333333
 40
0.3333333333333333
 40
0.3333333333333333
 40
1.0
 40
1.0
 40
1.0
 40
1.0
 10
-33.7276
 20
-0.8611
 30
0.0
 10
-33.7276
 20
-0.8611
 30
0.0
 10
-33.7276
 20
0.5303
 30
0.0
 10
-33.7276
 20
0.5303
 30
0.0
 10
-33.7276
 20
0.5303
 30
0.0
 10
-33.7276
 20
0.5303
 30
0.0
 10
-33.7276
 20
-0.8611
 30
0.0
 10
-33.7276
 20
-0.8611
 30
0.0
  0
SPLINE
  5
9E
330
1F
100
AcDbEntity
  8
ROUND
 62
   250
100
AcDbSpline
210
0.0
220
0.0
230
1.0
 70
    27
 71
     3
 72
    16
 73
    12
 74
     0
 42
0.0000000001
 43
0.0000000001
 40
0.0
 40
0.0
 40
0.0
 40
0.0
 40
0.25
 40
0.25
 40
0.25
 40
0.25
 40
0.5
 40
0.5
 40
0.5
 40
0.5
 40
1.0
 40
1.0
 40
1.0
 40
1.0
 10
-33.2723
 20
-0.8611
 30
0.0
 10
-33.2723
 20
-0.8611
 30
0.0
 10
-33.2723
 20
0.53
 30
0.0
 10
-33.2723
 20
0.53
 30
0.0
 10
-33.2723
 20
0.53
 30
0.0
 10
-33.2723
 20
0.53
 30
0.0
 10
-33.2723
 20
0.5303
 30
0.0
 10
-33.2723
 20
0.5303
 30
0.0
 10
-33.2723
 20
0.5303
 30
0.0
 10
-33.2723
 20
0.5303
 30
0.0
 10
-33.2723
 20
-0.8611
 30
0.0
 10
-33.2723
 20
-0.8611
 30
0.0
  0
SPLINE
  5
9F
330
1F
100
AcDbEntity
  8
ROUND
 62
   250
100
AcDbSpline
210
0.0
220
0.0
230
1.0
 70
    27
 71
     3
 72
    16
 73
    12
 74
     0
 42
0.0000000001
 43
0.0000000001
 40
0.0
 40
0.0
 40
0.0
 40
0.0
 40
0.25
 40
0.25
 40
0.25
 40
0.25
 40
0.5
 40
0.5
 40
0.5
 40
0.5
 40
1.0
 40
1.0
 40
1.0
 40
1.0
 10
-32.9072
 20
-0.8611
 30
0.0
 10
-32.9072
 20
-0.8611
 30
0.0
 10
-32.9072
 20
0.5296
 30
0.0
 10
-32.9072
 20
0.5296
 30
0.0
 10
-32.9072
 20
0.5296
 30
0.0
 10
-32.9072
 20
0.5296
 30
0.0
 10
-32.9072
 20
0.5303
 30
0.0
 10
-32.9072
 20
0.5303
 30
0.0
 10
-32.9072
 20
0.5303
 30
0.0
 10
-32.9072
 20
0.5303
 30
0.0
 10
-32.9072
 20
-0.8611
 30
0.0
 10
-32.9072
 20
-0.8611
 30
0.0
  0
SPLINE
  5
A0
330
1F
100
AcDbEntity
  8
ROUND
 62
   250
100
AcDbSpline
210
0.0
220
0.0
230
1.0
 70
    27
 71
     3
 72
    16
 73
    12
 74
     0
 42
0.0000000001
 43
0.0000000001
 40
0.0
 40
0.0
 40
0.0
 40
0.0
 40
0.25
 40
0.25
 40
0.25
 40
0.25
 40
0.5
 40
0.5
 40
0.5
 40
0.5
 40
1.0
 40
1.0
 40
1.0
 40
1.0
 10
-32.4883
 20
-0.8611
 30
0.0
 10
-32.4883
 20
-0.8611
 30
0.0
 10
-32.4883
 20
0.5291
 30
0.0
 10
-32.4883
 20
0.5291
 30
0.0
 10
-32.4883
 20
0.5291
 30
0.0
 10
-32.4883
 20
0.5291
 30
0.0
 10
-32.4883
 20
0.5303
 30
0.0
 10
-32.4883
 20
0.5303
 30
0.0
 10
-32.4883
 20
0.5303
 30
0.0
 10
-32.4883
 20
0.5303
 30
0.0
 10
-32.4883
 20
-0.8611
 30
0.0
 10
-32.4883
 20
-0.8611
 30
0.0
  0
SPLINE
  5
A1
330
1F
100
AcDbEntity
  8
ROUND
 62
   250
100
AcDbSpline
210
0.0
220
0.0
230
1.0
 70
    27
 71
     3
 72
    16
 73
    12
 74
     0
 42
0.0000000001
 43
0.0000000001
 40
0.0
 40
0.0
 40
0.0
 40
0.0
 40
0.25
 40
0.25
 40
0.25
 40
0.25
 40
0.5
 40
0.5
 40
0.5
 40
0.5
 40
1.0
 40
1.0
 40
1.0
 40
1.0
 10
-32.0223
 20
-0.8611
 30
0.0
 10
-32.0223
 20
-0.8611
 30
0.0
 10
-32.0223
 20
0.5286
 30
0.0
 10
-32.0223
 20
0.5286
 30
0.0
 10
-32.0223
 20
0.5286
 30
0.0
 10
-32.0223
 20
0.5286
 30
0.0
 10
-32.0223
 20
0.5303
 30
0.0
 10
-32.0223
 20
0.5303
 30
0.0
 10
-32.0223
 20
0.5303
 30
0.0
 10
-32.0223
 20
0.5303
 30
0.0
 10
-32.0223
 20
-0.8611
 30
0.0
 10
-32.0223
 20
-0.8611
 30
0.0
  0
SPLINE
  5
A2
330
1F
100
AcDbEntity
  8
ROUND
 62
   250
100
AcDbSpline
210
0.0
220
0.0
230
1.0
 70
    27
 71
     3
 72
    16
 73
    12
 74
     0
 42
0.0000000001
 43
0.0000000001
 40
0.0
 40
0.0
 40
0.0
 40
0.0
 40
0.25
 40
0.25
 40
0.25
 40
0.25
 40
0.5
 40
0.5
 40
0.5
 40
0.5
 40
1.0
 40
1.0
 40
1.0
 40
1.0
 10
-31.5117
 20
-0.8611
 30
0.0
 10
-31.5117
 20
-0.8611
 30
0.0
 10
-31.5117
 20
0.5281
 30
0.0
 10
-31.5117
 20
0.5281
 30
0.0
 10
-31.5117
 20
0.5281
 30
0.0
 10
-31.5117
 20
0.5281
 30
0.0
 10
-31.5117
 20
0.5303
 30
0.0
 10
-31.5117
 20
0.5303
 30
0.0
 10
-31.5117
 20
0.5303
 30
0.0
 10
-31.5117
 20
0.5303
 30
0.0
 10
-31.5117
 20
-0.8611
 30
0.0
 10
-31.5117
 20
-0.8611
 30
0.0
  0
SPLINE
  5
A3
330
1F
100
AcDbEntity
  8
ROUND
 62
   250
100
AcDbSpline
210
0.0
220
0.0
230
1.0
 70
    27
 71
     3
 72
    16
 73
    12
 74
     0
 42
0.0000000001
 43
0.0000000001
 40
0.0
 40
0.0
 40
0.0
 40
0.0
 40
0.25
 40
0.25
 40
0.25
 40
0.25
 40
0.5
 40
0.5
 40
0.5
 40
0.5
 40
1.0
 40
1.0
 40
1.0
 40
1.0
 10
-30.9633
 20
-0.8611
 30
0.0
 10
-30.9633
 20
-0.8611
 30
0.0
 10
-30.9633
 20
0.5275
 30
0.0
 10
-30.9633
 20
0.5275
 30
0.0
 10
-30.9633
 20
0.5275
 30
0.0
 10
-30.9633
 20
0.5275
 30
0.0
 10
-30.9633
 20
0.5303
 30
0.0
 10
-30.9633
 20
0.5303
 30
0.0
 10
-30.9633
 20
0.5303
 30
0.0
 10
-30.9633
 20
0.5303
 30
0.0
 10
-30.9633
 20
-0.8611
 30
0.0
 10
-30.9633
 20
-0.8611
 30
0.0
  0
SPLINE
  5
A4
330
1F
100
AcDbEntity
  8
ROUND
 62
   250
100
AcDbSpline
210
0.0
220
0.0
230
1.0
 70
    27
 71
     3
 72
    16
 73
    12
 74
     0
 42
0.0000000001
 43
0.0000000001
 40
0.0
 40
0.0
 40
0.0
 40
0.0
 40
0.25
 40
0.25
 40
0.25
 40
0.25
 40
0.5
 40
0.5
 40
0.5
 40
0.5
 40
1.0
 40
1.0
 40
1.0
 40
1.0
 10
-30.3843
 20
-0.8611
 30
0.0
 10
-30.3843
 20
-0.8611
 30
0.0
 10
-30.3843
 20
0.5269
 30
0.0
 10
-30.3843
 20
0.5269
 30
0.0
 10
-30.3843
 20
0.5269
 30
0.0
 10
-30.3843
 20
0.5269
 30
0.0
 10
-30.3843
 20
0.5303
 30
0.0
 10
-30.3843
 20
0.5303
 30
0.0
 10
-30.3843
 20
0.5303
 30
0.0
 10
-30.3843
 20
0.5303
 30
0.0
 10
-30.3843
 20
-0.8611
 30
0.0
 10
-30.3843
 20
-0.8611
 30
0.0
  0
SPLINE
  5
A5
330
1F
100
AcDbEntity
  8
ROUND
 62
   250
100
AcDbSpline
210
0.0
220
0.0
230
1.0
 70
    27
 71
     3
 72
    16
 73
    12
 74
     0
 42
0.0000000001
 43
0.0000000001
 40
0.0
 40
0.0
 40
0.0
 40
0.0
 40
0.25
 40
0.25
 40
0.25
 40
0.25
 40
0.5
 40
0.5
 40
0.5
 40
0.5
 40
1.0
 40
1.0
 40
1.0
 40
1.0
 10
-29.7782
 20
-0.8611
 30
0.0
 10
-29.7782
 20
-0.8611
 30
0.0
 10
-29.7782
 20
0.5262
 30
0.0
 10
-29.7782
 20
0.5262
 30
0.0
 10
-29.7782
 20
0.5262
 30
0.0
 10
-29.7782
 20
0.5262
 30
0.0
 10
-29.7782
 20
0.5303
 30
0.0
 10
-29.7782
 20
0.5303
 30
0.0
 10
-29.7782
 20
0.5303
 30
0.0
 10
-29.7782
 20
0.5303
 30
0.0
 10
-29.7782
 20
-0.8611
 30
0.0
 10
-29.7782
 20
-0.8611
 30
0.0
  0
SPLINE
  5
A6
330
1F
100
AcDbEntity
  8
ROUND
 62
   250
100
AcDbSpline
210
0.0
220
0.0
230
1.0
 70
    27
 71
     3
 72
    16
 73
    12
 74
     0
 42
0.0000000001
 43
0.0000000001
 40
0.0
 40
0.0
 40
0.0
 40
0.0
 40
0.25
 40
0.25
 40
0.25
 40
0.25
 40
0.5
 40
0.5
 40
0.5
 40
0.5
 40
1.0
 40
1.0
 40
1.0
 40
1.0
 10
-29.1537
 20
-0.8611
 30
0.0
 10
-29.1537
 20
-0.8611
 30
0.0
 10
-29.1537
 20
0.5256
 30
0.0
 10
-29.1537
 20
0.5256
 30
0.0
 10
-29.1537
 20
0.5256
 30
0.0
 10
-29.1537
 20
0.5256
 30
0.0
 10
-29.1537
 20
0.5303
 30
0.0
 10
-29.1537
 20
0.5303
 30
0.0
 10
-29.1537
 20
0.5303
 30
0.0
 10
-29.1537
 20
0.5303
 30
0.0
 10
-29.1537
 20
-0.8611
 30
0.0
 10
-29.1537
 20
-0.8611
 30
0.0
  0
SPLINE
  5
A7
330
1F
100
AcDbEntity
  8
ROUND
 62
   250
100
AcDbSpline
210
0.0
220
0.0
230
1.0
 70
    27
 71
     3
 72
    16
 73
    12
 74
     0
 42
0.0000000001
 43
0.0000000001
 40
0.0
 40
0.0
 40
0.0
 40
0.0
 40
0.25
 40
0.25
 40
0.25
 40
0.25
 40
0.5
 40
0.5
 40
0.5
 40
0.5
 40
1.0
 40
1.0
 40
1.0
 40
1.0
 10
-28.5185
 20
-0.8611
 30
0.0
 10
-28.5185
 20
-0.8611
 30
0.0
 10
-28.5185
 20
0.5249
 30
0.0
 10
-28.5185
 20
0.5249
 30
0.0
 10
-28.5185
 20
0.5249
 30
0.0
 10
-28.5185
 20
0.5249
 30
0.0
 10
-28.5185
 20
0.5303
 30
0.0
 10
-28.5185
 20
0.5303
 30
0.0
 10
-28.5185
 20
0.5303
 30
0.0
 10
-28.5185
 20
0.5303
 30
0.0
 10
-28.5185
 20
-0.8611
 30
0.0
 10
-28.5185
 20
-0.8611
 30
0.0
  0
SPLINE
  5
A8
330
1F
100
AcDbEntity
  8
ROUND
 62
   250
100
AcDbSpline
210
0.0
220
0.0
230
1.0
 70
    27
 71
     3
 72
    16
 73
    12
 74
     0
 42
0.0000000001
 43
0.0000000001
 40
0.0
 40
0.0
 40
0.0
 40
0.0
 40
0.25
 40
0.25
 40
0.25
 40
0.25
 40
0.5
 40
0.5
 40
0.5
 40
0.5
 40
1.0
 40
1.0
 40
1.0
 40
1.0
 10
-27.5984
 20
-0.8611
 30
0.0
 10
-27.5984
 20
-0.8611
 30
0.0
 10
-27.5984
 20
0.5239
 30
0.0
 10
-27.5984
 20
0.5239
 30
0.0
 10
-27.5984
 20
0.5239
 30
0.0
 10
-27.5984
 20
0.5239
 30
0.0
 10
-27.5984
 20
0.5303
 30
0.0
 10
-27.5984
 20
0.5303
 30
0.0
 10
-27.5984
 20
0.5303
 30
0.0
 10
-27.5984
 20
0.5303
 30
0.0
 10
-27.5984
 20
-0.8611
 30
0.0
 10
-27.5984
 20
-0.8611
 30
0.0
  0
SPLINE
  5
A9
330
1F
100
AcDbEntity
  8
ROUND
 62
   250
100
AcDbSpline
210
0.0
220
0.0
230
1.0
 70
    27
 71
     3
 72
    16
 73
    12
 74
     0
 42
0.0000000001
 43
0.0000000001
 40
0.0
 40
0.0
 40
0.0
 40
0.0
 40
0.25
 40
0.25
 40
0.25
 40
0.25
 40
0.5
 40
0.5
 40
0.5
 40
0.5
 40
1.0
 40
1.0
 40
1.0
 40
1.0
 10
-26.9631
 20
-0.8611
 30
0.0
 10
-26.9631
 20
-0.8611
 30
0.0
 10
-26.9631
 20
0.5232
 30
0.0
 10
-26.9631
 20
0.5232
 30
0.0
 10
-26.9631
 20
0.5232
 30
0.0
 10
-26.9631
 20
0.5232
 30
0.0
 10
-26.9631
 20
0.5303
 30
0.0
 10
-26.9631
 20
0.5303
 30
0.0
 10
-26.9631
 20
0.5303
 30
0.0
 10
-26.9631
 20
0.5303
 30
0.0
 10
-26.9631
 20
-0.8611
 30
0.0
 10
-26.9631
 20
-0.8611
 30
0.0
  0
SPLINE
  5
AA
330
1F
100
AcDbEntity
  8
ROUND
 62
   250
100
AcDbSpline
210
0.0
220
0.0
230
1.0
 70
    27
 71
     3
 72
    16
 73
    12
 74
     0
 42
0.0000000001
 43
0.0000000001
 40
0.0
 40
0.0
 40
0.0
 40
0.0
 40
0.25
 40
0.25
 40
0.25
 40
0.25
 40
0.5
 40
0.5
 40
0.5
 40
0.5
 40
1.0
 40
1.0
 40
1.0
 40
1.0
 10
-26.3386
 20
-0.8611
 30
0.0
 10
-26.3386
 20
-0.8611
 30
0.0
 10
-26.3386
 20
0.5225
 30
0.0
 10
-26.3386
 20
0.5225
 30
0.0
 10
-26.3386
 20
0.5225
 30
0.0
 10
-26.3386
 20
0.5225
 30
0.0
 10
-26.3386
 20
0.5303
 30
0.0
 10
-26.3386
 20
0.5303
 30
0.0
 10
-26.3386
 20
0.5303
 30
0.0
 10
-26.3386
 20
0.5303
 30
0.0
 10
-26.3386
 20
-0.8611
 30
0.0
 10
-26.3386
 20
-0.8611
 30
0.0
  0
SPLINE
  5
AB
330
1F
100
AcDbEntity
  8
ROUND
 62
   250
100
AcDbSpline
210
0.0
220
0.0
230
1.0
 70
    27
 71
     3
 72
    16
 73
    12
 74
     0
 42
0.0000000001
 43
0.0000000001
 40
0.0
 40
0.0
 40
0.0
 40
0.0
 40
0.25
 40
0.25
 40
0.25
 40
0.25
 40
0.5
 40
0.5
 40
0.5
 40
0.5
 40
1.0
 40
1.0
 40
1.0
 40
1.0
 10
-25.7329
 20
-0.8611
 30
0.0
 10
-25.7329
 20
-0.8611
 30
0.0
 10
-25.7329
 20
0.5219
 30
0.0
 10
-25.7329
 20
0.5219
 30
0.0
 10
-25.7329
 20
0.5219
 30
0.0
 10
-25.7329
 20
0.5219
 30
0.0
 10
-25.7329
 20
0.5303
 30
0.0
 10
-25.7329
 20
0.5303
 30
0.0
 10
-25.7329
 20
0.5303
 30
0.0
 10
-25.7329
 20
0.5303
 30
0.0
 10
-25.7329
 20
-0.8611
 30
0.0
 10
-25.7329
 20
-0.8611
 30
0.0
  0
SPLINE
  5
AC
330
1F
100
AcDbEntity
  8
ROUND
 62
   250
100
AcDbSpline
210
0.0
220
0.0
230
1.0
 70
    27
 71
     3
 72
    16
 73
    12
 74
     0
 42
0.0000000001
 43
0.0000000001
 40
0.0
 40
0.0
 40
0.0
 40
0.0
 40
0.25
 40
0.25
 40
0.25
 40
0.25
 40
0.5
 40
0.5
 40
0.5
 40
0.5
 40
1.0
 40
1.0
 40
1.0
 40
1.0
 10
-25.1528
 20
-0.8611
 30
0.0
 10
-25.1528
 20
-0.8611
 30
0.0
 10
-25.1528
 20
0.5213
 30
0.0
 10
-25.1528
 20
0.5213
 30
0.0
 10
-25.1528
 20
0.5213
 30
0.0
 10
-25.1528
 20
0.5213
 30
0.0
 10
-25.1528
 20
0.5303
 30
0.0
 10
-25.1528
 20
0.5303
 30
0.0
 10
-25.1528
 20
0.5303
 30
0.0
 10
-25.1528
 20
0.5303
 30
0.0
 10
-25.1528
 20
-0.8611
 30
0.0
 10
-25.1528
 20
-0.8611
 30
0.0
  0
SPLINE
  5
AD
330
1F
100
AcDbEntity
  8
ROUND
 62
   250
100
AcDbSpline
210
0.0
220
0.0
230
1.0
 70
    27
 71
     3
 72
    12
 73
     8
 74
     0
 42
0.0000000001
 43
0.0000000001
 40
0.0
 40
0.0
 40
0.0
 40
0.0
 40
0.3333333333333333
 40
0.3333333333333333
 40
0.3333333333333333
 40
0.3333333333333333
 40
1.0
 40
1.0
 40
1.0
 40
1.0
 10
-34.184
 20
-0.8611
 30
0.0
 10
-34.184
 20
-0.8611
 30
0.0
 10
-34.184
 20
0.5303
 30
0.0
 10
-34.184
 20
0.5303
 30
0.0
 10
-34.184
 20
0.5303
 30
0.0
 10
-34.184
 20
0.5303
 30
0.0
 10
-34.184
 20
-0.8611
 30
0.0
 10
-34.184
 20
-0.8611
 30
0.0
  0
SPLINE
  5
AE
330
1F
100
AcDbEntity
  8
ROUND
 62
   250
100
AcDbSpline
210
0.0
220
0.0
230
1.0
 70
    11
 71
     3
 72
    20
 73
    16
 74
     0
 42
0.0000000001
 43
0.0000000001
 40
0.0
 40
0.0
 40
0.0
 40
0.0
 40
0.2
 40
0.2
 40
0.2
 40
0.2
 40
0.4
 40
0.4
 40
0.4
 40
0.4
 40
0.6
 40
0.6
 40
0.6
 40
0.6
 40
1.0
 40
1.0
 40
1.0
 40
1.0
 10
-34.017
 20
25.2985
 30
0.0
 10
-34.017
 20
25.2985
 30
0.0
 10
-34.017
 20
25.8454
 30
0.0
 10
-34.017
 20
25.8454
 30
0.0
 10
-34.017
 20
25.8454
 30
0.0
 10
-34.017
 20
25.8454
 30
0.0
 10
-22.0644
 20
25.8454
 30
0.0
 10
-22.0644
 20
25.8454
 30
0.0
 10
-22.0644
 20
25.8454
 30
0.0
 10
-22.0644
 20
25.8454
 30
0.0
 10
-22.0644
 20
25.2985
 30
0.0
 10
-22.0644
 20
25.2985
 30
0.0
 10
-22.0644
 20
25.2985
 30
0.0
 10
-22.0644
 20
25.2985
 30
0.0
 10
-34.017
 20
25.2985
 30
0.0
 10
-34.017
 20
25.2985
 30
0.0
  0
SPLINE
  5
AF
330
1F
100
AcDbEntity
  8
ROUND
 62
   250
100
AcDbSpline
210
0.0
220
0.0
230
1.0
 70
     8
 71
     3
 72
     8
 73
     4
 74
     0
 42
0.0000000001
 43
0.0000000001
 40
0.0
 40
0.0
 40
0.0
 40
0.0
 40
1.0
 40
1.0
 40
1.0
 40
1.0
 10
-22.7428
 20
23.0899
 30
0.0
 10
-22.3582
 20
23.0899
 30
0.0
 10
-22.0465
 20
23.4016
 30
0.0
 10
-22.0465
 20
23.7862
 30
0.0
  0
SPLINE
  5
B0
330
1F
100
AcDbEntity
  8
ROUND
 62
   250
100
AcDbSpline
210
0.0
220
0.0
230
1.0
 70
     8
 71
     3
 72
   124
 73
   120
 74
     0
 42
0.0000000001
 43
0.0000000001
 40
0.0
 40
0.0
 40
0.0
 40
0.0
 40
0.032258064516129
 40
0.032258064516129
 40
0.032258064516129
 40
0.032258064516129
 40
0.0645161290322581
 40
0.0645161290322581
 40
0.0645161290322581
 40
0.0645161290322581
 40
0.0967741935483871
 40
0.0967741935483871
 40
0.0967741935483871
 40
0.0967741935483871
 40
0.1290322580645161
 40
0.1290322580645161
 40
0.1290322580645161
 40
0.1290322580645161
 40
0.1612903225806452
 40
0.1612903225806452
 40
0.1612903225806452
 40
0.1612903225806452
 40
0.1935483870967742
 40
0.1935483870967742
 40
0.1935483870967742
 40
0.1935483870967742
 40
0.2258064516129032
 40
0.2258064516129032
 40
0.2258064516129032
 40
0.2258064516129032
 40
0.2580645161290323
 40
0.2580645161290323
 40
0.2580645161290323
 40
0.2580645161290323
 40
0.2903225806451613
 40
0.2903225806451613
 40
0.2903225806451613
 40
0.2903225806451613
 40
0.3225806451612903
 40
0.3225806451612903
 40
0.3225806451612903
 40
0.3225806451612903
 40
0.3548387096774194
 40
0.3548387096774194
 40
0.3548387096774194
 40
0.3548387096774194
 40
0.3870967741935484
 40
0.3870967741935484
 40
0.3870967741935484
 40
0.3870967741935484
 40
0.4193548387096774
 40
0.4193548387096774
 40
0.4193548387096774
 40
0.4193548387096774
 40
0.4516129032258064
 40
0.4516129032258064
 40
0.4516129032258064
 40
0.4516129032258064
 40
0.4838709677419355
 40
0.4838709677419355
 40
0.4838709677419355
 40
0.4838709677419355
 40
0.5161290322580645
 40
0.5161290322580645
 40
0.5161290322580645
 40
0.5161290322580645
 40
0.5483870967741935
 40
0.5483870967741935
 40
0.5483870967741935
 40
0.5483870967741935
 40
0.5806451612903226
 40
0.5806451612903226
 40
0.5806451612903226
 40
0.5806451612903226
 40
0.6129032258064516
 40
0.6129032258064516
 40
0.6129032258064516
 40
0.6129032258064516
 40
0.6451612903225806
 40
0.6451612903225806
 40
0.6451612903225806
 40
0.6451612903225806
 40
0.6774193548387096
 40
0.6774193548387096
 40
0.6774193548387096
 40
0.6774193548387096
 40
0.7096774193548387
 40
0.7096774193548387
 40
0.7096774193548387
 40
0.7096774193548387
 40
0.7419354838709677
 40
0.7419354838709677
 40
0.7419354838709677
 40
0.7419354838709677
 40
0.7741935483870968
 40
0.7741935483870968
 40
0.7741935483870968
 40
0.7741935483870968
 40
0.8064516129032258
 40
0.8064516129032258
 40
0.8064516129032258
 40
0.8064516129032258
 40
0.8387096774193549
 40
0.8387096774193549
 40
0.8387096774193549
 40
0.8387096774193549
 40
0.8709677419354839
 40
0.8709677419354839
 40
0.8709677419354839
 40
0.8709677419354839
 40
0.9032258064516129
 40
0.9032258064516129
 40
0.9032258064516129
 40
0.9032258064516129
 40
0.9354838709677419
 40
0.9354838709677419
 40
0.9354838709677419
 40
0.9354838709677419
 40
1.0
 40
1.0
 40
1.0
 40
1.0
 10
-22.0465
 20
23.7862
 30
0.0
 10
-22.0465
 20
23.7862
 30
0.0
 10
-22.0379
 20
23.9257
 30
0.0
 10
-22.0379
 20
23.9257
 30
0.0
 10
-22.0379
 20
23.9257
 30
0.0
 10
-22.0379
 20
23.9257
 30
0.0
 10
-22.8211
 20
23.9265
 30
0.0
 10
-22.8211
 20
23.9265
 30
0.0
 10
-22.8211
 20
23.9265
 30
0.0
 10
-22.8211
 20
23.9265
 30
0.0
 10
-23.1862
 20
23.9269
 30
0.0
 10
-23.1862
 20
23.9269
 30
0.0
 10
-23.1862
 20
23.9269
 30
0.0
 10
-23.1862
 20
23.9269
 30
0.0
 10
-23.6051
 20
23.9274
 30
0.0
 10
-23.6051
 20
23.9274
 30
0.0
 10
-23.6051
 20
23.9274
 30
0.0
 10
-23.6051
 20
23.9274
 30
0.0
 10
-24.0711
 20
23.9279
 30
0.0
 10
-24.0711
 20
23.9279
 30
0.0
 10
-24.0711
 20
23.9279
 30
0.0
 10
-24.0711
 20
23.9279
 30
0.0
 10
-24.5817
 20
23.9284
 30
0.0
 10
-24.5817
 20
23.9284
 30
0.0
 10
-24.5817
 20
23.9284
 30
0.0
 10
-24.5817
 20
23.9284
 30
0.0
 10
-25.1301
 20
23.929
 30
0.0
 10
-25.1301
 20
23.929
 30
0.0
 10
-25.1301
 20
23.929
 30
0.0
 10
-25.1301
 20
23.929
 30
0.0
 10
-25.7091
 20
23.9296
 30
0.0
 10
-25.7091
 20
23.9296
 30
0.0
 10
-25.7091
 20
23.9296
 30
0.0
 10
-25.7091
 20
23.9296
 30
0.0
 10
-26.3152
 20
23.9303
 30
0.0
 10
-26.3152
 20
23.9303
 30
0.0
 10
-26.3152
 20
23.9303
 30
0.0
 10
-26.3152
 20
23.9303
 30
0.0
 10
-26.9397
 20
23.9309
 30
0.0
 10
-26.9397
 20
23.9309
 30
0.0
 10
-26.9397
 20
23.9309
 30
0.0
 10
-26.9397
 20
23.9309
 30
0.0
 10
-27.5749
 20
23.9316
 30
0.0
 10
-27.5749
 20
23.9316
 30
0.0
 10
-27.5749
 20
23.9316
 30
0.0
 10
-27.5749
 20
23.9316
 30
0.0
 10
-28.495
 20
23.9326
 30
0.0
 10
-28.495
 20
23.9326
 30
0.0
 10
-28.495
 20
23.9326
 30
0.0
 10
-28.495
 20
23.9326
 30
0.0
 10
-29.1303
 20
23.9333
 30
0.0
 10
-29.1303
 20
23.9333
 30
0.0
 10
-29.1303
 20
23.9333
 30
0.0
 10
-29.1303
 20
23.9333
 30
0.0
 10
-29.7548
 20
23.934
 30
0.0
 10
-29.7548
 20
23.934
 30
0.0
 10
-29.7548
 20
23.934
 30
0.0
 10
-29.7548
 20
23.934
 30
0.0
 10
-30.3605
 20
23.9346
 30
0.0
 10
-30.3605
 20
23.9346
 30
0.0
 10
-30.3605
 20
23.9346
 30
0.0
 10
-30.3605
 20
23.9346
 30
0.0
 10
-30.9406
 20
23.9352
 30
0.0
 10
-30.9406
 20
23.9352
 30
0.0
 10
-30.9406
 20
23.9352
 30
0.0
 10
-30.9406
 20
23.9352
 30
0.0
 10
-31.4885
 20
23.9358
 30
0.0
 10
-31.4885
 20
23.9358
 30
0.0
 10
-31.4885
 20
23.9358
 30
0.0
 10
-31.4885
 20
23.9358
 30
0.0
 10
-31.9983
 20
23.9364
 30
0.0
 10
-31.9983
 20
23.9364
 30
0.0
 10
-31.9983
 20
23.9364
 30
0.0
 10
-31.9983
 20
23.9364
 30
0.0
 10
-32.4657
 20
23.9369
 30
0.0
 10
-32.4657
 20
23.9369
 30
0.0
 10
-32.4657
 20
23.9369
 30
0.0
 10
-32.4657
 20
23.9369
 30
0.0
 10
-32.8836
 20
23.9373
 30
0.0
 10
-32.8836
 20
23.9373
 30
0.0
 10
-32.8836
 20
23.9373
 30
0.0
 10
-32.8836
 20
23.9373
 30
0.0
 10
-33.2475
 20
23.9377
 30
0.0
 10
-33.2475
 20
23.9377
 30
0.0
 10
-33.2475
 20
23.9377
 30
0.0
 10
-33.2475
 20
23.9377
 30
0.0
 10
-33.7046
 20
23.9382
 30
0.0
 10
-33.7046
 20
23.9382
 30
0.0
 10
-33.7046
 20
23.9382
 30
0.0
 10
-33.7046
 20
23.9382
 30
0.0
 10
-34.0922
 20
23.9386
 30
0.0
 10
-34.0922
 20
23.9386
 30
0.0
 10
-34.0922
 20
23.9386
 30
0.0
 10
-34.0922
 20
23.9386
 30
0.0
 10
-34.0794
 20
23.6937
 30
0.0
 10
-34.0794
 20
23.6937
 30
0.0
 10
-34.0794
 20
23.6937
 30
0.0
 10
-34.0794
 20
23.6937
 30
0.0
 10
-33.9893
 20
23.4617
 30
0.0
 10
-33.9893
 20
23.4617
 30
0.0
 10
-33.9893
 20
23.4617
 30
0.0
 10
-33.9893
 20
23.4617
 30
0.0
 10
-33.8607
 20
23.2941
 30
0.0
 10
-33.8607
 20
23.2941
 30
0.0
 10
-33.8607
 20
23.2941
 30
0.0
 10
-33.8607
 20
23.2941
 30
0.0
 10
-33.6162
 20
23.1523
 30
0.0
 10
-33.6162
 20
23.1523
 30
0.0
 10
-33.6162
 20
23.1523
 30
0.0
 10
-33.6162
 20
23.1523
 30
0.0
 10
-33.4876
 20
23.0878
 30
0.0
 10
-33.4876
 20
23.0878
 30
0.0
 10
-33.4876
 20
23.0878
 30
0.0
 10
-33.4876
 20
23.0878
 30
0.0
 10
-33.3975
 20
23.0878
 30
0.0
 10
-33.3975
 20
23.0878
 30
0.0
 10
-33.3975
 20
23.0878
 30
0.0
 10
-33.3975
 20
23.0878
 30
0.0
 10
-22.7428
 20
23.0899
 30
0.0
 10
-22.7428
 20
23.0899
 30
0.0
  0
SPLINE
  5
B1
330
1F
100
AcDbEntity
  8
ROUND
 62
   250
100
AcDbSpline
210
0.0
220
0.0
230
1.0
 70
    27
 71
     3
 72
    12
 73
     8
 74
     0
 42
0.0000000001
 43
0.0000000001
 40
0.0
 40
0.0
 40
0.0
 40
0.0
 40
0.3333333333333333
 40
0.3333333333333333
 40
0.3333333333333333
 40
0.3333333333333333
 40
1.0
 40
1.0
 40
1.0
 40
1.0
 10
-34.1599
 20
25.3176
 30
0.0
 10
-34.1599
 20
25.3176
 30
0.0
 10
-34.1599
 20
23.9262
 30
0.0
 10
-34.1599
 20
23.9262
 30
0.0
 10
-34.1599
 20
23.9262
 30
0.0
 10
-34.1599
 20
23.9262
 30
0.0
 10
-34.1599
 20
25.3176
 30
0.0
 10
-34.1599
 20
25.3176
 30
0.0
  0
SPLINE
  5
B2
330
1F
100
AcDbEntity
  8
ROUND
 62
   250
100
AcDbSpline
210
0.0
220
0.0
230
1.0
 70
    27
 71
     3
 72
    16
 73
    12
 74
     0
 42
0.0000000001
 43
0.0000000001
 40
0.0
 40
0.0
 40
0.0
 40
0.0
 40
0.25
 40
0.25
 40
0.25
 40
0.25
 40
0.5
 40
0.5
 40
0.5
 40
0.5
 40
1.0
 40
1.0
 40
1.0
 40
1.0
 10
-31.9983
 20
25.3176
 30
0.0
 10
-31.9983
 20
25.3176
 30
0.0
 10
-31.9983
 20
23.9364
 30
0.0
 10
-31.9983
 20
23.9364
 30
0.0
 10
-31.9983
 20
23.9364
 30
0.0
 10
-31.9983
 20
23.9364
 30
0.0
 10
-31.9983
 20
23.9262
 30
0.0
 10
-31.9983
 20
23.9262
 30
0.0
 10
-31.9983
 20
23.9262
 30
0.0
 10
-31.9983
 20
23.9262
 30
0.0
 10
-31.9983
 20
25.3176
 30
0.0
 10
-31.9983
 20
25.3176
 30
0.0
  0
SPLINE
  5
B3
330
1F
100
AcDbEntity
  8
ROUND
 62
   250
100
AcDbSpline
210
0.0
220
0.0
230
1.0
 70
    27
 71
     3
 72
    16
 73
    12
 74
     0
 42
0.0000000001
 43
0.0000000001
 40
0.0
 40
0.0
 40
0.0
 40
0.0
 40
0.25
 40
0.25
 40
0.25
 40
0.25
 40
0.5
 40
0.5
 40
0.5
 40
0.5
 40
1.0
 40
1.0
 40
1.0
 40
1.0
 10
-32.4657
 20
25.3176
 30
0.0
 10
-32.4657
 20
25.3176
 30
0.0
 10
-32.4657
 20
23.9369
 30
0.0
 10
-32.4657
 20
23.9369
 30
0.0
 10
-32.4657
 20
23.9369
 30
0.0
 10
-32.4657
 20
23.9369
 30
0.0
 10
-32.4657
 20
23.9262
 30
0.0
 10
-32.4657
 20
23.9262
 30
0.0
 10
-32.4657
 20
23.9262
 30
0.0
 10
-32.4657
 20
23.9262
 30
0.0
 10
-32.4657
 20
25.3176
 30
0.0
 10
-32.4657
 20
25.3176
 30
0.0
  0
SPLINE
  5
B4
330
1F
100
AcDbEntity
  8
ROUND
 62
   250
100
AcDbSpline
210
0.0
220
0.0
230
1.0
 70
    27
 71
     3
 72
    16
 73
    12
 74
     0
 42
0.0000000001
 43
0.0000000001
 40
0.0
 40
0.0
 40
0.0
 40
0.0
 40
0.25
 40
0.25
 40
0.25
 40
0.25
 40
0.5
 40
0.5
 40
0.5
 40
0.5
 40
1.0
 40
1.0
 40
1.0
 40
1.0
 10
-32.8836
 20
25.3176
 30
0.0
 10
-32.8836
 20
25.3176
 30
0.0
 10
-32.8836
 20
23.9373
 30
0.0
 10
-32.8836
 20
23.9373
 30
0.0
 10
-32.8836
 20
23.9373
 30
0.0
 10
-32.8836
 20
23.9373
 30
0.0
 10
-32.8836
 20
23.9262
 30
0.0
 10
-32.8836
 20
23.9262
 30
0.0
 10
-32.8836
 20
23.9262
 30
0.0
 10
-32.8836
 20
23.9262
 30
0.0
 10
-32.8836
 20
25.3176
 30
0.0
 10
-32.8836
 20
25.3176
 30
0.0
  0
SPLINE
  5
B5
330
1F
100
AcDbEntity
  8
ROUND
 62
   250
100
AcDbSpline
210
0.0
220
0.0
230
1.0
 70
    27
 71
     3
 72
    16
 73
    12
 74
     0
 42
0.0000000001
 43
0.0000000001
 40
0.0
 40
0.0
 40
0.0
 40
0.0
 40
0.25
 40
0.25
 40
0.25
 40
0.25
 40
0.5
 40
0.5
 40
0.5
 40
0.5
 40
1.0
 40
1.0
 40
1.0
 40
1.0
 10
-33.2475
 20
25.3176
 30
0.0
 10
-33.2475
 20
25.3176
 30
0.0
 10
-33.2475
 20
23.9377
 30
0.0
 10
-33.2475
 20
23.9377
 30
0.0
 10
-33.2475
 20
23.9377
 30
0.0
 10
-33.2475
 20
23.9377
 30
0.0
 10
-33.2475
 20
23.9262
 30
0.0
 10
-33.2475
 20
23.9262
 30
0.0
 10
-33.2475
 20
23.9262
 30
0.0
 10
-33.2475
 20
23.9262
 30
0.0
 10
-33.2475
 20
25.3176
 30
0.0
 10
-33.2475
 20
25.3176
 30
0.0
  0
SPLINE
  5
B6
330
1F
100
AcDbEntity
  8
ROUND
 62
   250
100
AcDbSpline
210
0.0
220
0.0
230
1.0
 70
    27
 71
     3
 72
    16
 73
    12
 74
     0
 42
0.0000000001
 43
0.0000000001
 40
0.0
 40
0.0
 40
0.0
 40
0.0
 40
0.25
 40
0.25
 40
0.25
 40
0.25
 40
0.5
 40
0.5
 40
0.5
 40
0.5
 40
1.0
 40
1.0
 40
1.0
 40
1.0
 10
-33.7046
 20
25.3176
 30
0.0
 10
-33.7046
 20
25.3176
 30
0.0
 10
-33.7046
 20
23.9382
 30
0.0
 10
-33.7046
 20
23.9382
 30
0.0
 10
-33.7046
 20
23.9382
 30
0.0
 10
-33.7046
 20
23.9382
 30
0.0
 10
-33.7046
 20
23.9262
 30
0.0
 10
-33.7046
 20
23.9262
 30
0.0
 10
-33.7046
 20
23.9262
 30
0.0
 10
-33.7046
 20
23.9262
 30
0.0
 10
-33.7046
 20
25.3176
 30
0.0
 10
-33.7046
 20
25.3176
 30
0.0
  0
SPLINE
  5
B7
330
1F
100
AcDbEntity
  8
ROUND
 62
   250
100
AcDbSpline
210
0.0
220
0.0
230
1.0
 70
    27
 71
     3
 72
    16
 73
    12
 74
     0
 42
0.0000000001
 43
0.0000000001
 40
0.0
 40
0.0
 40
0.0
 40
0.0
 40
0.25
 40
0.25
 40
0.25
 40
0.25
 40
0.5
 40
0.5
 40
0.5
 40
0.5
 40
1.0
 40
1.0
 40
1.0
 40
1.0
 10
-31.4885
 20
25.3176
 30
0.0
 10
-31.4885
 20
25.3176
 30
0.0
 10
-31.4885
 20
23.9358
 30
0.0
 10
-31.4885
 20
23.9358
 30
0.0
 10
-31.4885
 20
23.9358
 30
0.0
 10
-31.4885
 20
23.9358
 30
0.0
 10
-31.4885
 20
23.9262
 30
0.0
 10
-31.4885
 20
23.9262
 30
0.0
 10
-31.4885
 20
23.9262
 30
0.0
 10
-31.4885
 20
23.9262
 30
0.0
 10
-31.4885
 20
25.3176
 30
0.0
 10
-31.4885
 20
25.3176
 30
0.0
  0
SPLINE
  5
B8
330
1F
100
AcDbEntity
  8
ROUND
 62
   250
100
AcDbSpline
210
0.0
220
0.0
230
1.0
 70
    27
 71
     3
 72
    12
 73
     8
 74
     0
 42
0.0000000001
 43
0.0000000001
 40
0.0
 40
0.0
 40
0.0
 40
0.0
 40
0.3333333333333333
 40
0.3333333333333333
 40
0.3333333333333333
 40
0.3333333333333333
 40
1.0
 40
1.0
 40
1.0
 40
1.0
 10
-22.3658
 20
25.3176
 30
0.0
 10
-22.3658
 20
25.3176
 30
0.0
 10
-22.3658
 20
23.9262
 30
0.0
 10
-22.3658
 20
23.9262
 30
0.0
 10
-22.3658
 20
23.9262
 30
0.0
 10
-22.3658
 20
23.9262
 30
0.0
 10
-22.3658
 20
25.3176
 30
0.0
 10
-22.3658
 20
25.3176
 30
0.0
  0
SPLINE
  5
B9
330
1F
100
AcDbEntity
  8
ROUND
 62
   250
100
AcDbSpline
210
0.0
220
0.0
230
1.0
 70
    27
 71
     3
 72
    16
 73
    12
 74
     0
 42
0.0000000001
 43
0.0000000001
 40
0.0
 40
0.0
 40
0.0
 40
0.0
 40
0.25
 40
0.25
 40
0.25
 40
0.25
 40
0.5
 40
0.5
 40
0.5
 40
0.5
 40
1.0
 40
1.0
 40
1.0
 40
1.0
 10
-22.8211
 20
25.3176
 30
0.0
 10
-22.8211
 20
25.3176
 30
0.0
 10
-22.8211
 20
23.9265
 30
0.0
 10
-22.8211
 20
23.9265
 30
0.0
 10
-22.8211
 20
23.9265
 30
0.0
 10
-22.8211
 20
23.9265
 30
0.0
 10
-22.8211
 20
23.9262
 30
0.0
 10
-22.8211
 20
23.9262
 30
0.0
 10
-22.8211
 20
23.9262
 30
0.0
 10
-22.8211
 20
23.9262
 30
0.0
 10
-22.8211
 20
25.3176
 30
0.0
 10
-22.8211
 20
25.3176
 30
0.0
  0
SPLINE
  5
BA
330
1F
100
AcDbEntity
  8
ROUND
 62
   250
100
AcDbSpline
210
0.0
220
0.0
230
1.0
 70
    27
 71
     3
 72
    16
 73
    12
 74
     0
 42
0.0000000001
 43
0.0000000001
 40
0.0
 40
0.0
 40
0.0
 40
0.0
 40
0.25
 40
0.25
 40
0.25
 40
0.25
 40
0.5
 40
0.5
 40
0.5
 40
0.5
 40
1.0
 40
1.0
 40
1.0
 40
1.0
 10
-23.1862
 20
25.3176
 30
0.0
 10
-23.1862
 20
25.3176
 30
0.0
 10
-23.1862
 20
23.9269
 30
0.0
 10
-23.1862
 20
23.9269
 30
0.0
 10
-23.1862
 20
23.9269
 30
0.0
 10
-23.1862
 20
23.9269
 30
0.0
 10
-23.1862
 20
23.9262
 30
0.0
 10
-23.1862
 20
23.9262
 30
0.0
 10
-23.1862
 20
23.9262
 30
0.0
 10
-23.1862
 20
23.9262
 30
0.0
 10
-23.1862
 20
25.3176
 30
0.0
 10
-23.1862
 20
25.3176
 30
0.0
  0
SPLINE
  5
BB
330
1F
100
AcDbEntity
  8
ROUND
 62
   250
100
AcDbSpline
210
0.0
220
0.0
230
1.0
 70
    27
 71
     3
 72
    16
 73
    12
 74
     0
 42
0.0000000001
 43
0.0000000001
 40
0.0
 40
0.0
 40
0.0
 40
0.0
 40
0.25
 40
0.25
 40
0.25
 40
0.25
 40
0.5
 40
0.5
 40
0.5
 40
0.5
 40
1.0
 40
1.0
 40
1.0
 40
1.0
 10
-23.6051
 20
25.3176
 30
0.0
 10
-23.6051
 20
25.3176
 30
0.0
 10
-23.6051
 20
23.9274
 30
0.0
 10
-23.6051
 20
23.9274
 30
0.0
 10
-23.6051
 20
23.9274
 30
0.0
 10
-23.6051
 20
23.9274
 30
0.0
 10
-23.6051
 20
23.9262
 30
0.0
 10
-23.6051
 20
23.9262
 30
0.0
 10
-23.6051
 20
23.9262
 30
0.0
 10
-23.6051
 20
23.9262
 30
0.0
 10
-23.6051
 20
25.3176
 30
0.0
 10
-23.6051
 20
25.3176
 30
0.0
  0
SPLINE
  5
BC
330
1F
100
AcDbEntity
  8
ROUND
 62
   250
100
AcDbSpline
210
0.0
220
0.0
230
1.0
 70
    27
 71
     3
 72
    16
 73
    12
 74
     0
 42
0.0000000001
 43
0.0000000001
 40
0.0
 40
0.0
 40
0.0
 40
0.0
 40
0.25
 40
0.25
 40
0.25
 40
0.25
 40
0.5
 40
0.5
 40
0.5
 40
0.5
 40
1.0
 40
1.0
 40
1.0
 40
1.0
 10
-24.0711
 20
25.3176
 30
0.0
 10
-24.0711
 20
25.3176
 30
0.0
 10
-24.0711
 20
23.9279
 30
0.0
 10
-24.0711
 20
23.9279
 30
0.0
 10
-24.0711
 20
23.9279
 30
0.0
 10
-24.0711
 20
23.9279
 30
0.0
 10
-24.0711
 20
23.9262
 30
0.0
 10
-24.0711
 20
23.9262
 30
0.0
 10
-24.0711
 20
23.9262
 30
0.0
 10
-24.0711
 20
23.9262
 30
0.0
 10
-24.0711
 20
25.3176
 30
0.0
 10
-24.0711
 20
25.3176
 30
0.0
  0
SPLINE
  5
BD
330
1F
100
AcDbEntity
  8
ROUND
 62
   250
100
AcDbSpline
210
0.0
220
0.0
230
1.0
 70
    27
 71
     3
 72
    16
 73
    12
 74
     0
 42
0.0000000001
 43
0.0000000001
 40
0.0
 40
0.0
 40
0.0
 40
0.0
 40
0.25
 40
0.25
 40
0.25
 40
0.25
 40
0.5
 40
0.5
 40
0.5
 40
0.5
 40
1.0
 40
1.0
 40
1.0
 40
1.0
 10
-24.5817
 20
25.3176
 30
0.0
 10
-24.5817
 20
25.3176
 30
0.0
 10
-24.5817
 20
23.9284
 30
0.0
 10
-24.5817
 20
23.9284
 30
0.0
 10
-24.5817
 20
23.9284
 30
0.0
 10
-24.5817
 20
23.9284
 30
0.0
 10
-24.5817
 20
23.9262
 30
0.0
 10
-24.5817
 20
23.9262
 30
0.0
 10
-24.5817
 20
23.9262
 30
0.0
 10
-24.5817
 20
23.9262
 30
0.0
 10
-24.5817
 20
25.3176
 30
0.0
 10
-24.5817
 20
25.3176
 30
0.0
  0
SPLINE
  5
BE
330
1F
100
AcDbEntity
  8
ROUND
 62
   250
100
AcDbSpline
210
0.0
220
0.0
230
1.0
 70
    27
 71
     3
 72
    16
 73
    12
 74
     0
 42
0.0000000001
 43
0.0000000001
 40
0.0
 40
0.0
 40
0.0
 40
0.0
 40
0.25
 40
0.25
 40
0.25
 40
0.25
 40
0.5
 40
0.5
 40
0.5
 40
0.5
 40
1.0
 40
1.0
 40
1.0
 40
1.0
 10
-25.1301
 20
25.3176
 30
0.0
 10
-25.1301
 20
25.3176
 30
0.0
 10
-25.1301
 20
23.929
 30
0.0
 10
-25.1301
 20
23.929
 30
0.0
 10
-25.1301
 20
23.929
 30
0.0
 10
-25.1301
 20
23.929
 30
0.0
 10
-25.1301
 20
23.9262
 30
0.0
 10
-25.1301
 20
23.9262
 30
0.0
 10
-25.1301
 20
23.9262
 30
0.0
 10
-25.1301
 20
23.9262
 30
0.0
 10
-25.1301
 20
25.3176
 30
0.0
 10
-25.1301
 20
25.3176
 30
0.0
  0
SPLINE
  5
BF
330
1F
100
AcDbEntity
  8
ROUND
 62
   250
100
AcDbSpline
210
0.0
220
0.0
230
1.0
 70
    27
 71
     3
 72
    16
 73
    12
 74
     0
 42
0.0000000001
 43
0.0000000001
 40
0.0
 40
0.0
 40
0.0
 40
0.0
 40
0.25
 40
0.25
 40
0.25
 40
0.25
 40
0.5
 40
0.5
 40
0.5
 40
0.5
 40
1.0
 40
1.0
 40
1.0
 40
1.0
 10
-25.7091
 20
25.3176
 30
0.0
 10
-25.7091
 20
25.3176
 30
0.0
 10
-25.7091
 20
23.9296
 30
0.0
 10
-25.7091
 20
23.9296
 30
0.0
 10
-25.7091
 20
23.9296
 30
0.0
 10
-25.7091
 20
23.9296
 30
0.0
 10
-25.7091
 20
23.9262
 30
0.0
 10
-25.7091
 20
23.9262
 30
0.0
 10
-25.7091
 20
23.9262
 30
0.0
 10
-25.7091
 20
23.9262
 30
0.0
 10
-25.7091
 20
25.3176
 30
0.0
 10
-25.7091
 20
25.3176
 30
0.0
  0
SPLINE
  5
C0
330
1F
100
AcDbEntity
  8
ROUND
 62
   250
100
AcDbSpline
210
0.0
220
0.0
230
1.0
 70
    27
 71
     3
 72
    16
 73
    12
 74
     0
 42
0.0000000001
 43
0.0000000001
 40
0.0
 40
0.0
 40
0.0
 40
0.0
 40
0.25
 40
0.25
 40
0.25
 40
0.25
 40
0.5
 40
0.5
 40
0.5
 40
0.5
 40
1.0
 40
1.0
 40
1.0
 40
1.0
 10
-26.3152
 20
25.3176
 30
0.0
 10
-26.3152
 20
25.3176
 30
0.0
 10
-26.3152
 20
23.9303
 30
0.0
 10
-26.3152
 20
23.9303
 30
0.0
 10
-26.3152
 20
23.9303
 30
0.0
 10
-26.3152
 20
23.9303
 30
0.0
 10
-26.3152
 20
23.9262
 30
0.0
 10
-26.3152
 20
23.9262
 30
0.0
 10
-26.3152
 20
23.9262
 30
0.0
 10
-26.3152
 20
23.9262
 30
0.0
 10
-26.3152
 20
25.3176
 30
0.0
 10
-26.3152
 20
25.3176
 30
0.0
  0
SPLINE
  5
C1
330
1F
100
AcDbEntity
  8
ROUND
 62
   250
100
AcDbSpline
210
0.0
220
0.0
230
1.0
 70
    27
 71
     3
 72
    16
 73
    12
 74
     0
 42
0.0000000001
 43
0.0000000001
 40
0.0
 40
0.0
 40
0.0
 40
0.0
 40
0.25
 40
0.25
 40
0.25
 40
0.25
 40
0.5
 40
0.5
 40
0.5
 40
0.5
 40
1.0
 40
1.0
 40
1.0
 40
1.0
 10
-26.9397
 20
25.3176
 30
0.0
 10
-26.9397
 20
25.3176
 30
0.0
 10
-26.9397
 20
23.9309
 30
0.0
 10
-26.9397
 20
23.9309
 30
0.0
 10
-26.9397
 20
23.9309
 30
0.0
 10
-26.9397
 20
23.9309
 30
0.0
 10
-26.9397
 20
23.9262
 30
0.0
 10
-26.9397
 20
23.9262
 30
0.0
 10
-26.9397
 20
23.9262
 30
0.0
 10
-26.9397
 20
23.9262
 30
0.0
 10
-26.9397
 20
25.3176
 30
0.0
 10
-26.9397
 20
25.3176
 30
0.0
  0
SPLINE
  5
C2
330
1F
100
AcDbEntity
  8
ROUND
 62
   250
100
AcDbSpline
210
0.0
220
0.0
230
1.0
 70
    27
 71
     3
 72
    16
 73
    12
 74
     0
 42
0.0000000001
 43
0.0000000001
 40
0.0
 40
0.0
 40
0.0
 40
0.0
 40
0.25
 40
0.25
 40
0.25
 40
0.25
 40
0.5
 40
0.5
 40
0.5
 40
0.5
 40
1.0
 40
1.0
 40
1.0
 40
1.0
 10
-27.5749
 20
25.3176
 30
0.0
 10
-27.5749
 20
25.3176
 30
0.0
 10
-27.5749
 20
23.9316
 30
0.0
 10
-27.5749
 20
23.9316
 30
0.0
 10
-27.5749
 20
23.9316
 30
0.0
 10
-27.5749
 20
23.9316
 30
0.0
 10
-27.5749
 20
23.9262
 30
0.0
 10
-27.5749
 20
23.9262
 30
0.0
 10
-27.5749
 20
23.9262
 30
0.0
 10
-27.5749
 20
23.9262
 30
0.0
 10
-27.5749
 20
25.3176
 30
0.0
 10
-27.5749
 20
25.3176
 30
0.0
  0
SPLINE
  5
C3
330
1F
100
AcDbEntity
  8
ROUND
 62
   250
100
AcDbSpline
210
0.0
220
0.0
230
1.0
 70
    27
 71
     3
 72
    16
 73
    12
 74
     0
 42
0.0000000001
 43
0.0000000001
 40
0.0
 40
0.0
 40
0.0
 40
0.0
 40
0.25
 40
0.25
 40
0.25
 40
0.25
 40
0.5
 40
0.5
 40
0.5
 40
0.5
 40
1.0
 40
1.0
 40
1.0
 40
1.0
 10
-28.495
 20
25.3176
 30
0.0
 10
-28.495
 20
25.3176
 30
0.0
 10
-28.495
 20
23.9326
 30
0.0
 10
-28.495
 20
23.9326
 30
0.0
 10
-28.495
 20
23.9326
 30
0.0
 10
-28.495
 20
23.9326
 30
0.0
 10
-28.495
 20
23.9262
 30
0.0
 10
-28.495
 20
23.9262
 30
0.0
 10
-28.495
 20
23.9262
 30
0.0
 10
-28.495
 20
23.9262
 30
0.0
 10
-28.495
 20
25.3176
 30
0.0
 10
-28.495
 20
25.3176
 30
0.0
  0
SPLINE
  5
C4
330
1F
100
AcDbEntity
  8
ROUND
 62
   250
100
AcDbSpline
210
0.0
220
0.0
230
1.0
 70
    27
 71
     3
 72
    16
 73
    12
 74
     0
 42
0.0000000001
 43
0.0000000001
 40
0.0
 40
0.0
 40
0.0
 40
0.0
 40
0.25
 40
0.25
 40
0.25
 40
0.25
 40
0.5
 40
0.5
 40
0.5
 40
0.5
 40
1.0
 40
1.0
 40
1.0
 40
1.0
 10
-29.1303
 20
25.3176
 30
0.0
 10
-29.1303
 20
25.3176
 30
0.0
 10
-29.1303
 20
23.9333
 30
0.0
 10
-29.1303
 20
23.9333
 30
0.0
 10
-29.1303
 20
23.9333
 30
0.0
 10
-29.1303
 20
23.9333
 30
0.0
 10
-29.1303
 20
23.9262
 30
0.0
 10
-29.1303
 20
23.9262
 30
0.0
 10
-29.1303
 20
23.9262
 30
0.0
 10
-29.1303
 20
23.9262
 30
0.0
 10
-29.1303
 20
25.3176
 30
0.0
 10
-29.1303
 20
25.3176
 30
0.0
  0
SPLINE
  5
C5
330
1F
100
AcDbEntity
  8
ROUND
 62
   250
100
AcDbSpline
210
0.0
220
0.0
230
1.0
 70
    27
 71
     3
 72
    16
 73
    12
 74
     0
 42
0.0000000001
 43
0.0000000001
 40
0.0
 40
0.0
 40
0.0
 40
0.0
 40
0.25
 40
0.25
 40
0.25
 40
0.25
 40
0.5
 40
0.5
 40
0.5
 40
0.5
 40
1.0
 40
1.0
 40
1.0
 40
1.0
 10
-29.7548
 20
25.3176
 30
0.0
 10
-29.7548
 20
25.3176
 30
0.0
 10
-29.7548
 20
23.934
 30
0.0
 10
-29.7548
 20
23.934
 30
0.0
 10
-29.7548
 20
23.934
 30
0.0
 10
-29.7548
 20
23.934
 30
0.0
 10
-29.7548
 20
23.9262
 30
0.0
 10
-29.7548
 20
23.9262
 30
0.0
 10
-29.7548
 20
23.9262
 30
0.0
 10
-29.7548
 20
23.9262
 30
0.0
 10
-29.7548
 20
25.3176
 30
0.0
 10
-29.7548
 20
25.3176
 30
0.0
  0
SPLINE
  5
C6
330
1F
100
AcDbEntity
  8
ROUND
 62
   250
100
AcDbSpline
210
0.0
220
0.0
230
1.0
 70
    27
 71
     3
 72
    16
 73
    12
 74
     0
 42
0.0000000001
 43
0.0000000001
 40
0.0
 40
0.0
 40
0.0
 40
0.0
 40
0.25
 40
0.25
 40
0.25
 40
0.25
 40
0.5
 40
0.5
 40
0.5
 40
0.5
 40
1.0
 40
1.0
 40
1.0
 40
1.0
 10
-30.3605
 20
25.3176
 30
0.0
 10
-30.3605
 20
25.3176
 30
0.0
 10
-30.3605
 20
23.9346
 30
0.0
 10
-30.3605
 20
23.9346
 30
0.0
 10
-30.3605
 20
23.9346
 30
0.0
 10
-30.3605
 20
23.9346
 30
0.0
 10
-30.3605
 20
23.9262
 30
0.0
 10
-30.3605
 20
23.9262
 30
0.0
 10
-30.3605
 20
23.9262
 30
0.0
 10
-30.3605
 20
23.9262
 30
0.0
 10
-30.3605
 20
25.3176
 30
0.0
 10
-30.3605
 20
25.3176
 30
0.0
  0
SPLINE
  5
C7
330
1F
100
AcDbEntity
  8
ROUND
 62
   250
100
AcDbSpline
210
0.0
220
0.0
230
1.0
 70
    27
 71
     3
 72
    16
 73
    12
 74
     0
 42
0.0000000001
 43
0.0000000001
 40
0.0
 40
0.0
 40
0.0
 40
0.0
 40
0.25
 40
0.25
 40
0.25
 40
0.25
 40
0.5
 40
0.5
 40
0.5
 40
0.5
 40
1.0
 40
1.0
 40
1.0
 40
1.0
 10
-30.9406
 20
25.3176
 30
0.0
 10
-30.9406
 20
25.3176
 30
0.0
 10
-30.9406
 20
23.9352
 30
0.0
 10
-30.9406
 20
23.9352
 30
0.0
 10
-30.9406
 20
23.9352
 30
0.0
 10
-30.9406
 20
23.9352
 30
0.0
 10
-30.9406
 20
23.9262
 30
0.0
 10
-30.9406
 20
23.9262
 30
0.0
 10
-30.9406
 20
23.9262
 30
0.0
 10
-30.9406
 20
23.9262
 30
0.0
 10
-30.9406
 20
25.3176
 30
0.0
 10
-30.9406
 20
25.3176
 30
0.0
  0
SPLINE
  5
C8
330
1F
100
AcDbEntity
  8
ROUND
 62
   250
100
AcDbSpline
210
0.0
220
0.0
230
1.0
 70
    27
 71
     3
 72
    12
 73
     8
 74
     0
 42
0.0000000001
 43
0.0000000001
 40
0.0
 40
0.0
 40
0.0
 40
0.0
 40
0.3333333333333333
 40
0.3333333333333333
 40
0.3333333333333333
 40
0.3333333333333333
 40
1.0
 40
1.0
 40
1.0
 40
1.0
 10
-21.9094
 20
25.3176
 30
0.0
 10
-21.9094
 20
25.3176
 30
0.0
 10
-21.9094
 20
23.9262
 30
0.0
 10
-21.9094
 20
23.9262
 30
0.0
 10
-21.9094
 20
23.9262
 30
0.0
 10
-21.9094
 20
23.9262
 30
0.0
 10
-21.9094
 20
25.3176
 30
0.0
 10
-21.9094
 20
25.3176
 30
0.0
  0
SPLINE
  5
C9
330
1F
100
AcDbEntity
  8
ROUND
 62
   250
100
AcDbSpline
210
0.0
220
0.0
230
1.0
 70
    24
 71
     3
 72
     8
 73
     4
 74
     0
 42
0.0000000001
 43
0.0000000001
 40
0.0
 40
0.0
 40
0.0
 40
0.0
 40
1.0
 40
1.0
 40
1.0
 40
1.0
 10
-28.0567
 20
32.4865
 30
0.0
 10
-28.0567
 20
32.4865
 30
0.0
 10
-28.0567
 20
34.8398
 30
0.0
 10
-28.0567
 20
34.8398
 30
0.0
  0
SPLINE
  5
CA
330
1F
100
AcDbEntity
  8
ROUND
 62
   250
100
AcDbSpline
210
0.0
220
0.0
230
1.0
 70
    24
 71
     3
 72
     8
 73
     4
 74
     0
 42
0.0000000001
 43
0.0000000001
 40
0.0
 40
0.0
 40
0.0
 40
0.0
 40
1.0
 40
1.0
 40
1.0
 40
1.0
 10
44.3623
 20
3.248
 30
0.0
 10
44.3623
 20
3.248
 30
0.0
 10
44.3623
 20
35.4912
 30
0.0
 10
44.3623
 20
35.4912
 30
0.0
  0
SPLINE
  5
CB
330
1F
100
AcDbEntity
  8
ROUND
 62
   250
100
AcDbSpline
210
0.0
220
0.0
230
1.0
 70
    24
 71
     3
 72
     8
 73
     4
 74
     0
 42
0.0000000001
 43
0.0000000001
 40
0.0
 40
0.0
 40
0.0
 40
0.0
 40
1.0
 40
1.0
 40
1.0
 40
1.0
 10
44.3628
 20
34.5603
 30
0.0
 10
44.3628
 20
34.5603
 30
0.0
 10
-26.5187
 20
34.5603
 30
0.0
 10
-26.5187
 20
34.5603
 30
0.0
  0
SPLINE
  5
CC
330
1F
100
AcDbEntity
  8
ROUND
 62
   250
100
AcDbSpline
210
0.0
220
0.0
230
1.0
 70
    24
 71
     3
 72
     8
 73
     4
 74
     0
 42
0.0000000001
 43
0.0000000001
 40
0.0
 40
0.0
 40
0.0
 40
0.0
 40
1.0
 40
1.0
 40
1.0
 40
1.0
 10
-33.6273
 20
26.6689
 30
0.0
 10
-33.6273
 20
26.6689
 30
0.0
 10
-33.6273
 20
29.596
 30
0.0
 10
-33.6273
 20
29.596
 30
0.0
  0
SPLINE
  5
CD
330
1F
100
AcDbEntity
  8
ROUND
 62
   250
100
AcDbSpline
210
0.0
220
0.0
230
1.0
 70
    24
 71
     3
 72
     8
 73
     4
 74
     0
 42
0.0000000001
 43
0.0000000001
 40
0.0
 40
0.0
 40
0.0
 40
0.0
 40
1.0
 40
1.0
 40
1.0
 40
1.0
 10
-22.4855
 20
26.7291
 30
0.0
 10
-22.4855
 20
26.7291
 30
0.0
 10
-22.4855
 20
29.6961
 30
0.0
 10
-22.4855
 20
29.6961
 30
0.0
  0
SPLINE
  5
CE
330
1F
100
AcDbEntity
  8
ROUND
 62
   250
100
AcDbSpline
210
0.0
220
0.0
230
1.0
 70
    24
 71
     3
 72
     8
 73
     4
 74
     0
 42
0.0000000001
 43
0.0000000001
 40
0.0
 40
0.0
 40
0.0
 40
0.0
 40
1.0
 40
1.0
 40
1.0
 40
1.0
 10
-18.9872
 20
29.0146
 30
0.0
 10
-18.9872
 20
29.0146
 30
0.0
 10
-36.9729
 20
29.0146
 30
0.0
 10
-36.9729
 20
29.0146
 30
0.0
  0
SPLINE
  5
CF
330
1F
100
AcDbEntity
  8
ROUND
 62
   250
100
AcDbSpline
210
0.0
220
0.0
230
1.0
 70
    24
 71
     3
 72
     8
 73
     4
 74
     0
 42
0.0000000001
 43
0.0000000001
 40
0.0
 40
0.0
 40
0.0
 40
0.0
 40
1.0
 40
1.0
 40
1.0
 40
1.0
 10
-34.8309
 20
25.8133
 30
0.0
 10
-34.8309
 20
25.8133
 30
0.0
 10
-42.8024
 20
25.8133
 30
0.0
 10
-42.8024
 20
25.8133
 30
0.0
  0
SPLINE
  5
D0
330
1F
100
AcDbEntity
  8
ROUND
 62
   250
100
AcDbSpline
210
0.0
220
0.0
230
1.0
 70
    24
 71
     3
 72
     8
 73
     4
 74
     0
 42
0.0000000001
 43
0.0000000001
 40
0.0
 40
0.0
 40
0.0
 40
0.0
 40
1.0
 40
1.0
 40
1.0
 40
1.0
 10
1.4324
 20
-2.3666
 30
0.0
 10
1.4324
 20
-2.3666
 30
0.0
 10
-42.97
 20
-2.3666
 30
0.0
 10
-42.97
 20
-2.3666
 30
0.0
  0
SPLINE
  5
D1
330
1F
100
AcDbEntity
  8
ROUND
 62
   250
100
AcDbSpline
210
0.0
220
0.0
230
1.0
 70
    24
 71
     3
 72
     8
 73
     4
 74
     0
 42
0.0000000001
 43
0.0000000001
 40
0.0
 40
0.0
 40
0.0
 40
0.0
 40
1.0
 40
1.0
 40
1.0
 40
1.0
 10
-22.0499
 20
-32.0307
 30
0.0
 10
-22.0499
 20
-32.0307
 30
0.0
 10
-42.8828
 20
-32.0307
 30
0.0
 10
-42.8828
 20
-32.0307
 30
0.0
  0
SPLINE
  5
D2
330
1F
100
AcDbEntity
  8
ROUND
 62
   250
100
AcDbSpline
210
0.0
220
0.0
230
1.0
 70
    24
 71
     3
 72
     8
 73
     4
 74
     0
 42
0.0000000001
 43
0.0000000001
 40
0.0
 40
0.0
 40
0.0
 40
0.0
 40
1.0
 40
1.0
 40
1.0
 40
1.0
 10
-42.1981
 20
-32.0314
 30
0.0
 10
-42.1981
 20
-32.0314
 30
0.0
 10
-42.1981
 20
-3.014
 30
0.0
 10
-42.1981
 20
-3.014
 30
0.0
  0
SPLINE
  5
D3
330
1F
100
AcDbEntity
  8
ROUND
 62
   250
100
AcDbSpline
210
0.0
220
0.0
230
1.0
 70
    24
 71
     3
 72
     8
 73
     4
 74
     0
 42
0.0000000001
 43
0.0000000001
 40
0.0
 40
0.0
 40
0.0
 40
0.0
 40
1.0
 40
1.0
 40
1.0
 40
1.0
 10
-28.0562
 20
-23.7884
 30
0.0
 10
-28.0562
 20
-23.7884
 30
0.0
 10
-28.0562
 20
-37.223
 30
0.0
 10
-28.0562
 20
-37.223
 30
0.0
  0
SPLINE
  5
D4
330
1F
100
AcDbEntity
  8
ROUND
 62
   250
100
AcDbSpline
210
0.0
220
0.0
230
1.0
 70
    24
 71
     3
 72
     8
 73
     4
 74
     0
 42
0.0000000001
 43
0.0000000001
 40
0.0
 40
0.0
 40
0.0
 40
0.0
 40
1.0
 40
1.0
 40
1.0
 40
1.0
 10
-5.7737
 20
-21.2386
 30
0.0
 10
-5.7737
 20
-21.2386
 30
0.0
 10
-5.7737
 20
-37.1707
 30
0.0
 10
-5.7737
 20
-37.1707
 30
0.0
  0
SPLINE
  5
D5
330
1F
100
AcDbEntity
  8
ROUND
 62
   250
100
AcDbSpline
210
0.0
220
0.0
230
1.0
 70
    24
 71
     3
 72
     8
 73
     4
 74
     0
 42
0.0000000001
 43
0.0000000001
 40
0.0
 40
0.0
 40
0.0
 40
0.0
 40
1.0
 40
1.0
 40
1.0
 40
1.0
 10
-28.0562
 20
-36.4224
 30
0.0
 10
-28.0562
 20
-36.4224
 30
0.0
 10
-6.2304
 20
-36.4224
 30
0.0
 10
-6.2304
 20
-36.4224
 30
0.0
  0
SPLINE
  5
D6
330
1F
100
AcDbEntity
  8
ROUND
 62
   250
100
AcDbSpline
210
0.0
220
0.0
230
1.0
 70
    24
 71
     3
 72
     8
 73
     4
 74
     0
 42
0.0000000001
 43
0.0000000001
 40
0.0
 40
0.0
 40
0.0
 40
0.0
 40
1.0
 40
1.0
 40
1.0
 40
1.0
 10
17.1993
 20
-10.9385
 30
0.0
 10
17.1993
 20
-10.9385
 30
0.0
 10
17.1993
 20
11.6621
 30
0.0
 10
17.1993
 20
11.6621
 30
0.0
  0
SPLINE
  5
D7
330
1F
100
AcDbEntity
  8
ROUND
 62
   250
100
AcDbSpline
210
0.0
220
0.0
230
1.0
 70
    24
 71
     3
 72
     8
 73
     4
 74
     0
 42
0.0000000001
 43
0.0000000001
 40
0.0
 40
0.0
 40
0.0
 40
0.0
 40
1.0
 40
1.0
 40
1.0
 40
1.0
 10
-32.513
 20
22.9367
 30
0.0
 10
-32.513
 20
22.9367
 30
0.0
 10
-32.513
 20
1.3796
 30
0.0
 10
-32.513
 20
1.3796
 30
0.0
  0
SPLINE
  5
D8
330
1F
100
AcDbEntity
  8
ROUND
 62
   250
100
AcDbSpline
210
0.0
220
0.0
230
1.0
 70
    24
 71
     3
 72
     8
 73
     4
 74
     0
 42
0.0000000001
 43
0.0000000001
 40
0.0
 40
0.0
 40
0.0
 40
0.0
 40
1.0
 40
1.0
 40
1.0
 40
1.0
 10
-23.5999
 20
22.9367
 30
0.0
 10
-23.5999
 20
22.9367
 30
0.0
 10
-23.5999
 20
1.5262
 30
0.0
 10
-23.5999
 20
1.5262
 30
0.0
  0
SPLINE
  5
D9
330
1F
100
AcDbEntity
  8
ROUND
 62
   250
100
AcDbSpline
210
0.0
220
0.0
230
1.0
 70
     8
 71
     3
 72
    16
 73
    12
 74
     0
 42
0.0000000001
 43
0.0000000001
 40
0.0
 40
0.0
 40
0.0
 40
0.0
 40
0.25
 40
0.25
 40
0.25
 40
0.25
 40
0.5
 40
0.5
 40
0.5
 40
0.5
 40
1.0
 40
1.0
 40
1.0
 40
1.0
 10
31.5182
 20
2.0869
 30
0.0
 10
31.5182
 20
2.0869
 30
0.0
 10
44.3625
 20
2.0897
 30
0.0
 10
44.3625
 20
2.0897
 30
0.0
 10
44.3625
 20
2.0897
 30
0.0
 10
44.3625
 20
2.0897
 30
0.0
 10
44.3625
 20
-6.8233
 30
0.0
 10
44.3625
 20
-6.8233
 30
0.0
 10
44.3625
 20
-6.8233
 30
0.0
 10
44.3625
 20
-6.8233
 30
0.0
 10
31.5182
 20
-6.8066
 30
0.0
 10
31.5182
 20
-6.8066
 30
0.0
  0
SPLINE
  5
DA
330
1F
100
AcDbEntity
  8
ROUND
 62
   250
100
AcDbSpline
210
0.0
220
0.0
230
1.0
 70
     8
 71
     3
 72
    12
 73
     8
 74
     0
 42
0.0000000001
 43
0.0000000001
 40
0.0
 40
0.0
 40
0.0
 40
0.0
 40
0.3333333333333333
 40
0.3333333333333333
 40
0.3333333333333333
 40
0.3333333333333333
 40
1.0
 40
1.0
 40
1.0
 40
1.0
 10
3.6965
 20
-6.8233
 30
0.0
 10
0.9275
 20
-6.8233
 30
0.0
 10
-1.3171
 20
-9.068
 30
0.0
 10
-1.3171
 20
-11.8369
 30
0.0
 10
-1.3171
 20
-11.8369
 30
0.0
 10
-1.3171
 20
-11.8369
 30
0.0
 10
-1.3232
 20
-12.0994
 30
0.0
 10
-1.3232
 20
-12.0994
 30
0.0
  0
SPLINE
  5
DB
330
1F
100
AcDbEntity
  8
ROUND
 62
   250
100
AcDbSpline
210
0.0
220
0.0
230
1.0
 70
     8
 71
     3
 72
    12
 73
     8
 74
     0
 42
0.0000000001
 43
0.0000000001
 40
0.0
 40
0.0
 40
0.0
 40
0.0
 40
0.3333333333333333
 40
0.3333333333333333
 40
0.3333333333333333
 40
0.3333333333333333
 40
1.0
 40
1.0
 40
1.0
 40
1.0
 10
3.6965
 20
2.0897
 30
0.0
 10
-3.9951
 20
2.0897
 30
0.0
 10
-10.2303
 20
-4.1454
 30
0.0
 10
-10.2303
 20
-11.8369
 30
0.0
 10
-10.2303
 20
-11.8369
 30
0.0
 10
-10.2303
 20
-11.8369
 30
0.0
 10
-10.2308
 20
-12.1344
 30
0.0
 10
-10.2308
 20
-12.1344
 30
0.0
  0
SPLINE
  5
DC
330
1F
100
AcDbEntity
  8
ROUND
 62
   250
100
AcDbSpline
210
0.0
220
0.0
230
1.0
 70
    27
 71
     3
 72
    12
 73
     8
 74
     0
 42
0.0000000001
 43
0.0000000001
 40
0.0
 40
0.0
 40
0.0
 40
0.0
 40
0.3333333333333333
 40
0.3333333333333333
 40
0.3333333333333333
 40
0.3333333333333333
 40
1.0
 40
1.0
 40
1.0
 40
1.0
 10
28.0485
 20
2.0899
 30
0.0
 10
28.0485
 20
2.0899
 30
0.0
 10
3.6967
 20
2.0899
 30
0.0
 10
3.6967
 20
2.0899
 30
0.0
 10
3.6967
 20
2.0899
 30
0.0
 10
3.6967
 20
2.0899
 30
0.0
 10
28.0485
 20
2.0899
 30
0.0
 10
28.0485
 20
2.0899
 30
0.0
  0
SPLINE
  5
DD
330
1F
100
AcDbEntity
  8
ROUND
 62
   250
100
AcDbSpline
210
0.0
220
0.0
230
1.0
 70
    27
 71
     3
 72
    12
 73
     8
 74
     0
 42
0.0000000001
 43
0.0000000001
 40
0.0
 40
0.0
 40
0.0
 40
0.0
 40
0.3333333333333333
 40
0.3333333333333333
 40
0.3333333333333333
 40
0.3333333333333333
 40
1.0
 40
1.0
 40
1.0
 40
1.0
 10
27.9996
 20
-6.8236
 30
0.0
 10
27.9996
 20
-6.8236
 30
0.0
 10
3.6967
 20
-6.8236
 30
0.0
 10
3.6967
 20
-6.8236
 30
0.0
 10
3.6967
 20
-6.8236
 30
0.0
 10
3.6967
 20
-6.8236
 30
0.0
 10
27.9996
 20
-6.8236
 30
0.0
 10
27.9996
 20
-6.8236
 30
0.0
  0
SPLINE
  5
DE
330
1F
100
AcDbEntity
  8
ROUND
  6
NEW_LINE1
 62
   250
100
AcDbSpline
210
0.0
220
0.0
230
1.0
 70
    24
 71
     3
 72
     8
 73
     4
 74
     0
 42
0.0000000001
 43
0.0000000001
 40
0.0
 40
0.0
 40
0.0
 40
0.0
 40
1.0
 40
1.0
 40
1.0
 40
1.0
 10
-28.0558
 20
28.1666
 30
0.0
 10
-28.0558
 20
28.1666
 30
0.0
 10
-28.0558
 20
-22.3631
 30
0.0
 10
-28.0558
 20
-22.3631
 30
0.0
  0
SPLINE
  5
E0
330
1F
100
AcDbEntity
  8
ROUND
  6
NEW_LINE2
 62
   250
100
AcDbSpline
210
0.0
220
0.0
230
1.0
 70
    24
 71
     3
 72
     8
 73
     4
 74
     0
 42
0.0000000001
 43
0.0000000001
 40
0.0
 40
0.0
 40
0.0
 40
0.0
 40
1.0
 40
1.0
 40
1.0
 40
1.0
 10
-5.7738
 20
-19.8581
 30
0.0
 10
-5.7738
 20
-19.8581
 30
0.0
 10
-5.7738
 20
-7.3343
 30
0.0
 10
-5.7738
 20
-7.3343
 30
0.0
  0
SPLINE
  5
E2
330
1F
100
AcDbEntity
  8
ROUND
  6
NEW_LINE3
 62
   250
100
AcDbSpline
210
0.0
220
0.0
230
1.0
 70
    24
 71
     3
 72
     8
 73
     4
 74
     0
 42
0.0000000001
 43
0.0000000001
 40
0.0
 40
0.0
 40
0.0
 40
0.0
 40
1.0
 40
1.0
 40
1.0
 40
1.0
 10
3.1394
 20
-2.3667
 30
0.0
 10
3.1394
 20
-2.3667
 30
0.0
 10
44.9195
 20
-2.3667
 30
0.0
 10
44.9195
 20
-2.3667
 30
0.0
  0
SPLINE
  5
E4
330
1F
100
AcDbEntity
  8
ROUND
 62
   250
100
AcDbSpline
210
0.0
220
0.0
230
1.0
 70
     8
 71
     3
 72
    40
 73
    36
 74
     0
 42
0.0000000001
 43
0.0000000001
 40
0.0
 40
0.0
 40
0.0
 40
0.0
 40
0.1
 40
0.1
 40
0.1
 40
0.1
 40
0.2
 40
0.2
 40
0.2
 40
0.2
 40
0.3
 40
0.3
 40
0.3
 40
0.3
 40
0.4
 40
0.4
 40
0.4
 40
0.4
 40
0.5
 40
0.5
 40
0.5
 40
0.5
 40
0.6
 40
0.6
 40
0.6
 40
0.6
 40
0.7
 40
0.7
 40
0.7
 40
0.7
 40
0.8
 40
0.8
 40
0.8
 40
0.8
 40
1.0
 40
1.0
 40
1.0
 40
1.0
 10
-11.3506
 20
-14.9026
 30
0.0
 10
-11.3506
 20
-14.9026
 30
0.0
 10
-11.3506
 20
-15.4515
 30
0.0
 10
-11.3506
 20
-15.4515
 30
0.0
 10
-11.3506
 20
-15.4515
 30
0.0
 10
-11.3506
 20
-15.4515
 30
0.0
 10
-10.605
 20
-15.8631
 30
0.0
 10
-10.605
 20
-15.8631
 30
0.0
 10
-10.605
 20
-15.8631
 30
0.0
 10
-10.605
 20
-15.8631
 30
0.0
 10
-10.5335
 20
-15.9452
 30
0.0
 10
-10.5335
 20
-15.9452
 30
0.0
 10
-10.5335
 20
-15.9452
 30
0.0
 10
-10.5335
 20
-15.9452
 30
0.0
 10
-10.2303
 20
-16.2935
 30
0.0
 10
-10.2303
 20
-16.2935
 30
0.0
 10
-10.2303
 20
-16.2935
 30
0.0
 10
-10.2303
 20
-16.2935
 30
0.0
 10
-1.3171
 20
-16.2935
 30
0.0
 10
-1.3171
 20
-16.2935
 30
0.0
 10
-1.3171
 20
-16.2935
 30
0.0
 10
-1.3171
 20
-16.2935
 30
0.0
 10
-1.0209
 20
-15.9452
 30
0.0
 10
-1.0209
 20
-15.9452
 30
0.0
 10
-1.0209
 20
-15.9452
 30
0.0
 10
-1.0209
 20
-15.9452
 30
0.0
 10
-0.9214
 20
-15.8282
 30
0.0
 10
-0.9214
 20
-15.8282
 30
0.0
 10
-0.9214
 20
-15.8282
 30
0.0
 10
-0.9214
 20
-15.8282
 30
0.0
 10
-0.169
 20
-15.452
 30
0.0
 10
-0.169
 20
-15.452
 30
0.0
 10
-0.169
 20
-15.452
 30
0.0
 10
-0.169
 20
-15.452
 30
0.0
 10
-0.2032
 20
-14.9048
 30
0.0
 10
-0.2032
 20
-14.9048
 30
0.0
  0
SPLINE
  5
E5
330
1F
100
AcDbEntity
  8
ROUND
 62
   250
100
AcDbSpline
210
0.0
220
0.0
230
1.0
 70
    27
 71
     3
 72
    28
 73
    24
 74
     0
 42
0.0000000001
 43
0.0000000001
 40
0.0
 40
0.0
 40
0.0
 40
0.0
 40
0.1428571428571428
 40
0.1428571428571428
 40
0.1428571428571428
 40
0.1428571428571428
 40
0.2857142857142857
 40
0.2857142857142857
 40
0.2857142857142857
 40
0.2857142857142857
 40
0.4285714285714285
 40
0.4285714285714285
 40
0.4285714285714285
 40
0.4285714285714285
 40
0.5714285714285714
 40
0.5714285714285714
 40
0.5714285714285714
 40
0.5714285714285714
 40
0.7142857142857143
 40
0.7142857142857143
 40
0.7142857142857143
 40
0.7142857142857143
 40
1.0
 40
1.0
 40
1.0
 40
1.0
 10
-0.9682
 20
-15.9452
 30
0.0
 10
-0.9682
 20
-15.9452
 30
0.0
 10
-1.0209
 20
-15.9452
 30
0.0
 10
-1.0209
 20
-15.9452
 30
0.0
 10
-1.0209
 20
-15.9452
 30
0.0
 10
-1.0209
 20
-15.9452
 30
0.0
 10
-10.5335
 20
-15.9452
 30
0.0
 10
-10.5335
 20
-15.9452
 30
0.0
 10
-10.5335
 20
-15.9452
 30
0.0
 10
-10.5335
 20
-15.9452
 30
0.0
 10
-10.5781
 20
-15.9452
 30
0.0
 10
-10.5781
 20
-15.9452
 30
0.0
 10
-10.5781
 20
-15.9452
 30
0.0
 10
-10.5781
 20
-15.9452
 30
0.0
 10
-10.5335
 20
-15.9452
 30
0.0
 10
-10.5335
 20
-15.9452
 30
0.0
 10
-10.5335
 20
-15.9452
 30
0.0
 10
-10.5335
 20
-15.9452
 30
0.0
 10
-1.0209
 20
-15.9452
 30
0.0
 10
-1.0209
 20
-15.9452
 30
0.0
 10
-1.0209
 20
-15.9452
 30
0.0
 10
-1.0209
 20
-15.9452
 30
0.0
 10
-0.9682
 20
-15.9452
 30
0.0
 10
-0.9682
 20
-15.9452
 30
0.0
  0
SPLINE
  5
E6
330
1F
100
AcDbEntity
  8
ROUND
 62
   250
100
AcDbSpline
210
0.0
220
0.0
230
1.0
 70
    11
 71
     3
 72
    20
 73
    16
 74
     0
 42
0.0000000001
 43
0.0000000001
 40
0.0
 40
0.0
 40
0.0
 40
0.0
 40
0.2
 40
0.2
 40
0.2
 40
0.2
 40
0.4
 40
0.4
 40
0.4
 40
0.4
 40
0.6
 40
0.6
 40
0.6
 40
0.6
 40
1.0
 40
1.0
 40
1.0
 40
1.0
 10
41.2676
 20
35.0447
 30
0.0
 10
41.2676
 20
35.0447
 30
0.0
 10
44.2676
 20
34.6213
 30
0.0
 10
44.2676
 20
34.6213
 30
0.0
 10
44.2676
 20
34.6213
 30
0.0
 10
44.2676
 20
34.6213
 30
0.0
 10
44.2676
 20
34.5273
 30
0.0
 10
44.2676
 20
34.5273
 30
0.0
 10
44.2676
 20
34.5273
 30
0.0
 10
44.2676
 20
34.5273
 30
0.0
 10
41.2676
 20
34.0757
 30
0.0
 10
41.2676
 20
34.0757
 30
0.0
 10
41.2676
 20
34.0757
 30
0.0
 10
41.2676
 20
34.0757
 30
0.0
 10
41.2676
 20
35.0447
 30
0.0
 10
41.2676
 20
35.0447
 30
0.0
  0
SPLINE
  5
E7
330
1F
100
AcDbEntity
  8
ROUND
 62
   250
100
AcDbSpline
210
0.0
220
0.0
230
1.0
 70
    11
 71
     3
 72
    20
 73
    16
 74
     0
 42
0.0000000001
 43
0.0000000001
 40
0.0
 40
0.0
 40
0.0
 40
0.0
 40
0.2
 40
0.2
 40
0.2
 40
0.2
 40
0.4
 40
0.4
 40
0.4
 40
0.4
 40
0.6
 40
0.6
 40
0.6
 40
0.6
 40
1.0
 40
1.0
 40
1.0
 40
1.0
 10
-24.9833
 20
34.0371
 30
0.0
 10
-24.9833
 20
34.0371
 30
0.0
 10
-27.9834
 20
34.4605
 30
0.0
 10
-27.9834
 20
34.4605
 30
0.0
 10
-27.9834
 20
34.4605
 30
0.0
 10
-27.9834
 20
34.4605
 30
0.0
 10
-27.9834
 20
34.5545
 30
0.0
 10
-27.9834
 20
34.5545
 30
0.0
 10
-27.9834
 20
34.5545
 30
0.0
 10
-27.9834
 20
34.5545
 30
0.0
 10
-24.9833
 20
35.0061
 30
0.0
 10
-24.9833
 20
35.0061
 30
0.0
 10
-24.9833
 20
35.0061
 30
0.0
 10
-24.9833
 20
35.0061
 30
0.0
 10
-24.9833
 20
34.0371
 30
0.0
 10
-24.9833
 20
34.0371
 30
0.0
  0
SPLINE
  5
E8
330
1F
100
AcDbEntity
  8
ROUND
 62
   250
100
AcDbSpline
210
0.0
220
0.0
230
1.0
 70
    24
 71
     3
 72
     8
 73
     4
 74
     0
 42
0.0000000001
 43
0.0000000001
 40
0.0
 40
0.0
 40
0.0
 40
0.0
 40
1.0
 40
1.0
 40
1.0
 40
1.0
 10
-42.1981
 20
-1.6213
 30
0.0
 10
-42.1981
 20
-1.6213
 30
0.0
 10
-42.1981
 20
24.6626
 30
0.0
 10
-42.1981
 20
24.6626
 30
0.0
  0
SPLINE
  5
E9
330
1F
100
AcDbEntity
  8
ROUND
 62
   250
100
AcDbSpline
210
0.0
220
0.0
230
1.0
 70
     8
 71
     3
 72
    12
 73
     8
 74
     0
 42
0.0000000001
 43
0.0000000001
 40
0.0
 40
0.0
 40
0.0
 40
0.0
 40
0.3333333333333333
 40
0.3333333333333333
 40
0.3333333333333333
 40
0.3333333333333333
 40
1.0
 40
1.0
 40
1.0
 40
1.0
 10
-23.597
 20
-16.2823
 30
0.0
 10
-23.597
 20
-19.9743
 30
0.0
 10
-20.5662
 20
-22.9672
 30
0.0
 10
-16.8742
 20
-22.9672
 30
0.0
 10
-16.8742
 20
-22.9672
 30
0.0
 10
-13.1823
 20
-22.9672
 30
0.0
 10
-10.1894
 20
-19.9743
 30
0.0
 10
-10.1894
 20
-16.2823
 30
0.0
  0
SPLINE
  5
EA
330
1F
100
AcDbEntity
  8
ROUND
 62
   250
100
AcDbSpline
210
0.0
220
0.0
230
1.0
 70
     8
 71
     3
 72
    32
 73
    28
 74
     0
 42
0.0000000001
 43
0.0000000001
 40
0.0
 40
0.0
 40
0.0
 40
0.0
 40
0.125
 40
0.125
 40
0.125
 40
0.125
 40
0.25
 40
0.25
 40
0.25
 40
0.25
 40
0.375
 40
0.375
 40
0.375
 40
0.375
 40
0.5
 40
0.5
 40
0.5
 40
0.5
 40
0.625
 40
0.625
 40
0.625
 40
0.625
 40
0.75
 40
0.75
 40
0.75
 40
0.75
 40
1.0
 40
1.0
 40
1.0
 40
1.0
 10
-32.9882
 20
-1.9712
 30
0.0
 10
-32.9882
 20
-1.9712
 30
0.0
 10
-32.9993
 20
-10.3651
 30
0.0
 10
-32.9993
 20
-10.3651
 30
0.0
 10
-32.9993
 20
-10.3651
 30
0.0
 10
-32.9993
 20
-10.3651
 30
0.0
 10
-32.513
 20
-10.8621
 30
0.0
 10
-32.513
 20
-10.8621
 30
0.0
 10
-32.513
 20
-10.8621
 30
0.0
 10
-32.513
 20
-10.8621
 30
0.0
 10
-32.5129
 20
-10.8621
 30
0.0
 10
-32.5129
 20
-10.8621
 30
0.0
 10
-32.5129
 20
-10.8621
 30
0.0
 10
-32.5129
 20
-10.8621
 30
0.0
 10
-23.6001
 20
-10.8621
 30
0.0
 10
-23.6001
 20
-10.8621
 30
0.0
 10
-23.6001
 20
-10.8621
 30
0.0
 10
-23.6001
 20
-10.8621
 30
0.0
 10
-23.5999
 20
-10.8621
 30
0.0
 10
-23.5999
 20
-10.8621
 30
0.0
 10
-23.5999
 20
-10.8621
 30
0.0
 10
-23.5999
 20
-10.8621
 30
0.0
 10
-23.1153
 20
-10.3224
 30
0.0
 10
-23.1153
 20
-10.3224
 30
0.0
 10
-23.1153
 20
-10.3224
 30
0.0
 10
-23.1153
 20
-10.3224
 30
0.0
 10
-23.1061
 20
-1.963
 30
0.0
 10
-23.1061
 20
-1.963
 30
0.0
  0
SPLINE
  5
EB
330
1F
100
AcDbEntity
  8
ROUND
 62
   250
100
AcDbSpline
210
0.0
220
0.0
230
1.0
 70
     8
 71
     3
 72
    24
 73
    20
 74
     0
 42
0.0000000001
 43
0.0000000001
 40
0.0
 40
0.0
 40
0.0
 40
0.0
 40
0.1666666666666667
 40
0.1666666666666667
 40
0.1666666666666667
 40
0.1666666666666667
 40
0.3333333333333333
 40
0.3333333333333333
 40
0.3333333333333333
 40
0.3333333333333333
 40
0.5
 40
0.5
 40
0.5
 40
0.5
 40
0.6666666666666666
 40
0.6666666666666666
 40
0.6666666666666666
 40
0.6666666666666666
 40
1.0
 40
1.0
 40
1.0
 40
1.0
 10
-33.6053
 20
-1.3593
 30
0.0
 10
-33.6053
 20
-1.3593
 30
0.0
 10
-33.6215
 20
-1.6504
 30
0.0
 10
-33.6215
 20
-1.6504
 30
0.0
 10
-33.6215
 20
-1.6504
 30
0.0
 10
-33.6215
 20
-1.6504
 30
0.0
 10
-33.0005
 20
-1.9489
 30
0.0
 10
-33.0005
 20
-1.9489
 30
0.0
 10
-33.0005
 20
-1.9489
 30
0.0
 10
-33.0005
 20
-1.9489
 30
0.0
 10
-23.1125
 20
-1.9489
 30
0.0
 10
-23.1125
 20
-1.9489
 30
0.0
 10
-23.1125
 20
-1.9489
 30
0.0
 10
-23.1125
 20
-1.9489
 30
0.0
 10
-22.4865
 20
-1.6342
 30
0.0
 10
-22.4865
 20
-1.6342
 30
0.0
 10
-22.4865
 20
-1.6342
 30
0.0
 10
-22.4865
 20
-1.6342
 30
0.0
 10
-22.4865
 20
-1.3917
 30
0.0
 10
-22.4865
 20
-1.3917
 30
0.0
  0
SPLINE
  5
EC
330
1F
100
AcDbEntity
  8
ROUND
 62
   250
100
AcDbSpline
210
0.0
220
0.0
230
1.0
 70
     8
 71
     3
 72
    16
 73
    12
 74
     0
 42
0.0000000001
 43
0.0000000001
 40
0.0
 40
0.0
 40
0.0
 40
0.0
 40
0.25
 40
0.25
 40
0.25
 40
0.25
 40
0.5
 40
0.5
 40
0.5
 40
0.5
 40
1.0
 40
1.0
 40
1.0
 40
1.0
 10
-32.513
 20
-16.4327
 30
0.0
 10
-32.513
 20
-25.0473
 30
0.0
 10
-25.5296
 20
-32.0307
 30
0.0
 10
-16.9151
 20
-32.0307
 30
0.0
 10
-16.9151
 20
-32.0307
 30
0.0
 10
-8.3006
 20
-32.0307
 30
0.0
 10
-1.3171
 20
-25.0473
 30
0.0
 10
-1.3171
 20
-16.4327
 30
0.0
 10
-1.3171
 20
-16.4327
 30
0.0
 10
-1.3171
 20
-16.4327
 30
0.0
 10
-1.2976
 20
-16.2044
 30
0.0
 10
-1.2976
 20
-16.2044
 30
0.0
  0
SPLINE
  5
ED
330
1F
100
AcDbEntity
  8
ROUND
 62
   250
100
AcDbSpline
210
0.0
220
0.0
230
1.0
 70
    27
 71
     3
 72
    16
 73
    12
 74
     0
 42
0.0000000001
 43
0.0000000001
 40
0.0
 40
0.0
 40
0.0
 40
0.0
 40
0.25
 40
0.25
 40
0.25
 40
0.25
 40
0.5
 40
0.5
 40
0.5
 40
0.5
 40
1.0
 40
1.0
 40
1.0
 40
1.0
 10
-32.5129
 20
-16.4324
 30
0.0
 10
-32.5129
 20
-16.4324
 30
0.0
 10
-32.5129
 20
-10.8621
 30
0.0
 10
-32.5129
 20
-10.8621
 30
0.0
 10
-32.5129
 20
-10.8621
 30
0.0
 10
-32.5129
 20
-10.8621
 30
0.0
 10
-32.5129
 20
-10.8619
 30
0.0
 10
-32.5129
 20
-10.8619
 30
0.0
 10
-32.5129
 20
-10.8619
 30
0.0
 10
-32.5129
 20
-10.8619
 30
0.0
 10
-32.5129
 20
-16.4324
 30
0.0
 10
-32.5129
 20
-16.4324
 30
0.0
  0
SPLINE
  5
EE
330
1F
100
AcDbEntity
  8
ROUND
 62
   250
100
AcDbSpline
210
0.0
220
0.0
230
1.0
 70
    27
 71
     3
 72
    16
 73
    12
 74
     0
 42
0.0000000001
 43
0.0000000001
 40
0.0
 40
0.0
 40
0.0
 40
0.0
 40
0.25
 40
0.25
 40
0.25
 40
0.25
 40
0.5
 40
0.5
 40
0.5
 40
0.5
 40
1.0
 40
1.0
 40
1.0
 40
1.0
 10
-23.6001
 20
-16.4324
 30
0.0
 10
-23.6001
 20
-16.4324
 30
0.0
 10
-23.6001
 20
-10.8621
 30
0.0
 10
-23.6001
 20
-10.8621
 30
0.0
 10
-23.6001
 20
-10.8621
 30
0.0
 10
-23.6001
 20
-10.8621
 30
0.0
 10
-23.6001
 20
-10.8619
 30
0.0
 10
-23.6001
 20
-10.8619
 30
0.0
 10
-23.6001
 20
-10.8619
 30
0.0
 10
-23.6001
 20
-10.8619
 30
0.0
 10
-23.6001
 20
-16.4324
 30
0.0
 10
-23.6001
 20
-16.4324
 30
0.0
  0
ENDSEC
  0
SECTION
  2
OBJECTS
  0
DICTIONARY
  5
C
330
0
100
AcDbDictionary
  3
ACAD_GROUP
350
D
  3
ACAD_LAYOUT
350
1A
  3
ACAD_MATERIAL
350
3B
  3
ACAD_MLEADERSTYLE
350
111
  3
ACAD_MLINESTYLE
350
17
  3
ACAD_PLOTSETTINGS
350
19
  3
ACAD_VISUALSTYLE
350
2A
  3
ACDBHEADERROUNDTRIPXREC
350
EF
  3
ACDBVARIABLEDICTIONARY
350
10F
  0
DICTIONARY
  5
D
102
{ACAD_REACTORS
330
C
102
}
330
C
100
AcDbDictionary
  0
DICTIONARY
  5
1A
102
{ACAD_REACTORS
330
C
102
}
330
C
100
AcDbDictionary
  0
DICTIONARY
  5
3B
102
{ACAD_REACTORS
330
C
102
}
330
C
100
AcDbDictionary
  3
BYBLOCK
350
3D
  3
BYLAYER
350
3C
  3
GLOBAL
350
3E
  0
DICTIONARY
  5
111
102
{ACAD_REACTORS
330
C
102
}
330
C
100
AcDbDictionary
  0
DICTIONARY
  5
17
102
{ACAD_REACTORS
330
C
102
}
330
C
100
AcDbDictionary
  3
STANDARD
350
18
  0
DICTIONARY
  5
19
102
{ACAD_REACTORS
330
C
102
}
330
C
100
AcDbDictionary
  0
DICTIONARY
  5
2A
102
{ACAD_REACTORS
330
C
102
}
330
C
100
AcDbDictionary
  3
2DWIREFRAME
350
2F
  3
3D_HIDDEN
350
31
  3
3DWIREFRAME
350
30
  3
BASIC
350
32
  3
BRIGHTEN
350
36
  3
COLORCHANGE
350
3A
  3
CONCEPTUAL
350
34
  3
DIM
350
35
  3
FACEPATTERN
350
39
  3
FLAT
350
2B
  3
FLATWITHEDGES
350
2C
  3
GOURAUD
350
2D
  3
GOURAUDWITHEDGES
350
2E
  3
LINEPATTERN
350
38
  3
REALISTIC
350
33
  3
THICKEN
350
37
  0
DICTIONARY
  5
EF
102
{ACAD_REACTORS
330
C
102
}
330
C
100
AcDbDictionary
  3
CEPSNTYPE
350
F8
  3
DIMSTYLEDATA
350
10E
  3
FINGERPRINTGUID
350
F9
  3
HYPERLINKBASE
350
F2
  3
INSUNITS
350
F7
  3
LAYOUTDICT
350
F4
  3
LWETCUNION
350
F6
  3
PLOTSETDICT
350
F5
  3
PSVPSCALE
350
FB
  3
PUCSBASE
350
FE
  3
PUCSORGBACK
350
104
  3
PUCSORGBOTTOM
350
100
  3
PUCSORGFRONT
350
103
  3
PUCSORGLEFT
350
101
  3
PUCSORGRIGHT
350
102
  3
PUCSORGTOP
350
FF
  3
PUCSORTHOREF
350
FC
  3
PUCSORTHOVIEW
350
FD
  3
STYLESHEET
350
F3
  3
TSTACKALIGN
350
F0
  3
TSTACKSIZE
350
F1
  3
UCSBASE
350
107
  3
UCSORGBACK
350
10D
  3
UCSORGBOTTOM
350
109
  3
UCSORGFRONT
350
10C
  3
UCSORGLEFT
350
10A
  3
UCSORGRIGHT
350
10B
  3
UCSORGTOP
350
108
  3
UCSORTHOREF
350
105
  3
UCSORTHOVIEW
350
106
  3
VERSIONGUID
350
FA
  0
DICTIONARY
  5
10F
102
{ACAD_REACTORS
330
C
102
}
330
C
100
AcDbDictionary
  3
DIMASSOC
350
112
  3
HIDETEXT
350
113
  0
MATERIAL
  5
3D
102
{ACAD_REACTORS
330
3B
102
}
102
{ACAD_XDICTIONARY
360
116
102
}
330
3B
100
AcDbMaterial
  1
ByBlock
  0
MATERIAL
  5
3C
102
{ACAD_REACTORS
330
3B
102
}
102
{ACAD_XDICTIONARY
360
114
102
}
330
3B
100
AcDbMaterial
  1
ByLayer
  0
MATERIAL
  5
3E
102
{ACAD_REACTORS
330
3B
102
}
102
{ACAD_XDICTIONARY
360
118
102
}
330
3B
100
AcDbMaterial
  1
Global
  0
MLINESTYLE
  5
18
102
{ACAD_REACTORS
330
17
102
}
330
17
100
AcDbMlineStyle
  2
Standard
 70
     0
  3

 62
   256
 51
90.0
 52
90.0
 71
     2
 49
0.5
 62
   256
  6
BYLAYER
 49
-0.5
 62
   256
  6
BYLAYER
  0
ACAD_PROXY_OBJECT
  5
2F
102
{ACAD_REACTORS
330
2A
102
}
330
2A
100
AcDbProxyObject
 90
      499
 91
      501
 93
      436
310
42CC9915DA5C99599C985B595049028333333333333E3BF0000000000000FB0107901411070040501600405405064090741402480A0340
1001
ACAD
1000
AcDbSavedByObjectVersion
1070
     0
  0
ACAD_PROXY_OBJECT
  5
31
102
{ACAD_REACTORS
330
2A
102
}
330
2A
100
AcDbProxyObject
 90
      499
 91
      501
 93
      500
310
424CD108121A5919195B90640502408333333333333E3BF0000000000000FB01079024090700405020000000000001110200405405064090740C02480A0340
1001
ACAD
1000
AcDbSavedByObjectVersion
1070
     0
  0
ACAD_PROXY_OBJECT
  5
30
102
{ACAD_REACTORS
330
2A
102
}
330
2A
100
AcDbProxyObject
 90
      499
 91
      501
 93
      436
310
42CCD915DA5C99599C985B595059028333333333333E3BF0000000000000FB0107901411070040501600405405064090741402480A0340
1001
ACAD
1000
AcDbSavedByObjectVersion
1070
     0
  0
ACAD_PROXY_OBJECT
  5
32
102
{ACAD_REACTORS
330
2A
102
}
330
2A
100
AcDbProxyObject
 90
      499
 91
      501
 93
      388
310
4150985CDA58D07406404333333333333E3BF0000000000000FB0107A41107004050150841D405064090741402480A0350
1001
ACAD
1000
AcDbSavedByObjectVersion
1070
     0
  0
ACAD_PROXY_OBJECT
  5
36
102
{ACAD_REACTORS
330
2A
102
}
330
2A
100
AcDbProxyObject
 90
      499
 91
      501
 93
      428
310
42109C9A59DA1D195B90C409028333333333333E3BF0000000000000FB010790141107004050150841D405064090741402480A029950
1001
ACAD
1000
AcDbSavedByObjectVersion
1070
     0
  0
ACAD_PROXY_OBJECT
  5
3A
102
{ACAD_REACTORS
330
2A
102
}
330
2A
100
AcDbProxyObject
 90
      499
 91
      501
 93
      452
310
42D0DBDB1BDC90DA185B99D95104090240C333333333333E3BF0000000000000FB0108901411070040501508421405064090741402480A0350
1001
ACAD
1000
AcDbSavedByObjectVersion
1070
     0
  0
ACAD_PROXY_OBJECT
  5
34
102
{ACAD_REACTORS
330
2A
102
}
330
2A
100
AcDbProxyObject
 90
      499
 91
      501
 93
      500
310
4290DBDB98D95C1D1D585B10940D028333333333333E3BF0000000000000FB0107902409070040501000000000000111010841D405064090740C02480A0340
1001
ACAD
1000
AcDbSavedByObjectVersion
1070
     0
  0
ACAD_PROXY_OBJECT
  5
35
102
{ACAD_REACTORS
330
2A
102
}
330
2A
100
AcDbProxyObject
 90
      499
 91
      501
 93
      412
310
40D11A5B50B409028333333333333E3BF0000000000000FB010790141107004050150841D405064090741402480A02677FFFFFD0
1001
ACAD
1000
AcDbSavedByObjectVersion
1070
     0
  0
ACAD_PROXY_OBJECT
  5
39
102
{ACAD_REACTORS
330
2A
102
}
330
2A
100
AcDbProxyObject
 90
      499
 91
      501
 93
      444
310
42D19858D95C185D1D195C9B90F409028333333333333E3BF0000000000000FB010790141107004050150841D405064090741402480A0350
1001
ACAD
1000
AcDbSavedByObjectVersion
1070
     0
  0
ACAD_PROXY_OBJECT
  5
2B
102
{ACAD_REACTORS
330
2A
102
}
330
2A
100
AcDbProxyObject
 90
      499
 91
      501
 93
      388
310
41119B185D240901404333333333333E3BF0000000000000F9010740A41107004050150841D405064090741402480A1B50
1001
ACAD
1000
AcDbSavedByObjectVersion
1070
     0
  0
ACAD_PROXY_OBJECT
  5
2C
102
{ACAD_REACTORS
330
2A
102
}
330
2A
100
AcDbProxyObject
 90
      499
 91
      501
 93
      476
310
43519B185D15DA5D1A115919D95CD0140901404333333333333E3BF0000000000000F9010740901411070040501600405405064090741402480A1B50
1001
ACAD
1000
AcDbSavedByObjectVersion
1070
     0
  0
ACAD_PROXY_OBJECT
  5
2D
102
{ACAD_REACTORS
330
2A
102
}
330
2A
100
AcDbProxyObject
 90
      499
 91
      501
 93
      412
310
41D1DBDD5C985D5910240902404333333333333E3BF0000000000000F9010740A411070040501641D405064090741402480A1B50
1001
ACAD
1000
AcDbSavedByObjectVersion
1070
     0
  0
ACAD_PROXY_OBJECT
  5
2E
102
{ACAD_REACTORS
330
2A
102
}
330
2A
100
AcDbProxyObject
 90
      499
 91
      501
 93
      500
310
4411DBDD5C985D5915DA5D1A115919D95CD0340902404333333333333E3BF0000000000000F9010740901411070040501600405405064090741402480A1B50
1001
ACAD
1000
AcDbSavedByObjectVersion
1070
     0
  0
ACAD_PROXY_OBJECT
  5
38
102
{ACAD_REACTORS
330
2A
102
}
330
2A
100
AcDbProxyObject
 90
      499
 91
      501
 93
      444
310
42D31A5B995C185D1D195C9B90E409028333333333333E3BF0000000000000FB010790141107004050750841D405064090741402483A0350
1001
ACAD
1000
AcDbSavedByObjectVersion
1070
     0
  0
ACAD_PROXY_OBJECT
  5
33
102
{ACAD_REACTORS
330
2A
102
}
330
2A
100
AcDbProxyObject
 90
      499
 91
      501
 93
      420
310
425499585B1A5CDD1A58D08409028333333333333E3BF0000000000000FB01079019070040501508421405064090741402480A1B40
1001
ACAD
1000
AcDbSavedByObjectVersion
1070
     0
  0
ACAD_PROXY_OBJECT
  5
37
102
{ACAD_REACTORS
330
2A
102
}
330
2A
100
AcDbProxyObject
 90
      499
 91
      501
 93
      412
310
41D51A1A58DAD95B90D409028333333333333E3BF0000000000000FB010790141107004050150C41D405064090741402480A0350
1001
ACAD
1000
AcDbSavedByObjectVersion
1070
     0
  0
XRECORD
  5
F8
102
{ACAD_REACTORS
330
EF
102
}
330
EF
100
AcDbXrecord
 90
        0
  0
XRECORD
  5
10E
102
{ACAD_REACTORS
330
EF
102
}
330
EF
100
AcDbXrecord
1000
DSTYLE
1002
{
1070
   340
340
11
1002
}
  0
XRECORD
  5
F9
102
{ACAD_REACTORS
330
EF
102
}
330
EF
100
AcDbXrecord
  1
{A4772408-391F-4577-897E-7DBEA7F1F375}
  0
XRECORD
  5
F2
102
{ACAD_REACTORS
330
EF
102
}
330
EF
100
AcDbXrecord
  1

  0
XRECORD
  5
F7
102
{ACAD_REACTORS
330
EF
102
}
330
EF
100
AcDbXrecord
 90
        4
  0
XRECORD
  5
F4
102
{ACAD_REACTORS
330
EF
102
}
330
EF
100
AcDbXrecord
340
1A
  0
XRECORD
  5
F6
102
{ACAD_REACTORS
330
EF
102
}
330
EF
100
AcDbXrecord
 90
    10781
  0
XRECORD
  5
F5
102
{ACAD_REACTORS
330
EF
102
}
330
EF
100
AcDbXrecord
340
19
  0
XRECORD
  5
FB
102
{ACAD_REACTORS
330
EF
102
}
330
EF
100
AcDbXrecord
 40
0.0
  0
XRECORD
  5
FE
102
{ACAD_REACTORS
330
EF
102
}
330
EF
100
AcDbXrecord
340
0
  0
XRECORD
  5
104
102
{ACAD_REACTORS
330
EF
102
}
330
EF
100
AcDbXrecord
 10
0.0
 20
0.0
 30
0.0
  0
XRECORD
  5
100
102
{ACAD_REACTORS
330
EF
102
}
330
EF
100
AcDbXrecord
 10
0.0
 20
0.0
 30
0.0
  0
XRECORD
  5
103
102
{ACAD_REACTORS
330
EF
102
}
330
EF
100
AcDbXrecord
 10
0.0
 20
0.0
 30
0.0
  0
XRECORD
  5
101
102
{ACAD_REACTORS
330
EF
102
}
330
EF
100
AcDbXrecord
 10
0.0
 20
0.0
 30
0.0
  0
XRECORD
  5
102
102
{ACAD_REACTORS
330
EF
102
}
330
EF
100
AcDbXrecord
 10
0.0
 20
0.0
 30
0.0
  0
XRECORD
  5
FF
102
{ACAD_REACTORS
330
EF
102
}
330
EF
100
AcDbXrecord
 10
0.0
 20
0.0
 30
0.0
  0
XRECORD
  5
FC
102
{ACAD_REACTORS
330
EF
102
}
330
EF
100
AcDbXrecord
340
0
  0
XRECORD
  5
FD
102
{ACAD_REACTORS
330
EF
102
}
330
EF
100
AcDbXrecord
 70
     0
  0
XRECORD
  5
F3
102
{ACAD_REACTORS
330
EF
102
}
330
EF
100
AcDbXrecord
  1

  0
XRECORD
  5
F0
102
{ACAD_REACTORS
330
EF
102
}
330
EF
100
AcDbXrecord
 90
        1
  0
XRECORD
  5
F1
102
{ACAD_REACTORS
330
EF
102
}
330
EF
100
AcDbXrecord
 90
       70
  0
XRECORD
  5
107
102
{ACAD_REACTORS
330
EF
102
}
330
EF
100
AcDbXrecord
340
0
  0
XRECORD
  5
10D
102
{ACAD_REACTORS
330
EF
102
}
330
EF
100
AcDbXrecord
 10
0.0
 20
0.0
 30
0.0
  0
XRECORD
  5
109
102
{ACAD_REACTORS
330
EF
102
}
330
EF
100
AcDbXrecord
 10
0.0
 20
0.0
 30
0.0
  0
XRECORD
  5
10C
102
{ACAD_REACTORS
330
EF
102
}
330
EF
100
AcDbXrecord
 10
0.0
 20
0.0
 30
0.0
  0
XRECORD
  5
10A
102
{ACAD_REACTORS
330
EF
102
}
330
EF
100
AcDbXrecord
 10
0.0
 20
0.0
 30
0.0
  0
XRECORD
  5
10B
102
{ACAD_REACTORS
330
EF
102
}
330
EF
100
AcDbXrecord
 10
0.0
 20
0.0
 30
0.0
  0
XRECORD
  5
108
102
{ACAD_REACTORS
330
EF
102
}
330
EF
100
AcDbXrecord
 10
0.0
 20
0.0
 30
0.0
  0
XRECORD
  5
105
102
{ACAD_REACTORS
330
EF
102
}
330
EF
100
AcDbXrecord
340
0
  0
XRECORD
  5
106
102
{ACAD_REACTORS
330
EF
102
}
330
EF
100
AcDbXrecord
 70
     0
  0
XRECORD
  5
FA
102
{ACAD_REACTORS
330
EF
102
}
330
EF
100
AcDbXrecord
  1
{FAEB1C32-E019-11D5-929B-00C0DF256EC4}
  0
DICTIONARYVAR
  5
112
102
{ACAD_REACTORS
330
10F
102
}
330
10F
100
DictionaryVariables
280
     0
  1
2
  0
DICTIONARYVAR
  5
113
102
{ACAD_REACTORS
330
10F
102
}
330
10F
100
DictionaryVariables
280
     0
  1
1
  0
DICTIONARY
  5
116
330
3D
100
AcDbDictionary
280
     1
  3
ACAD_XREC_ROUNDTRIP
360
117
  0
DICTIONARY
  5
114
330
3C
100
AcDbDictionary
280
     1
  3
ACAD_XREC_ROUNDTRIP
360
115
  0
DICTIONARY
  5
118
330
3E
100
AcDbDictionary
280
     1
  3
ACAD_XREC_ROUNDTRIP
360
119
  0
XRECORD
  5
117
102
{ACAD_REACTORS
330
116
102
}
330
116
100
AcDbXrecord
102
MATERIAL
148
0.0
149
0.0
149
0.0
 93
        0
 94
      127
282
     0
 72
     1
 77
     1
171
     1
175
     1
179
     1
273
     0
  0
XRECORD
  5
115
102
{ACAD_REACTORS
330
114
102
}
330
114
100
AcDbXrecord
102
MATERIAL
148
0.0
149
0.0
149
0.0
 93
        0
 94
      127
282
     0
 72
     1
 77
     1
171
     1
175
     1
179
     1
273
     0
  0
XRECORD
  5
119
102
{ACAD_REACTORS
330
118
102
}
330
118
100
AcDbXrecord
102
MATERIAL
148
0.0
149
0.0
149
0.0
 93
        0
 94
      127
282
     0
 72
     1
 77
     1
171
     1
175
     1
179
     1
273
     0
  0
ENDSEC
  0
EOF
