  0
SECTION
  2
HEADER
  9
$ACADVER
  1
AC1009
  9
$INSBASE
 10
0.0
 20
0.0
 30
0.0
  9
$EXTMIN
 10
3135.9700162302001
 20
2477.4294063213651
 30
-0.0015258207003583
  9
$EXTMAX
 10
3246.1769726221009
 20
2527.3690244050958
 30
0.0000000349246037
  9
$LIMMIN
 10
0.0
 20
0.0
  9
$LIMMAX
 10
420.0
 20
297.0
  9
$ORTHOMODE
 70
     0
  9
$REGENMODE
 70
     1
  9
$FILLMODE
 70
     1
  9
$QTEXTMODE
 70
     0
  9
$MIRRTEXT
 70
     0
  9
$DRAGMODE
 70
     2
  9
$LTSCALE
 40
1.0
  9
$OSMODE
 70
   903
  9
$ATTMODE
 70
     1
  9
$TEXTSIZE
 40
2.5
  9
$TRACEWID
 40
1.0
  9
$TEXTSTYLE
  7
STANDARD
  9
$CLAYER
  8
0
  9
$CELTYPE
  6
BYLAYER
  9
$CECOLOR
 62
   256
  9
$DIMSCALE
 40
1.0
  9
$DIMASZ
 40
2.5
  9
$DIMEXO
 40
0.625
  9
$DIMDLI
 40
3.75
  9
$DIMRND
 40
0.0
  9
$DIMDLE
 40
0.0
  9
$DIMEXE
 40
1.25
  9
$DIMTP
 40
0.0
  9
$DIMTM
 40
0.0
  9
$DIMTXT
 40
2.5
  9
$DIMCEN
 40
2.5
  9
$DIMTSZ
 40
0.0
  9
$DIMTOL
 70
     0
  9
$DIMLIM
 70
     0
  9
$DIMTIH
 70
     0
  9
$DIMTOH
 70
     0
  9
$DIMSE1
 70
     0
  9
$DIMSE2
 70
     0
  9
$DIMTAD
 70
     1
  9
$DIMZIN
 70
     8
  9
$DIMBLK
  1

  9
$DIMASO
 70
     1
  9
$DIMSHO
 70
     1
  9
$DIMPOST
  1

  9
$DIMAPOST
  1

  9
$DIMALT
 70
     0
  9
$DIMALTD
 70
     3
  9
$DIMALTF
 40
0.03937007874016
  9
$DIMLFAC
 40
1.0
  9
$DIMTOFL
 70
     1
  9
$DIMTVP
 40
0.0
  9
$DIMTIX
 70
     0
  9
$DIMSOXD
 70
     0
  9
$DIMSAH
 70
     0
  9
$DIMBLK1
  1

  9
$DIMBLK2
  1

  9
$DIMSTYLE
  2
ISO-25
  9
$DIMCLRD
 70
     0
  9
$DIMCLRE
 70
     0
  9
$DIMCLRT
 70
     0
  9
$DIMTFAC
 40
1.0
  9
$DIMGAP
 40
0.625
  9
$LUNITS
 70
     2
  9
$LUPREC
 70
     4
  9
$SKETCHINC
 40
1.0
  9
$FILLETRAD
 40
0.0
  9
$AUNITS
 70
     0
  9
$AUPREC
 70
     0
  9
$MENU
  1
.
  9
$ELEVATION
 40
0.0
  9
$PELEVATION
 40
0.0
  9
$THICKNESS
 40
0.0
  9
$LIMCHECK
 70
     0
  9
$BLIPMODE
 70
     0
  9
$CHAMFERA
 40
0.0
  9
$CHAMFERB
 40
0.0
  9
$SKPOLY
 70
     0
  9
$TDCREATE
 40
2456435.4131388189
  9
$TDUPDATE
 40
2456435.6185618402
  9
$TDINDWG
 40
0.0015889005
  9
$TDUSRTIMER
 40
0.0015889005
  9
$USRTIMER
 70
     1
  9
$ANGBASE
 50
0.0
  9
$ANGDIR
 70
     0
  9
$PDMODE
 70
     0
  9
$PDSIZE
 40
0.0
  9
$PLINEWID
 40
0.0
  9
$COORDS
 70
     1
  9
$SPLFRAME
 70
     0
  9
$SPLINETYPE
 70
     6
  9
$SPLINESEGS
 70
     8
  9
$ATTDIA
 70
     0
  9
$ATTREQ
 70
     1
  9
$HANDLING
 70
     1
  9
$HANDSEED
  5
FC9
  9
$SURFTAB1
 70
     6
  9
$SURFTAB2
 70
     6
  9
$SURFTYPE
 70
     6
  9
$SURFU
 70
     6
  9
$SURFV
 70
     6
  9
$UCSNAME
  2

  9
$UCSORG
 10
0.0
 20
0.0
 30
0.0
  9
$UCSXDIR
 10
1.0
 20
0.0
 30
0.0
  9
$UCSYDIR
 10
0.0
 20
1.0
 30
0.0
  9
$PUCSNAME
  2

  9
$PUCSORG
 10
0.0
 20
0.0
 30
0.0
  9
$PUCSXDIR
 10
1.0
 20
0.0
 30
0.0
  9
$PUCSYDIR
 10
0.0
 20
1.0
 30
0.0
  9
$USERI1
 70
     0
  9
$USERI2
 70
     0
  9
$USERI3
 70
     0
  9
$USERI4
 70
     0
  9
$USERI5
 70
     0
  9
$USERR1
 40
0.0
  9
$USERR2
 40
0.0
  9
$USERR3
 40
0.0
  9
$USERR4
 40
0.0
  9
$USERR5
 40
0.0
  9
$WORLDVIEW
 70
     1
  9
$SHADEDGE
 70
     3
  9
$SHADEDIF
 70
    70
  9
$TILEMODE
 70
     1
  9
$MAXACTVP
 70
    64
  9
$PLIMCHECK
 70
     0
  9
$PEXTMIN
 10
0.0
 20
0.0
 30
0.0
  9
$PEXTMAX
 10
0.0
 20
0.0
 30
0.0
  9
$PLIMMIN
 10
0.0
 20
0.0
  9
$PLIMMAX
 10
12.0
 20
9.0
  9
$UNITMODE
 70
     0
  9
$VISRETAIN
 70
     1
  9
$PLINEGEN
 70
     0
  9
$PSLTSCALE
 70
     1
  0
ENDSEC
  0
SECTION
  2
TABLES
  0
TABLE
  2
VPORT
 70
     1
  0
VPORT
  2
*ACTIVE
 70
     0
 10
0.0
 20
0.0
 11
1.0
 21
1.0
 12
3199.8014189583719
 22
2502.3735940998422
 13
0.0
 23
0.0
 14
10.0
 24
10.0
 15
10.0
 25
10.0
 16
0.0
 26
0.0
 36
1.0
 17
0.0
 27
0.0
 37
0.0
 40
135.85486174451739
 41
1.303738317757009
 42
50.0
 43
0.0
 44
0.0
 50
0.0
 51
0.0
 71
     0
 72
  1000
 73
     1
 74
     3
 75
     0
 76
     0
 77
     0
 78
     0
  0
ENDTAB
  0
TABLE
  2
LTYPE
 70
     1
  0
LTYPE
  2
CONTINUOUS
 70
     0
  3
Solid line
 72
    65
 73
     0
 40
0.0
  0
ENDTAB
  0
TABLE
  2
LAYER
 70
     1
  0
LAYER
  2
0
 70
     0
 62
     7
  6
CONTINUOUS
  0
ENDTAB
  0
TABLE
  2
STYLE
 70
     3
  0
STYLE
  2
STANDARD
 70
     0
 40
0.0
 41
1.0
 50
0.0
 71
     0
 42
2.5
  3
txt
  4

  0
STYLE
  2
ANNOTATIVA
 70
     0
 40
0.0
 41
1.0
 50
0.0
 71
     0
 42
2.5
  3
txt
  4

  0
STYLE
  2
ARCHIVIO
 70
     0
 40
6.0
 41
1.0
 50
0.0
 71
     0
 42
5.0
  3
txt
  4

  0
ENDTAB
  0
TABLE
  2
VIEW
 70
     0
  0
ENDTAB
  0
TABLE
  2
UCS
 70
     0
  0
ENDTAB
  0
TABLE
  2
APPID
 70
    13
  0
APPID
  2
ACAD
 70
     0
  0
APPID
  2
ACAD_PSEXT
 70
     0
  0
APPID
  2
ACADANNOPO
 70
     0
  0
APPID
  2
ACADANNOTATIVE
 70
     0
  0
APPID
  2
ACAD_DSTYLE_DIMJAG
 70
     0
  0
APPID
  2
ACAD_DSTYLE_DIMTALN
 70
     0
  0
APPID
  2
ACAD_MLEADERVER
 70
     0
  0
APPID
  2
ACAD_DSTYLE_DIMJOGGED_JOGA
 70
     0
  0
APPID
  2
ACAD_DSTYLE_DIMEXT_ENABLED
 70
     0
  0
APPID
  2
ACAD_DSTYLE_DIMEXT_LENGTH
 70
     0
  0
APPID
  2
ACAD_DSTYLE_DIM_LINETYPE
 70
     0
  0
APPID
  2
ACAD_DSTYLE_DIM_EXT1_LINETYPE
 70
     0
  0
APPID
  2
ACAD_DSTYLE_DIM_EXT2_LINETYPE
 70
     0
  0
ENDTAB
  0
TABLE
  2
DIMSTYLE
 70
     4
  0
DIMSTYLE
  2
STANDARD
 70
     0
  3

  4

  5

  6

  7

 40
1.0
 41
0.18
 42
0.0625
 43
0.38
 44
0.18
 45
0.0
 46
0.0
 47
0.0
 48
0.0
140
0.18
141
0.09
142
0.0
143
25.399999999999999
144
1.0
145
0.0
146
1.0
147
0.09
 71
     0
 72
     0
 73
     1
 74
     1
 75
     0
 76
     0
 77
     0
 78
     0
170
     0
171
     2
172
     0
173
     0
174
     0
175
     0
176
     0
177
     0
178
     0
  0
DIMSTYLE
  2
ANNOTATIVA
 70
     0
  3

  4

  5

  6

  7

 40
0.0
 41
2.5
 42
0.625
 43
3.75
 44
1.25
 45
0.0
 46
0.0
 47
0.0
 48
0.0
140
2.5
141
2.5
142
0.0
143
0.03937007874016
144
1.0
145
0.0
146
1.0
147
0.625
 71
     0
 72
     0
 73
     0
 74
     0
 75
     0
 76
     0
 77
     1
 78
     8
170
     0
171
     3
172
     1
173
     0
174
     0
175
     0
176
     0
177
     0
178
     0
  0
DIMSTYLE
  2
ISO-25
 70
     0
  3

  4

  5

  6

  7

 40
1.0
 41
2.5
 42
0.625
 43
3.75
 44
1.25
 45
0.0
 46
0.0
 47
0.0
 48
0.0
140
2.5
141
2.5
142
0.0
143
0.03937007874016
144
1.0
145
0.0
146
1.0
147
0.625
 71
     0
 72
     0
 73
     0
 74
     0
 75
     0
 76
     0
 77
     1
 78
     8
170
     0
171
     3
172
     1
173
     0
174
     0
175
     0
176
     0
177
     0
178
     0
  0
DIMSTYLE
  2
ARCHIVIO
 70
     0
  3

  4

  5

  6

  7

 40
1.0
 41
6.5
 42
15.0
 43
3.5
 44
10.0
 45
0.0
 46
0.0
 47
0.0
 48
0.0
140
6.0
141
10.0
142
0.0
143
0.03937007874016
144
1.0
145
0.0
146
1.0
147
1.5
 71
     0
 72
     0
 73
     1
 74
     1
 75
     0
 76
     0
 77
     0
 78
     8
170
     0
171
     3
172
     1
173
     0
174
     0
175
     0
176
   256
177
   256
178
   256
  0
ENDTAB
  0
ENDSEC
  0
SECTION
  2
BLOCKS
  0
BLOCK
  8
0
  2
$MODEL_SPACE
 70
     0
 10
0.0
 20
0.0
 30
0.0
  3
$MODEL_SPACE
  1

  0
ENDBLK
  5
21
  8
0
  0
BLOCK
 67
     1
  8
0
  2
$PAPER_SPACE
 70
     0
 10
0.0
 20
0.0
 30
0.0
  3
$PAPER_SPACE
  1

  0
ENDBLK
  5
D5
 67
     1
  8
0
  0
BLOCK
  8
0
  2
A$C0B8E0D6A
 70
     0
 10
0.0
 20
0.0
 30
0.0
  3
A$C0B8E0D6A
  1

  0
LINE
  5
1ED
  8
0
 10
0.000002929717084
 20
0.0002092361157793
 30
0.0
 11
0.000002929717084
 21
497.96263811151579
 31
0.0
  0
LINE
  5
1EE
  8
0
 10
0.000002929717084
 20
0.0000045225158374
 30
0.0
 11
1100.0000029297171
 21
0.0000045225158374
 31
0.0
  0
LINE
  5
1EF
  8
0
 10
310.63327987661609
 20
317.79078087751577
 30
0.0
 11
310.84038904541558
 21
317.678951867016
 31
0.0
  0
LINE
  5
1F0
  8
0
 10
310.86629187921608
 20
317.66490687351569
 30
0.0
 11
310.92937000241551
 21
317.63062577081593
 31
0.0
  0
LINE
  5
1F1
  8
0
 10
310.9450489442151
 20
317.62205645391577
 30
0.0
 11
310.95817168391659
 21
317.61485447171589
 31
0.0
  0
LINE
  5
1F2
  8
0
 10
310.9689234848156
 20
317.60892434511578
 30
0.0
 11
310.97729172361687
 21
317.6042818740159
 31
0.0
  0
LINE
  5
1F3
  8
0
 10
310.98302132461691
 20
317.60108212511591
 30
0.0
 11
310.98603458501572
 21
317.59938781841561
 31
0.0
  0
LINE
  5
1F4
  8
0
 10
1100.0000029297171
 20
497.96263811151579
 30
0.0
 11
0.000002929717084
 21
497.96263811151579
 31
0.0
  0
LINE
  5
1F5
  8
0
 10
1100.0000029297171
 20
0.0002092361157793
 30
0.0
 11
1100.0000029297171
 21
497.96263811151579
 31
0.0
  0
ARC
  5
1F6
  8
0
 10
299.79457002511663
 20
297.96124000721579
 30
0.0
 40
37.705432930400001
 50
357.6403980677083
 51
0.0021245074862824
  0
ARC
  5
1F7
  8
0
 10
300.20297928141548
 20
297.96120955971583
 30
0.0
 40
37.70297637880001
 50
179.99782908410049
 51
182.3904033533874
  0
ARC
  5
1F8
  8
0
 10
299.82594845481623
 20
298.03387626771593
 30
0.0
 40
37.688061781000002
 50
338.23154618952771
 51
340.65671320337862
  0
ARC
  5
1F9
  8
0
 10
300.17057672461669
 20
298.03253717251602
 30
0.0
 40
37.684332695599998
 50
199.2996469531092
 51
201.76852561722231
  0
ARC
  5
1FA
  8
0
 10
300.03816811371689
 20
297.96819915041578
 30
0.0
 40
37.538602706600003
 50
182.4115542865126
 51
196.8215837253409
  0
ARC
  5
1FB
  8
0
 10
300.00684165621527
 20
297.95778404541579
 30
0.0
 40
37.505903508400003
 50
131.5543241269192
 51
176.2427313468032
  0
ARC
  5
1FC
  8
0
 10
299.98707795701739
 20
297.95783928991591
 30
0.0
 40
37.486217017600012
 50
201.7665092618339
 51
338.23348492039798
  0
ARC
  5
1FD
  8
0
 10
300.01191831331562
 20
297.99008855561578
 30
0.0
 40
37.470027750300012
 50
4.3076455140044869
 51
85.78576944179548
  0
ARC
  5
1FE
  8
0
 10
300.03707159271647
 20
297.95543365321578
 30
0.0
 40
37.462898157199987
 50
343.09547150748949
 51
357.6340011271871
  0
ARC
  5
1FF
  8
0
 10
300.14019751841619
 20
297.92227702361578
 30
0.0
 40
37.354587068400001
 50
340.6585717447137
 51
343.09813611707079
  0
ARC
  5
200
  8
0
 10
299.85613969381671
 20
297.92106704261568
 30
0.0
 40
37.350724274400001
 50
196.83318423378449
 51
199.29768082407389
  0
ARC
  5
201
  8
0
 10
300.36001544901592
 20
297.95620603981592
 30
0.0
 40
37.139988037600013
 50
0.0099227432955529
 51
4.3533526313050181
  0
ARC
  5
202
  8
0
 10
299.58213718011581
 20
297.95759900631577
 30
0.0
 40
37.082134592800003
 50
176.1994446073941
 51
179.9922140549034
  0
ARC
  5
203
  8
0
 10
299.99401274241609
 20
298.42396236601581
 30
0.0
 40
37.03867623
 50
85.708824554234837
 51
89.990733673994839
  0
ARC
  5
204
  8
0
 10
300.00483638401602
 20
298.47138879661571
 30
0.0
 40
36.991249630699997
 50
90.007486541751604
 51
93.828422564256613
  0
CIRCLE
  5
205
  8
0
 10
300.00000292971708
 20
297.9626381115159
 30
0.0
 40
22.5
  0
CIRCLE
  5
206
  8
0
 10
300.00000292971708
 20
437.96263811151579
 30
0.0
 40
17.5
  0
ARC
  5
207
  8
0
 10
800.20543583421568
 20
297.96124000721579
 30
0.0
 40
37.705432930400001
 50
179.99787549248771
 51
182.3596019322917
  0
ARC
  5
208
  8
0
 10
799.79702657791677
 20
297.96120955971583
 30
0.0
 40
37.70297637880001
 50
357.6095966466126
 51
0.0021709158994892
  0
ARC
  5
209
  8
0
 10
800.17405740461606
 20
298.03387626781591
 30
0.0
 40
37.688061781100011
 50
199.34328679662141
 51
201.76845381047229
  0
ARC
  5
20A
  8
0
 10
799.82942913471743
 20
298.03253717251602
 30
0.0
 40
37.684332695599998
 50
338.23147438271718
 51
340.70035304689083
  0
ARC
  5
20B
  8
0
 10
799.96183774551537
 20
297.96819915041578
 30
0.0
 40
37.538602706699997
 50
343.17841627465913
 51
357.58844571348737
  0
ARC
  5
20C
  8
0
 10
799.9931642032152
 20
297.95778404541579
 30
0.0
 40
37.505903508400003
 50
3.757268653196812
 51
48.445675873080773
  0
ARC
  5
20D
  8
0
 10
800.0129279020166
 20
297.957839290116
 30
0.0
 40
37.486217018000012
 50
201.76651507960199
 51
338.2334907381661
  0
ARC
  5
20E
  8
0
 10
799.98808754601657
 20
297.99008855561578
 30
0.0
 40
37.470027750300012
 50
94.214230558204534
 51
175.69235448599551
  0
ARC
  5
20F
  8
0
 10
799.96293426661748
 20
297.95543365321578
 30
0.0
 40
37.462898157199987
 50
182.3659988727868
 51
196.90452849251051
  0
ARC
  5
210
  8
0
 10
799.85980833981557
 20
297.92227702321571
 30
0.0
 40
37.354587067200001
 50
196.90186388292929
 51
199.3414282552863
  0
ARC
  5
211
  8
0
 10
800.14386616551553
 20
297.92106704261568
 30
0.0
 40
37.350724274299999
 50
340.70231917592611
 51
343.16681576621551
  0
ARC
  5
212
  8
0
 10
799.63999041031639
 20
297.95620603981592
 30
0.0
 40
37.139988037600013
 50
175.64664736869489
 51
179.99007725670441
  0
ARC
  5
213
  8
0
 10
800.41786867971678
 20
297.95759900631577
 30
0.0
 40
37.082134592300001
 50
0.0077859449923252
 51
3.8005553926058981
  0
ARC
  5
214
  8
0
 10
800.0059931169161
 20
298.42396236591571
 30
0.0
 40
37.038676230100002
 50
90.009266326005175
 51
94.291175445765148
  0
ARC
  5
215
  8
0
 10
799.99516947531617
 20
298.47138879661571
 30
0.0
 40
36.991249630699997
 50
86.171577435743373
 51
89.992513458248382
  0
CIRCLE
  5
216
  8
0
 10
800.00000292971697
 20
297.9626381115159
 30
0.0
 40
22.5
  0
CIRCLE
  5
217
  8
0
 10
800.00000292971697
 20
437.96263811151579
 30
0.0
 40
17.5
  0
POLYLINE
  8
0
  5
275
  66
     1
 10
0.000000
 20
0.000000
 30
0.000000
  70
     8
  0
VERTEX
  8
0
  5
276
 10
94.7634
 20
227.735
 30
0.000000
  70
    32
  0
VERTEX
  8
0
  5
277
 10
94.7653
 20
228.477
 30
0.000000
  70
    32
  0
VERTEX
  8
0
  5
278
 10
94.7710
 20
229.219
 30
0.000000
  70
    32
  0
VERTEX
  8
0
  5
279
 10
94.7804
 20
229.961
 30
0.000000
  70
    32
  0
VERTEX
  8
0
  5
27A
 10
94.7937
 20
230.703
 30
0.000000
  70
    32
  0
VERTEX
  8
0
  5
27B
 10
94.8107
 20
231.445
 30
0.000000
  70
    32
  0
VERTEX
  8
0
  5
27C
 10
94.8316
 20
232.187
 30
0.000000
  70
    32
  0
VERTEX
  8
0
  5
27D
 10
94.8563
 20
232.929
 30
0.000000
  70
    32
  0
VERTEX
  8
0
  5
27E
 10
94.8849
 20
233.671
 30
0.000000
  70
    32
  0
VERTEX
  8
0
  5
27F
 10
94.9173
 20
234.412
 30
0.000000
  70
    32
  0
VERTEX
  8
0
  5
280
 10
94.9535
 20
235.154
 30
0.000000
  70
    32
  0
VERTEX
  8
0
  5
281
 10
94.9937
 20
235.896
 30
0.000000
  70
    32
  0
VERTEX
  8
0
  5
282
 10
95.0377
 20
236.637
 30
0.000000
  70
    32
  0
VERTEX
  8
0
  5
283
 10
95.0856
 20
237.378
 30
0.000000
  70
    32
  0
VERTEX
  8
0
  5
284
 10
95.1374
 20
238.119
 30
0.000000
  70
    32
  0
VERTEX
  8
0
  5
285
 10
95.1931
 20
238.859
 30
0.000000
  70
    32
  0
VERTEX
  8
0
  5
286
 10
95.2527
 20
239.600
 30
0.000000
  70
    32
  0
VERTEX
  8
0
  5
287
 10
95.3163
 20
240.340
 30
0.000000
  70
    32
  0
VERTEX
  8
0
  5
288
 10
95.3838
 20
241.079
 30
0.000000
  70
    32
  0
VERTEX
  8
0
  5
289
 10
95.4553
 20
241.819
 30
0.000000
  70
    32
  0
VERTEX
  8
0
  5
28A
 10
95.5307
 20
242.558
 30
0.000000
  70
    32
  0
VERTEX
  8
0
  5
28B
 10
95.6101
 20
243.296
 30
0.000000
  70
    32
  0
VERTEX
  8
0
  5
28C
 10
95.6935
 20
244.034
 30
0.000000
  70
    32
  0
VERTEX
  8
0
  5
28D
 10
95.7808
 20
244.771
 30
0.000000
  70
    32
  0
VERTEX
  8
0
  5
28E
 10
95.8722
 20
245.508
 30
0.000000
  70
    32
  0
VERTEX
  8
0
  5
28F
 10
95.9676
 20
246.245
 30
0.000000
  70
    32
  0
VERTEX
  8
0
  5
290
 10
96.0670
 20
246.981
 30
0.000000
  70
    32
  0
VERTEX
  8
0
  5
291
 10
96.1704
 20
247.716
 30
0.000000
  70
    32
  0
VERTEX
  8
0
  5
292
 10
96.2779
 20
248.451
 30
0.000000
  70
    32
  0
VERTEX
  8
0
  5
293
 10
96.3894
 20
249.185
 30
0.000000
  70
    32
  0
VERTEX
  8
0
  5
294
 10
96.5050
 20
249.918
 30
0.000000
  70
    32
  0
VERTEX
  8
0
  5
295
 10
96.6247
 20
250.651
 30
0.000000
  70
    32
  0
VERTEX
  8
0
  5
296
 10
96.7484
 20
251.383
 30
0.000000
  70
    32
  0
VERTEX
  8
0
  5
297
 10
96.8762
 20
252.114
 30
0.000000
  70
    32
  0
VERTEX
  8
0
  5
298
 10
97.0081
 20
252.845
 30
0.000000
  70
    32
  0
VERTEX
  8
0
  5
299
 10
97.1441
 20
253.575
 30
0.000000
  70
    32
  0
VERTEX
  8
0
  5
29A
 10
97.2842
 20
254.304
 30
0.000000
  70
    32
  0
VERTEX
  8
0
  5
29B
 10
97.4284
 20
255.032
 30
0.000000
  70
    32
  0
VERTEX
  8
0
  5
29C
 10
97.5767
 20
255.759
 30
0.000000
  70
    32
  0
VERTEX
  8
0
  5
29D
 10
97.7291
 20
256.486
 30
0.000000
  70
    32
  0
VERTEX
  8
0
  5
29E
 10
97.8857
 20
257.211
 30
0.000000
  70
    32
  0
VERTEX
  8
0
  5
29F
 10
98.0464
 20
257.936
 30
0.000000
  70
    32
  0
VERTEX
  8
0
  5
2A0
 10
98.2112
 20
258.660
 30
0.000000
  70
    32
  0
VERTEX
  8
0
  5
2A1
 10
98.3802
 20
259.383
 30
0.000000
  70
    32
  0
VERTEX
  8
0
  5
2A2
 10
98.5533
 20
260.105
 30
0.000000
  70
    32
  0
VERTEX
  8
0
  5
2A3
 10
98.7306
 20
260.826
 30
0.000000
  70
    32
  0
VERTEX
  8
0
  5
2A4
 10
98.9120
 20
261.545
 30
0.000000
  70
    32
  0
VERTEX
  8
0
  5
2A5
 10
99.0976
 20
262.264
 30
0.000000
  70
    32
  0
VERTEX
  8
0
  5
2A6
 10
99.2874
 20
262.982
 30
0.000000
  70
    32
  0
VERTEX
  8
0
  5
2A7
 10
99.4814
 20
263.699
 30
0.000000
  70
    32
  0
VERTEX
  8
0
  5
2A8
 10
99.6796
 20
264.415
 30
0.000000
  70
    32
  0
VERTEX
  8
0
  5
2A9
 10
99.8820
 20
265.129
 30
0.000000
  70
    32
  0
VERTEX
  8
0
  5
2AA
 10
100.089
 20
265.843
 30
0.000000
  70
    32
  0
VERTEX
  8
0
  5
2AB
 10
100.299
 20
266.555
 30
0.000000
  70
    32
  0
VERTEX
  8
0
  5
2AC
 10
100.514
 20
267.267
 30
0.000000
  70
    32
  0
VERTEX
  8
0
  5
2AD
 10
100.734
 20
267.977
 30
0.000000
  70
    32
  0
VERTEX
  8
0
  5
2AE
 10
100.957
 20
268.685
 30
0.000000
  70
    32
  0
VERTEX
  8
0
  5
2AF
 10
101.185
 20
269.393
 30
0.000000
  70
    32
  0
VERTEX
  8
0
  5
2B0
 10
101.416
 20
270.099
 30
0.000000
  70
    32
  0
VERTEX
  8
0
  5
2B1
 10
101.652
 20
270.804
 30
0.000000
  70
    32
  0
VERTEX
  8
0
  5
2B2
 10
101.893
 20
271.508
 30
0.000000
  70
    32
  0
VERTEX
  8
0
  5
2B3
 10
102.137
 20
272.210
 30
0.000000
  70
    32
  0
VERTEX
  8
0
  5
2B4
 10
102.385
 20
272.911
 30
0.000000
  70
    32
  0
VERTEX
  8
0
  5
2B5
 10
102.638
 20
273.611
 30
0.000000
  70
    32
  0
VERTEX
  8
0
  5
2B6
 10
102.894
 20
274.309
 30
0.000000
  70
    32
  0
VERTEX
  8
0
  5
2B7
 10
103.155
 20
275.005
 30
0.000000
  70
    32
  0
VERTEX
  8
0
  5
2B8
 10
103.420
 20
275.701
 30
0.000000
  70
    32
  0
VERTEX
  8
0
  5
2B9
 10
103.688
 20
276.394
 30
0.000000
  70
    32
  0
VERTEX
  8
0
  5
2BA
 10
103.961
 20
277.086
 30
0.000000
  70
    32
  0
VERTEX
  8
0
  5
2BB
 10
104.238
 20
277.777
 30
0.000000
  70
    32
  0
VERTEX
  8
0
  5
2BC
 10
104.519
 20
278.466
 30
0.000000
  70
    32
  0
VERTEX
  8
0
  5
2BD
 10
104.804
 20
279.153
 30
0.000000
  70
    32
  0
VERTEX
  8
0
  5
2BE
 10
105.093
 20
279.839
 30
0.000000
  70
    32
  0
VERTEX
  8
0
  5
2BF
 10
105.386
 20
280.523
 30
0.000000
  70
    32
  0
VERTEX
  8
0
  5
2C0
 10
105.683
 20
281.206
 30
0.000000
  70
    32
  0
VERTEX
  8
0
  5
2C1
 10
105.984
 20
281.886
 30
0.000000
  70
    32
  0
VERTEX
  8
0
  5
2C2
 10
106.289
 20
282.565
 30
0.000000
  70
    32
  0
VERTEX
  8
0
  5
2C3
 10
106.598
 20
283.242
 30
0.000000
  70
    32
  0
VERTEX
  8
0
  5
2C4
 10
106.911
 20
283.918
 30
0.000000
  70
    32
  0
VERTEX
  8
0
  5
2C5
 10
107.227
 20
284.591
 30
0.000000
  70
    32
  0
VERTEX
  8
0
  5
2C6
 10
107.548
 20
285.263
 30
0.000000
  70
    32
  0
VERTEX
  8
0
  5
2C7
 10
107.873
 20
285.933
 30
0.000000
  70
    32
  0
VERTEX
  8
0
  5
2C8
 10
108.201
 20
286.601
 30
0.000000
  70
    32
  0
VERTEX
  8
0
  5
2C9
 10
108.533
 20
287.267
 30
0.000000
  70
    32
  0
VERTEX
  8
0
  5
2CA
 10
108.869
 20
287.931
 30
0.000000
  70
    32
  0
VERTEX
  8
0
  5
2CB
 10
109.210
 20
288.593
 30
0.000000
  70
    32
  0
VERTEX
  8
0
  5
2CC
 10
109.553
 20
289.253
 30
0.000000
  70
    32
  0
VERTEX
  8
0
  5
2CD
 10
109.901
 20
289.911
 30
0.000000
  70
    32
  0
VERTEX
  8
0
  5
2CE
 10
110.253
 20
290.567
 30
0.000000
  70
    32
  0
VERTEX
  8
0
  5
2CF
 10
110.608
 20
291.221
 30
0.000000
  70
    32
  0
VERTEX
  8
0
  5
2D0
 10
110.967
 20
291.873
 30
0.000000
  70
    32
  0
VERTEX
  8
0
  5
2D1
 10
111.330
 20
292.523
 30
0.000000
  70
    32
  0
VERTEX
  8
0
  5
2D2
 10
111.697
 20
293.170
 30
0.000000
  70
    32
  0
VERTEX
  8
0
  5
2D3
 10
112.067
 20
293.816
 30
0.000000
  70
    32
  0
VERTEX
  8
0
  5
2D4
 10
112.441
 20
294.459
 30
0.000000
  70
    32
  0
VERTEX
  8
0
  5
2D5
 10
112.819
 20
295.100
 30
0.000000
  70
    32
  0
VERTEX
  8
0
  5
2D6
 10
113.201
 20
295.739
 30
0.000000
  70
    32
  0
VERTEX
  8
0
  5
2D7
 10
113.586
 20
296.375
 30
0.000000
  70
    32
  0
VERTEX
  8
0
  5
2D8
 10
113.975
 20
297.009
 30
0.000000
  70
    32
  0
VERTEX
  8
0
  5
2D9
 10
114.368
 20
297.641
 30
0.000000
  70
    32
  0
VERTEX
  8
0
  5
2DA
 10
114.765
 20
298.270
 30
0.000000
  70
    32
  0
VERTEX
  8
0
  5
2DB
 10
115.165
 20
298.897
 30
0.000000
  70
    32
  0
VERTEX
  8
0
  5
2DC
 10
115.568
 20
299.522
 30
0.000000
  70
    32
  0
VERTEX
  8
0
  5
2DD
 10
115.976
 20
300.144
 30
0.000000
  70
    32
  0
VERTEX
  8
0
  5
2DE
 10
116.387
 20
300.764
 30
0.000000
  70
    32
  0
VERTEX
  8
0
  5
2DF
 10
116.801
 20
301.381
 30
0.000000
  70
    32
  0
VERTEX
  8
0
  5
2E0
 10
117.219
 20
301.996
 30
0.000000
  70
    32
  0
VERTEX
  8
0
  5
2E1
 10
117.641
 20
302.609
 30
0.000000
  70
    32
  0
VERTEX
  8
0
  5
2E2
 10
118.065
 20
303.219
 30
0.000000
  70
    32
  0
VERTEX
  8
0
  5
2E3
 10
118.494
 20
303.827
 30
0.000000
  70
    32
  0
VERTEX
  8
0
  5
2E4
 10
118.926
 20
304.432
 30
0.000000
  70
    32
  0
VERTEX
  8
0
  5
2E5
 10
119.361
 20
305.035
 30
0.000000
  70
    32
  0
VERTEX
  8
0
  5
2E6
 10
119.800
 20
305.636
 30
0.000000
  70
    32
  0
VERTEX
  8
0
  5
2E7
 10
120.242
 20
306.233
 30
0.000000
  70
    32
  0
VERTEX
  8
0
  5
2E8
 10
120.687
 20
306.829
 30
0.000000
  70
    32
  0
VERTEX
  8
0
  5
2E9
 10
121.136
 20
307.422
 30
0.000000
  70
    32
  0
VERTEX
  8
0
  5
2EA
 10
121.588
 20
308.012
 30
0.000000
  70
    32
  0
VERTEX
  8
0
  5
2EB
 10
122.043
 20
308.600
 30
0.000000
  70
    32
  0
VERTEX
  8
0
  5
2EC
 10
122.501
 20
309.185
 30
0.000000
  70
    32
  0
VERTEX
  8
0
  5
2ED
 10
122.963
 20
309.768
 30
0.000000
  70
    32
  0
VERTEX
  8
0
  5
2EE
 10
123.428
 20
310.348
 30
0.000000
  70
    32
  0
VERTEX
  8
0
  5
2EF
 10
123.896
 20
310.926
 30
0.000000
  70
    32
  0
VERTEX
  8
0
  5
2F0
 10
124.367
 20
311.501
 30
0.000000
  70
    32
  0
VERTEX
  8
0
  5
2F1
 10
124.842
 20
312.074
 30
0.000000
  70
    32
  0
VERTEX
  8
0
  5
2F2
 10
125.319
 20
312.643
 30
0.000000
  70
    32
  0
VERTEX
  8
0
  5
2F3
 10
125.800
 20
313.211
 30
0.000000
  70
    32
  0
VERTEX
  8
0
  5
2F4
 10
126.284
 20
313.776
 30
0.000000
  70
    32
  0
VERTEX
  8
0
  5
2F5
 10
126.770
 20
314.338
 30
0.000000
  70
    32
  0
VERTEX
  8
0
  5
2F6
 10
127.260
 20
314.897
 30
0.000000
  70
    32
  0
VERTEX
  8
0
  5
2F7
 10
127.753
 20
315.454
 30
0.000000
  70
    32
  0
VERTEX
  8
0
  5
2F8
 10
128.248
 20
316.008
 30
0.000000
  70
    32
  0
VERTEX
  8
0
  5
2F9
 10
128.747
 20
316.560
 30
0.000000
  70
    32
  0
VERTEX
  8
0
  5
2FA
 10
129.248
 20
317.109
 30
0.000000
  70
    32
  0
VERTEX
  8
0
  5
2FB
 10
129.753
 20
317.655
 30
0.000000
  70
    32
  0
VERTEX
  8
0
  5
2FC
 10
130.260
 20
318.198
 30
0.000000
  70
    32
  0
VERTEX
  8
0
  5
2FD
 10
130.770
 20
318.739
 30
0.000000
  70
    32
  0
VERTEX
  8
0
  5
2FE
 10
131.283
 20
319.277
 30
0.000000
  70
    32
  0
VERTEX
  8
0
  5
2FF
 10
131.799
 20
319.813
 30
0.000000
  70
    32
  0
VERTEX
  8
0
  5
300
 10
132.317
 20
320.345
 30
0.000000
  70
    32
  0
VERTEX
  8
0
  5
301
 10
132.838
 20
320.875
 30
0.000000
  70
    32
  0
VERTEX
  8
0
  5
302
 10
133.362
 20
321.402
 30
0.000000
  70
    32
  0
VERTEX
  8
0
  5
303
 10
133.889
 20
321.927
 30
0.000000
  70
    32
  0
VERTEX
  8
0
  5
304
 10
134.418
 20
322.448
 30
0.000000
  70
    32
  0
VERTEX
  8
0
  5
305
 10
134.950
 20
322.967
 30
0.000000
  70
    32
  0
VERTEX
  8
0
  5
306
 10
135.485
 20
323.483
 30
0.000000
  70
    32
  0
VERTEX
  8
0
  5
307
 10
136.022
 20
323.997
 30
0.000000
  70
    32
  0
VERTEX
  8
0
  5
308
 10
136.562
 20
324.507
 30
0.000000
  70
    32
  0
VERTEX
  8
0
  5
309
 10
137.105
 20
325.015
 30
0.000000
  70
    32
  0
VERTEX
  8
0
  5
30A
 10
137.650
 20
325.520
 30
0.000000
  70
    32
  0
VERTEX
  8
0
  5
30B
 10
138.197
 20
326.023
 30
0.000000
  70
    32
  0
VERTEX
  8
0
  5
30C
 10
138.747
 20
326.522
 30
0.000000
  70
    32
  0
VERTEX
  8
0
  5
30D
 10
139.300
 20
327.019
 30
0.000000
  70
    32
  0
VERTEX
  8
0
  5
30E
 10
139.855
 20
327.513
 30
0.000000
  70
    32
  0
VERTEX
  8
0
  5
30F
 10
140.412
 20
328.004
 30
0.000000
  70
    32
  0
VERTEX
  8
0
  5
310
 10
140.972
 20
328.493
 30
0.000000
  70
    32
  0
VERTEX
  8
0
  5
311
 10
141.534
 20
328.979
 30
0.000000
  70
    32
  0
VERTEX
  8
0
  5
312
 10
142.099
 20
329.462
 30
0.000000
  70
    32
  0
VERTEX
  8
0
  5
313
 10
142.666
 20
329.942
 30
0.000000
  70
    32
  0
VERTEX
  8
0
  5
314
 10
143.235
 20
330.420
 30
0.000000
  70
    32
  0
VERTEX
  8
0
  5
315
 10
143.806
 20
330.895
 30
0.000000
  70
    32
  0
VERTEX
  8
0
  5
316
 10
144.380
 20
331.367
 30
0.000000
  70
    32
  0
VERTEX
  8
0
  5
317
 10
144.956
 20
331.836
 30
0.000000
  70
    32
  0
VERTEX
  8
0
  5
318
 10
145.535
 20
332.303
 30
0.000000
  70
    32
  0
VERTEX
  8
0
  5
319
 10
146.115
 20
332.767
 30
0.000000
  70
    32
  0
VERTEX
  8
0
  5
31A
 10
146.698
 20
333.228
 30
0.000000
  70
    32
  0
VERTEX
  8
0
  5
31B
 10
147.283
 20
333.686
 30
0.000000
  70
    32
  0
VERTEX
  8
0
  5
31C
 10
147.870
 20
334.142
 30
0.000000
  70
    32
  0
VERTEX
  8
0
  5
31D
 10
148.459
 20
334.595
 30
0.000000
  70
    32
  0
VERTEX
  8
0
  5
31E
 10
149.050
 20
335.045
 30
0.000000
  70
    32
  0
VERTEX
  8
0
  5
31F
 10
149.644
 20
335.493
 30
0.000000
  70
    32
  0
VERTEX
  8
0
  5
320
 10
150.239
 20
335.937
 30
0.000000
  70
    32
  0
VERTEX
  8
0
  5
321
 10
150.836
 20
336.379
 30
0.000000
  70
    32
  0
VERTEX
  8
0
  5
322
 10
151.436
 20
336.819
 30
0.000000
  70
    32
  0
VERTEX
  8
0
  5
323
 10
152.037
 20
337.255
 30
0.000000
  70
    32
  0
VERTEX
  8
0
  5
324
 10
152.640
 20
337.689
 30
0.000000
  70
    32
  0
VERTEX
  8
0
  5
325
 10
153.246
 20
338.120
 30
0.000000
  70
    32
  0
VERTEX
  8
0
  5
326
 10
153.853
 20
338.549
 30
0.000000
  70
    32
  0
VERTEX
  8
0
  5
327
 10
154.462
 20
338.974
 30
0.000000
  70
    32
  0
VERTEX
  8
0
  5
328
 10
155.073
 20
339.397
 30
0.000000
  70
    32
  0
VERTEX
  8
0
  5
329
 10
155.686
 20
339.817
 30
0.000000
  70
    32
  0
VERTEX
  8
0
  5
32A
 10
156.301
 20
340.235
 30
0.000000
  70
    32
  0
VERTEX
  8
0
  5
32B
 10
156.917
 20
340.650
 30
0.000000
  70
    32
  0
VERTEX
  8
0
  5
32C
 10
157.535
 20
341.062
 30
0.000000
  70
    32
  0
VERTEX
  8
0
  5
32D
 10
158.155
 20
341.471
 30
0.000000
  70
    32
  0
VERTEX
  8
0
  5
32E
 10
158.777
 20
341.878
 30
0.000000
  70
    32
  0
VERTEX
  8
0
  5
32F
 10
159.401
 20
342.282
 30
0.000000
  70
    32
  0
VERTEX
  8
0
  5
330
 10
160.026
 20
342.683
 30
0.000000
  70
    32
  0
VERTEX
  8
0
  5
331
 10
160.653
 20
343.081
 30
0.000000
  70
    32
  0
VERTEX
  8
0
  5
332
 10
161.281
 20
343.477
 30
0.000000
  70
    32
  0
VERTEX
  8
0
  5
333
 10
161.912
 20
343.870
 30
0.000000
  70
    32
  0
VERTEX
  8
0
  5
334
 10
162.543
 20
344.261
 30
0.000000
  70
    32
  0
VERTEX
  8
0
  5
335
 10
163.177
 20
344.649
 30
0.000000
  70
    32
  0
VERTEX
  8
0
  5
336
 10
163.812
 20
345.034
 30
0.000000
  70
    32
  0
VERTEX
  8
0
  5
337
 10
164.449
 20
345.416
 30
0.000000
  70
    32
  0
VERTEX
  8
0
  5
338
 10
165.087
 20
345.796
 30
0.000000
  70
    32
  0
VERTEX
  8
0
  5
339
 10
165.727
 20
346.174
 30
0.000000
  70
    32
  0
VERTEX
  8
0
  5
33A
 10
166.368
 20
346.548
 30
0.000000
  70
    32
  0
VERTEX
  8
0
  5
33B
 10
167.011
 20
346.920
 30
0.000000
  70
    32
  0
VERTEX
  8
0
  5
33C
 10
167.655
 20
347.289
 30
0.000000
  70
    32
  0
VERTEX
  8
0
  5
33D
 10
168.301
 20
347.656
 30
0.000000
  70
    32
  0
VERTEX
  8
0
  5
33E
 10
168.948
 20
348.020
 30
0.000000
  70
    32
  0
VERTEX
  8
0
  5
33F
 10
169.597
 20
348.382
 30
0.000000
  70
    32
  0
VERTEX
  8
0
  5
340
 10
170.247
 20
348.741
 30
0.000000
  70
    32
  0
VERTEX
  8
0
  5
341
 10
170.899
 20
349.097
 30
0.000000
  70
    32
  0
VERTEX
  8
0
  5
342
 10
171.552
 20
349.451
 30
0.000000
  70
    32
  0
VERTEX
  8
0
  5
343
 10
172.207
 20
349.802
 30
0.000000
  70
    32
  0
VERTEX
  8
0
  5
344
 10
172.862
 20
350.151
 30
0.000000
  70
    32
  0
VERTEX
  8
0
  5
345
 10
173.520
 20
350.497
 30
0.000000
  70
    32
  0
VERTEX
  8
0
  5
346
 10
174.178
 20
350.840
 30
0.000000
  70
    32
  0
VERTEX
  8
0
  5
347
 10
174.838
 20
351.181
 30
0.000000
  70
    32
  0
VERTEX
  8
0
  5
348
 10
175.499
 20
351.519
 30
0.000000
  70
    32
  0
VERTEX
  8
0
  5
349
 10
176.162
 20
351.855
 30
0.000000
  70
    32
  0
VERTEX
  8
0
  5
34A
 10
176.826
 20
352.189
 30
0.000000
  70
    32
  0
VERTEX
  8
0
  5
34B
 10
177.491
 20
352.519
 30
0.000000
  70
    32
  0
VERTEX
  8
0
  5
34C
 10
178.157
 20
352.848
 30
0.000000
  70
    32
  0
VERTEX
  8
0
  5
34D
 10
178.824
 20
353.174
 30
0.000000
  70
    32
  0
VERTEX
  8
0
  5
34E
 10
179.493
 20
353.497
 30
0.000000
  70
    32
  0
VERTEX
  8
0
  5
34F
 10
180.163
 20
353.818
 30
0.000000
  70
    32
  0
VERTEX
  8
0
  5
350
 10
180.834
 20
354.136
 30
0.000000
  70
    32
  0
VERTEX
  8
0
  5
351
 10
181.506
 20
354.452
 30
0.000000
  70
    32
  0
VERTEX
  8
0
  5
352
 10
182.180
 20
354.765
 30
0.000000
  70
    32
  0
VERTEX
  8
0
  5
353
 10
182.854
 20
355.076
 30
0.000000
  70
    32
  0
VERTEX
  8
0
  5
354
 10
183.530
 20
355.385
 30
0.000000
  70
    32
  0
VERTEX
  8
0
  5
355
 10
184.207
 20
355.691
 30
0.000000
  70
    32
  0
VERTEX
  8
0
  5
356
 10
184.885
 20
355.994
 30
0.000000
  70
    32
  0
VERTEX
  8
0
  5
357
 10
185.564
 20
356.295
 30
0.000000
  70
    32
  0
VERTEX
  8
0
  5
358
 10
186.244
 20
356.594
 30
0.000000
  70
    32
  0
VERTEX
  8
0
  5
359
 10
186.925
 20
356.890
 30
0.000000
  70
    32
  0
VERTEX
  8
0
  5
35A
 10
187.607
 20
357.184
 30
0.000000
  70
    32
  0
VERTEX
  8
0
  5
35B
 10
188.290
 20
357.476
 30
0.000000
  70
    32
  0
VERTEX
  8
0
  5
35C
 10
188.974
 20
357.765
 30
0.000000
  70
    32
  0
VERTEX
  8
0
  5
35D
 10
189.659
 20
358.051
 30
0.000000
  70
    32
  0
VERTEX
  8
0
  5
35E
 10
190.345
 20
358.336
 30
0.000000
  70
    32
  0
VERTEX
  8
0
  5
35F
 10
191.032
 20
358.618
 30
0.000000
  70
    32
  0
VERTEX
  8
0
  5
360
 10
191.720
 20
358.897
 30
0.000000
  70
    32
  0
VERTEX
  8
0
  5
361
 10
192.409
 20
359.174
 30
0.000000
  70
    32
  0
VERTEX
  8
0
  5
362
 10
193.099
 20
359.449
 30
0.000000
  70
    32
  0
VERTEX
  8
0
  5
363
 10
193.789
 20
359.722
 30
0.000000
  70
    32
  0
VERTEX
  8
0
  5
364
 10
194.481
 20
359.992
 30
0.000000
  70
    32
  0
VERTEX
  8
0
  5
365
 10
195.173
 20
360.259
 30
0.000000
  70
    32
  0
VERTEX
  8
0
  5
366
 10
195.867
 20
360.525
 30
0.000000
  70
    32
  0
VERTEX
  8
0
  5
367
 10
196.561
 20
360.788
 30
0.000000
  70
    32
  0
VERTEX
  8
0
  5
368
 10
197.256
 20
361.049
 30
0.000000
  70
    32
  0
VERTEX
  8
0
  5
369
 10
197.952
 20
361.307
 30
0.000000
  70
    32
  0
VERTEX
  8
0
  5
36A
 10
198.649
 20
361.563
 30
0.000000
  70
    32
  0
VERTEX
  8
0
  5
36B
 10
199.347
 20
361.817
 30
0.000000
  70
    32
  0
VERTEX
  8
0
  5
36C
 10
200.046
 20
362.069
 30
0.000000
  70
    32
  0
VERTEX
  8
0
  5
36D
 10
200.745
 20
362.318
 30
0.000000
  70
    32
  0
VERTEX
  8
0
  5
36E
 10
201.445
 20
362.565
 30
0.000000
  70
    32
  0
VERTEX
  8
0
  5
36F
 10
202.146
 20
362.810
 30
0.000000
  70
    32
  0
VERTEX
  8
0
  5
370
 10
202.848
 20
363.053
 30
0.000000
  70
    32
  0
VERTEX
  8
0
  5
371
 10
203.551
 20
363.293
 30
0.000000
  70
    32
  0
VERTEX
  8
0
  5
372
 10
204.254
 20
363.531
 30
0.000000
  70
    32
  0
VERTEX
  8
0
  5
373
 10
204.958
 20
363.767
 30
0.000000
  70
    32
  0
VERTEX
  8
0
  5
374
 10
205.663
 20
364.001
 30
0.000000
  70
    32
  0
VERTEX
  8
0
  5
375
 10
206.368
 20
364.232
 30
0.000000
  70
    32
  0
VERTEX
  8
0
  5
376
 10
207.075
 20
364.461
 30
0.000000
  70
    32
  0
VERTEX
  8
0
  5
377
 10
207.782
 20
364.688
 30
0.000000
  70
    32
  0
VERTEX
  8
0
  5
378
 10
208.489
 20
364.913
 30
0.000000
  70
    32
  0
VERTEX
  8
0
  5
379
 10
209.198
 20
365.136
 30
0.000000
  70
    32
  0
VERTEX
  8
0
  5
37A
 10
209.907
 20
365.356
 30
0.000000
  70
    32
  0
VERTEX
  8
0
  5
37B
 10
210.616
 20
365.575
 30
0.000000
  70
    32
  0
VERTEX
  8
0
  5
37C
 10
211.327
 20
365.791
 30
0.000000
  70
    32
  0
VERTEX
  8
0
  5
37D
 10
212.038
 20
366.005
 30
0.000000
  70
    32
  0
VERTEX
  8
0
  5
37E
 10
212.750
 20
366.217
 30
0.000000
  70
    32
  0
VERTEX
  8
0
  5
37F
 10
213.462
 20
366.426
 30
0.000000
  70
    32
  0
VERTEX
  8
0
  5
380
 10
214.175
 20
366.634
 30
0.000000
  70
    32
  0
VERTEX
  8
0
  5
381
 10
214.888
 20
366.839
 30
0.000000
  70
    32
  0
VERTEX
  8
0
  5
382
 10
215.603
 20
367.043
 30
0.000000
  70
    32
  0
VERTEX
  8
0
  5
383
 10
216.317
 20
367.244
 30
0.000000
  70
    32
  0
VERTEX
  8
0
  5
384
 10
217.033
 20
367.443
 30
0.000000
  70
    32
  0
VERTEX
  8
0
  5
385
 10
217.749
 20
367.640
 30
0.000000
  70
    32
  0
VERTEX
  8
0
  5
386
 10
218.465
 20
367.835
 30
0.000000
  70
    32
  0
VERTEX
  8
0
  5
387
 10
219.182
 20
368.028
 30
0.000000
  70
    32
  0
VERTEX
  8
0
  5
388
 10
219.900
 20
368.218
 30
0.000000
  70
    32
  0
VERTEX
  8
0
  5
389
 10
220.618
 20
368.407
 30
0.000000
  70
    32
  0
VERTEX
  8
0
  5
38A
 10
221.336
 20
368.594
 30
0.000000
  70
    32
  0
VERTEX
  8
0
  5
38B
 10
222.055
 20
368.778
 30
0.000000
  70
    32
  0
VERTEX
  8
0
  5
38C
 10
222.775
 20
368.961
 30
0.000000
  70
    32
  0
VERTEX
  8
0
  5
38D
 10
223.495
 20
369.141
 30
0.000000
  70
    32
  0
VERTEX
  8
0
  5
38E
 10
224.216
 20
369.320
 30
0.000000
  70
    32
  0
VERTEX
  8
0
  5
38F
 10
224.937
 20
369.496
 30
0.000000
  70
    32
  0
VERTEX
  8
0
  5
390
 10
225.658
 20
369.671
 30
0.000000
  70
    32
  0
VERTEX
  8
0
  5
391
 10
226.380
 20
369.843
 30
0.000000
  70
    32
  0
VERTEX
  8
0
  5
392
 10
227.103
 20
370.013
 30
0.000000
  70
    32
  0
VERTEX
  8
0
  5
393
 10
227.826
 20
370.182
 30
0.000000
  70
    32
  0
VERTEX
  8
0
  5
394
 10
228.549
 20
370.348
 30
0.000000
  70
    32
  0
VERTEX
  8
0
  5
395
 10
229.273
 20
370.513
 30
0.000000
  70
    32
  0
VERTEX
  8
0
  5
396
 10
229.997
 20
370.675
 30
0.000000
  70
    32
  0
VERTEX
  8
0
  5
397
 10
230.722
 20
370.836
 30
0.000000
  70
    32
  0
VERTEX
  8
0
  5
398
 10
231.447
 20
370.994
 30
0.000000
  70
    32
  0
VERTEX
  8
0
  5
399
 10
232.173
 20
371.151
 30
0.000000
  70
    32
  0
VERTEX
  8
0
  5
39A
 10
232.899
 20
371.305
 30
0.000000
  70
    32
  0
VERTEX
  8
0
  5
39B
 10
233.625
 20
371.458
 30
0.000000
  70
    32
  0
VERTEX
  8
0
  5
39C
 10
234.352
 20
371.609
 30
0.000000
  70
    32
  0
VERTEX
  8
0
  5
39D
 10
235.079
 20
371.757
 30
0.000000
  70
    32
  0
VERTEX
  8
0
  5
39E
 10
235.807
 20
371.904
 30
0.000000
  70
    32
  0
VERTEX
  8
0
  5
39F
 10
236.535
 20
372.049
 30
0.000000
  70
    32
  0
VERTEX
  8
0
  5
3A0
 10
237.264
 20
372.192
 30
0.000000
  70
    32
  0
VERTEX
  8
0
  5
3A1
 10
237.992
 20
372.333
 30
0.000000
  70
    32
  0
VERTEX
  8
0
  5
3A2
 10
238.722
 20
372.472
 30
0.000000
  70
    32
  0
VERTEX
  8
0
  5
3A3
 10
239.451
 20
372.609
 30
0.000000
  70
    32
  0
VERTEX
  8
0
  5
3A4
 10
240.181
 20
372.745
 30
0.000000
  70
    32
  0
VERTEX
  8
0
  5
3A5
 10
240.911
 20
372.878
 30
0.000000
  70
    32
  0
VERTEX
  8
0
  5
3A6
 10
241.642
 20
373.010
 30
0.000000
  70
    32
  0
VERTEX
  8
0
  5
3A7
 10
242.373
 20
373.140
 30
0.000000
  70
    32
  0
VERTEX
  8
0
  5
3A8
 10
243.104
 20
373.268
 30
0.000000
  70
    32
  0
VERTEX
  8
0
  5
3A9
 10
243.836
 20
373.394
 30
0.000000
  70
    32
  0
VERTEX
  8
0
  5
3AA
 10
244.568
 20
373.518
 30
0.000000
  70
    32
  0
VERTEX
  8
0
  5
3AB
 10
245.300
 20
373.640
 30
0.000000
  70
    32
  0
VERTEX
  8
0
  5
3AC
 10
246.032
 20
373.761
 30
0.000000
  70
    32
  0
VERTEX
  8
0
  5
3AD
 10
246.765
 20
373.879
 30
0.000000
  70
    32
  0
VERTEX
  8
0
  5
3AE
 10
247.499
 20
373.996
 30
0.000000
  70
    32
  0
VERTEX
  8
0
  5
3AF
 10
248.232
 20
374.111
 30
0.000000
  70
    32
  0
VERTEX
  8
0
  5
3B0
 10
248.966
 20
374.224
 30
0.000000
  70
    32
  0
VERTEX
  8
0
  5
3B1
 10
249.700
 20
374.335
 30
0.000000
  70
    32
  0
VERTEX
  8
0
  5
3B2
 10
250.434
 20
374.445
 30
0.000000
  70
    32
  0
VERTEX
  8
0
  5
3B3
 10
251.169
 20
374.553
 30
0.000000
  70
    32
  0
VERTEX
  8
0
  5
3B4
 10
251.904
 20
374.659
 30
0.000000
  70
    32
  0
VERTEX
  8
0
  5
3B5
 10
252.639
 20
374.763
 30
0.000000
  70
    32
  0
VERTEX
  8
0
  5
3B6
 10
253.374
 20
374.865
 30
0.000000
  70
    32
  0
VERTEX
  8
0
  5
3B7
 10
254.110
 20
374.966
 30
0.000000
  70
    32
  0
VERTEX
  8
0
  5
3B8
 10
254.845
 20
375.065
 30
0.000000
  70
    32
  0
VERTEX
  8
0
  5
3B9
 10
255.582
 20
375.162
 30
0.000000
  70
    32
  0
VERTEX
  8
0
  5
3BA
 10
256.318
 20
375.257
 30
0.000000
  70
    32
  0
VERTEX
  8
0
  5
3BB
 10
257.054
 20
375.351
 30
0.000000
  70
    32
  0
VERTEX
  8
0
  5
3BC
 10
257.791
 20
375.443
 30
0.000000
  70
    32
  0
VERTEX
  8
0
  5
3BD
 10
258.528
 20
375.533
 30
0.000000
  70
    32
  0
VERTEX
  8
0
  5
3BE
 10
259.265
 20
375.621
 30
0.000000
  70
    32
  0
VERTEX
  8
0
  5
3BF
 10
260.003
 20
375.708
 30
0.000000
  70
    32
  0
VERTEX
  8
0
  5
3C0
 10
260.740
 20
375.793
 30
0.000000
  70
    32
  0
VERTEX
  8
0
  5
3C1
 10
261.478
 20
375.876
 30
0.000000
  70
    32
  0
VERTEX
  8
0
  5
3C2
 10
262.216
 20
375.958
 30
0.000000
  70
    32
  0
VERTEX
  8
0
  5
3C3
 10
262.954
 20
376.038
 30
0.000000
  70
    32
  0
VERTEX
  8
0
  5
3C4
 10
263.692
 20
376.116
 30
0.000000
  70
    32
  0
VERTEX
  8
0
  5
3C5
 10
264.431
 20
376.192
 30
0.000000
  70
    32
  0
VERTEX
  8
0
  5
3C6
 10
265.169
 20
376.267
 30
0.000000
  70
    32
  0
VERTEX
  8
0
  5
3C7
 10
265.908
 20
376.340
 30
0.000000
  70
    32
  0
VERTEX
  8
0
  5
3C8
 10
266.647
 20
376.411
 30
0.000000
  70
    32
  0
VERTEX
  8
0
  5
3C9
 10
267.386
 20
376.481
 30
0.000000
  70
    32
  0
VERTEX
  8
0
  5
3CA
 10
268.126
 20
376.549
 30
0.000000
  70
    32
  0
VERTEX
  8
0
  5
3CB
 10
268.865
 20
376.616
 30
0.000000
  70
    32
  0
VERTEX
  8
0
  5
3CC
 10
269.605
 20
376.680
 30
0.000000
  70
    32
  0
VERTEX
  8
0
  5
3CD
 10
270.345
 20
376.743
 30
0.000000
  70
    32
  0
VERTEX
  8
0
  5
3CE
 10
271.084
 20
376.805
 30
0.000000
  70
    32
  0
VERTEX
  8
0
  5
3CF
 10
271.824
 20
376.865
 30
0.000000
  70
    32
  0
VERTEX
  8
0
  5
3D0
 10
272.565
 20
376.923
 30
0.000000
  70
    32
  0
VERTEX
  8
0
  5
3D1
 10
273.305
 20
376.979
 30
0.000000
  70
    32
  0
VERTEX
  8
0
  5
3D2
 10
274.045
 20
377.034
 30
0.000000
  70
    32
  0
VERTEX
  8
0
  5
3D3
 10
274.786
 20
377.087
 30
0.000000
  70
    32
  0
VERTEX
  8
0
  5
3D4
 10
275.526
 20
377.139
 30
0.000000
  70
    32
  0
VERTEX
  8
0
  5
3D5
 10
276.267
 20
377.189
 30
0.000000
  70
    32
  0
VERTEX
  8
0
  5
3D6
 10
277.008
 20
377.237
 30
0.000000
  70
    32
  0
VERTEX
  8
0
  5
3D7
 10
277.749
 20
377.284
 30
0.000000
  70
    32
  0
VERTEX
  8
0
  5
3D8
 10
278.490
 20
377.329
 30
0.000000
  70
    32
  0
VERTEX
  8
0
  5
3D9
 10
279.231
 20
377.373
 30
0.000000
  70
    32
  0
VERTEX
  8
0
  5
3DA
 10
279.972
 20
377.415
 30
0.000000
  70
    32
  0
VERTEX
  8
0
  5
3DB
 10
280.713
 20
377.455
 30
0.000000
  70
    32
  0
VERTEX
  8
0
  5
3DC
 10
281.454
 20
377.494
 30
0.000000
  70
    32
  0
VERTEX
  8
0
  5
3DD
 10
282.196
 20
377.531
 30
0.000000
  70
    32
  0
VERTEX
  8
0
  5
3DE
 10
282.937
 20
377.567
 30
0.000000
  70
    32
  0
VERTEX
  8
0
  5
3DF
 10
283.679
 20
377.601
 30
0.000000
  70
    32
  0
VERTEX
  8
0
  5
3E0
 10
284.420
 20
377.633
 30
0.000000
  70
    32
  0
VERTEX
  8
0
  5
3E1
 10
285.162
 20
377.664
 30
0.000000
  70
    32
  0
VERTEX
  8
0
  5
3E2
 10
285.904
 20
377.694
 30
0.000000
  70
    32
  0
VERTEX
  8
0
  5
3E3
 10
286.646
 20
377.721
 30
0.000000
  70
    32
  0
VERTEX
  8
0
  5
3E4
 10
287.387
 20
377.748
 30
0.000000
  70
    32
  0
VERTEX
  8
0
  5
3E5
 10
288.129
 20
377.772
 30
0.000000
  70
    32
  0
VERTEX
  8
0
  5
3E6
 10
288.871
 20
377.796
 30
0.000000
  70
    32
  0
VERTEX
  8
0
  5
3E7
 10
289.613
 20
377.817
 30
0.000000
  70
    32
  0
VERTEX
  8
0
  5
3E8
 10
290.355
 20
377.837
 30
0.000000
  70
    32
  0
VERTEX
  8
0
  5
3E9
 10
291.097
 20
377.856
 30
0.000000
  70
    32
  0
VERTEX
  8
0
  5
3EA
 10
291.839
 20
377.873
 30
0.000000
  70
    32
  0
VERTEX
  8
0
  5
3EB
 10
292.581
 20
377.889
 30
0.000000
  70
    32
  0
VERTEX
  8
0
  5
3EC
 10
293.323
 20
377.903
 30
0.000000
  70
    32
  0
VERTEX
  8
0
  5
3ED
 10
294.065
 20
377.915
 30
0.000000
  70
    32
  0
VERTEX
  8
0
  5
3EE
 10
294.807
 20
377.927
 30
0.000000
  70
    32
  0
VERTEX
  8
0
  5
3EF
 10
295.549
 20
377.936
 30
0.000000
  70
    32
  0
VERTEX
  8
0
  5
3F0
 10
296.291
 20
377.944
 30
0.000000
  70
    32
  0
VERTEX
  8
0
  5
3F1
 10
297.032
 20
377.951
 30
0.000000
  70
    32
  0
VERTEX
  8
0
  5
3F2
 10
297.774
 20
377.956
 30
0.000000
  70
    32
  0
VERTEX
  8
0
  5
3F3
 10
298.516
 20
377.960
 30
0.000000
  70
    32
  0
VERTEX
  8
0
  5
3F4
 10
299.258
 20
377.962
 30
0.000000
  70
    32
  0
VERTEX
  8
0
  5
3F5
 10
300.000
 20
377.963
 30
0.000000
  70
    32
  0
SEQEND
  8
0
  5
3F6
  0
POLYLINE
  8
0
  5
3F7
  66
     1
 10
0.000000
 20
0.000000
 30
0.000000
  70
     8
  0
VERTEX
  8
0
  5
3F8
 10
300.000
 20
77.5071
 30
0.000000
  70
    32
  0
VERTEX
  8
0
  5
3F9
 10
299.258
 20
77.5078
 30
0.000000
  70
    32
  0
VERTEX
  8
0
  5
3FA
 10
298.516
 20
77.5100
 30
0.000000
  70
    32
  0
VERTEX
  8
0
  5
3FB
 10
297.774
 20
77.5137
 30
0.000000
  70
    32
  0
VERTEX
  8
0
  5
3FC
 10
297.032
 20
77.5188
 30
0.000000
  70
    32
  0
VERTEX
  8
0
  5
3FD
 10
296.291
 20
77.5255
 30
0.000000
  70
    32
  0
VERTEX
  8
0
  5
3FE
 10
295.549
 20
77.5336
 30
0.000000
  70
    32
  0
VERTEX
  8
0
  5
3FF
 10
294.807
 20
77.5432
 30
0.000000
  70
    32
  0
VERTEX
  8
0
  5
400
 10
294.065
 20
77.5542
 30
0.000000
  70
    32
  0
VERTEX
  8
0
  5
401
 10
293.323
 20
77.5668
 30
0.000000
  70
    32
  0
VERTEX
  8
0
  5
402
 10
292.581
 20
77.5809
 30
0.000000
  70
    32
  0
VERTEX
  8
0
  5
403
 10
291.839
 20
77.5965
 30
0.000000
  70
    32
  0
VERTEX
  8
0
  5
404
 10
291.097
 20
77.6136
 30
0.000000
  70
    32
  0
VERTEX
  8
0
  5
405
 10
290.355
 20
77.6323
 30
0.000000
  70
    32
  0
VERTEX
  8
0
  5
406
 10
289.613
 20
77.6524
 30
0.000000
  70
    32
  0
VERTEX
  8
0
  5
407
 10
288.871
 20
77.6741
 30
0.000000
  70
    32
  0
VERTEX
  8
0
  5
408
 10
288.129
 20
77.6973
 30
0.000000
  70
    32
  0
VERTEX
  8
0
  5
409
 10
287.387
 20
77.7220
 30
0.000000
  70
    32
  0
VERTEX
  8
0
  5
40A
 10
286.646
 20
77.7483
 30
0.000000
  70
    32
  0
VERTEX
  8
0
  5
40B
 10
285.904
 20
77.7762
 30
0.000000
  70
    32
  0
VERTEX
  8
0
  5
40C
 10
285.162
 20
77.8056
 30
0.000000
  70
    32
  0
VERTEX
  8
0
  5
40D
 10
284.420
 20
77.8365
 30
0.000000
  70
    32
  0
VERTEX
  8
0
  5
40E
 10
283.679
 20
77.8690
 30
0.000000
  70
    32
  0
VERTEX
  8
0
  5
40F
 10
282.937
 20
77.9031
 30
0.000000
  70
    32
  0
VERTEX
  8
0
  5
410
 10
282.196
 20
77.9387
 30
0.000000
  70
    32
  0
VERTEX
  8
0
  5
411
 10
281.454
 20
77.9759
 30
0.000000
  70
    32
  0
VERTEX
  8
0
  5
412
 10
280.713
 20
78.0147
 30
0.000000
  70
    32
  0
VERTEX
  8
0
  5
413
 10
279.972
 20
78.0551
 30
0.000000
  70
    32
  0
VERTEX
  8
0
  5
414
 10
279.231
 20
78.0971
 30
0.000000
  70
    32
  0
VERTEX
  8
0
  5
415
 10
278.490
 20
78.1406
 30
0.000000
  70
    32
  0
VERTEX
  8
0
  5
416
 10
277.749
 20
78.1858
 30
0.000000
  70
    32
  0
VERTEX
  8
0
  5
417
 10
277.008
 20
78.2326
 30
0.000000
  70
    32
  0
VERTEX
  8
0
  5
418
 10
276.267
 20
78.2809
 30
0.000000
  70
    32
  0
VERTEX
  8
0
  5
419
 10
275.526
 20
78.3309
 30
0.000000
  70
    32
  0
VERTEX
  8
0
  5
41A
 10
274.786
 20
78.3825
 30
0.000000
  70
    32
  0
VERTEX
  8
0
  5
41B
 10
274.045
 20
78.4358
 30
0.000000
  70
    32
  0
VERTEX
  8
0
  5
41C
 10
273.305
 20
78.4906
 30
0.000000
  70
    32
  0
VERTEX
  8
0
  5
41D
 10
272.565
 20
78.5471
 30
0.000000
  70
    32
  0
VERTEX
  8
0
  5
41E
 10
271.824
 20
78.6052
 30
0.000000
  70
    32
  0
VERTEX
  8
0
  5
41F
 10
271.084
 20
78.6650
 30
0.000000
  70
    32
  0
VERTEX
  8
0
  5
420
 10
270.345
 20
78.7264
 30
0.000000
  70
    32
  0
VERTEX
  8
0
  5
421
 10
269.605
 20
78.7895
 30
0.000000
  70
    32
  0
VERTEX
  8
0
  5
422
 10
268.865
 20
78.8542
 30
0.000000
  70
    32
  0
VERTEX
  8
0
  5
423
 10
268.126
 20
78.9206
 30
0.000000
  70
    32
  0
VERTEX
  8
0
  5
424
 10
267.386
 20
78.9886
 30
0.000000
  70
    32
  0
VERTEX
  8
0
  5
425
 10
266.647
 20
79.0583
 30
0.000000
  70
    32
  0
VERTEX
  8
0
  5
426
 10
265.908
 20
79.1297
 30
0.000000
  70
    32
  0
VERTEX
  8
0
  5
427
 10
265.169
 20
79.2028
 30
0.000000
  70
    32
  0
VERTEX
  8
0
  5
428
 10
264.431
 20
79.2776
 30
0.000000
  70
    32
  0
VERTEX
  8
0
  5
429
 10
263.692
 20
79.3540
 30
0.000000
  70
    32
  0
VERTEX
  8
0
  5
42A
 10
262.954
 20
79.4321
 30
0.000000
  70
    32
  0
VERTEX
  8
0
  5
42B
 10
262.216
 20
79.5120
 30
0.000000
  70
    32
  0
VERTEX
  8
0
  5
42C
 10
261.478
 20
79.5935
 30
0.000000
  70
    32
  0
VERTEX
  8
0
  5
42D
 10
260.740
 20
79.6768
 30
0.000000
  70
    32
  0
VERTEX
  8
0
  5
42E
 10
260.003
 20
79.7618
 30
0.000000
  70
    32
  0
VERTEX
  8
0
  5
42F
 10
259.265
 20
79.8484
 30
0.000000
  70
    32
  0
VERTEX
  8
0
  5
430
 10
258.528
 20
79.9369
 30
0.000000
  70
    32
  0
VERTEX
  8
0
  5
431
 10
257.791
 20
80.0270
 30
0.000000
  70
    32
  0
VERTEX
  8
0
  5
432
 10
257.054
 20
80.1189
 30
0.000000
  70
    32
  0
VERTEX
  8
0
  5
433
 10
256.318
 20
80.2125
 30
0.000000
  70
    32
  0
VERTEX
  8
0
  5
434
 10
255.582
 20
80.3078
 30
0.000000
  70
    32
  0
VERTEX
  8
0
  5
435
 10
254.845
 20
80.4049
 30
0.000000
  70
    32
  0
VERTEX
  8
0
  5
436
 10
254.110
 20
80.5038
 30
0.000000
  70
    32
  0
VERTEX
  8
0
  5
437
 10
253.374
 20
80.6044
 30
0.000000
  70
    32
  0
VERTEX
  8
0
  5
438
 10
252.639
 20
80.7068
 30
0.000000
  70
    32
  0
VERTEX
  8
0
  5
439
 10
251.904
 20
80.8110
 30
0.000000
  70
    32
  0
VERTEX
  8
0
  5
43A
 10
251.169
 20
80.9170
 30
0.000000
  70
    32
  0
VERTEX
  8
0
  5
43B
 10
250.434
 20
81.0247
 30
0.000000
  70
    32
  0
VERTEX
  8
0
  5
43C
 10
249.700
 20
81.1343
 30
0.000000
  70
    32
  0
VERTEX
  8
0
  5
43D
 10
248.966
 20
81.2456
 30
0.000000
  70
    32
  0
VERTEX
  8
0
  5
43E
 10
248.232
 20
81.3588
 30
0.000000
  70
    32
  0
VERTEX
  8
0
  5
43F
 10
247.499
 20
81.4738
 30
0.000000
  70
    32
  0
VERTEX
  8
0
  5
440
 10
246.765
 20
81.5906
 30
0.000000
  70
    32
  0
VERTEX
  8
0
  5
441
 10
246.032
 20
81.7092
 30
0.000000
  70
    32
  0
VERTEX
  8
0
  5
442
 10
245.300
 20
81.8297
 30
0.000000
  70
    32
  0
VERTEX
  8
0
  5
443
 10
244.568
 20
81.9520
 30
0.000000
  70
    32
  0
VERTEX
  8
0
  5
444
 10
243.836
 20
82.0762
 30
0.000000
  70
    32
  0
VERTEX
  8
0
  5
445
 10
243.104
 20
82.2022
 30
0.000000
  70
    32
  0
VERTEX
  8
0
  5
446
 10
242.373
 20
82.3300
 30
0.000000
  70
    32
  0
VERTEX
  8
0
  5
447
 10
241.642
 20
82.4598
 30
0.000000
  70
    32
  0
VERTEX
  8
0
  5
448
 10
240.911
 20
82.5914
 30
0.000000
  70
    32
  0
VERTEX
  8
0
  5
449
 10
240.181
 20
82.7249
 30
0.000000
  70
    32
  0
VERTEX
  8
0
  5
44A
 10
239.451
 20
82.8602
 30
0.000000
  70
    32
  0
VERTEX
  8
0
  5
44B
 10
238.722
 20
82.9975
 30
0.000000
  70
    32
  0
VERTEX
  8
0
  5
44C
 10
237.992
 20
83.1367
 30
0.000000
  70
    32
  0
VERTEX
  8
0
  5
44D
 10
237.264
 20
83.2777
 30
0.000000
  70
    32
  0
VERTEX
  8
0
  5
44E
 10
236.535
 20
83.4207
 30
0.000000
  70
    32
  0
VERTEX
  8
0
  5
44F
 10
235.807
 20
83.5656
 30
0.000000
  70
    32
  0
VERTEX
  8
0
  5
450
 10
235.079
 20
83.7125
 30
0.000000
  70
    32
  0
VERTEX
  8
0
  5
451
 10
234.352
 20
83.8612
 30
0.000000
  70
    32
  0
VERTEX
  8
0
  5
452
 10
233.625
 20
84.0119
 30
0.000000
  70
    32
  0
VERTEX
  8
0
  5
453
 10
232.899
 20
84.1645
 30
0.000000
  70
    32
  0
VERTEX
  8
0
  5
454
 10
232.173
 20
84.3191
 30
0.000000
  70
    32
  0
VERTEX
  8
0
  5
455
 10
231.447
 20
84.4756
 30
0.000000
  70
    32
  0
VERTEX
  8
0
  5
456
 10
230.722
 20
84.6342
 30
0.000000
  70
    32
  0
VERTEX
  8
0
  5
457
 10
229.997
 20
84.7946
 30
0.000000
  70
    32
  0
VERTEX
  8
0
  5
458
 10
229.273
 20
84.9571
 30
0.000000
  70
    32
  0
VERTEX
  8
0
  5
459
 10
228.549
 20
85.1215
 30
0.000000
  70
    32
  0
VERTEX
  8
0
  5
45A
 10
227.826
 20
85.2879
 30
0.000000
  70
    32
  0
VERTEX
  8
0
  5
45B
 10
227.103
 20
85.4563
 30
0.000000
  70
    32
  0
VERTEX
  8
0
  5
45C
 10
226.380
 20
85.6267
 30
0.000000
  70
    32
  0
VERTEX
  8
0
  5
45D
 10
225.658
 20
85.7991
 30
0.000000
  70
    32
  0
VERTEX
  8
0
  5
45E
 10
224.937
 20
85.9736
 30
0.000000
  70
    32
  0
VERTEX
  8
0
  5
45F
 10
224.216
 20
86.1500
 30
0.000000
  70
    32
  0
VERTEX
  8
0
  5
460
 10
223.495
 20
86.3285
 30
0.000000
  70
    32
  0
VERTEX
  8
0
  5
461
 10
222.775
 20
86.5090
 30
0.000000
  70
    32
  0
VERTEX
  8
0
  5
462
 10
222.055
 20
86.6915
 30
0.000000
  70
    32
  0
VERTEX
  8
0
  5
463
 10
221.336
 20
86.8761
 30
0.000000
  70
    32
  0
VERTEX
  8
0
  5
464
 10
220.618
 20
87.0627
 30
0.000000
  70
    32
  0
VERTEX
  8
0
  5
465
 10
219.900
 20
87.2514
 30
0.000000
  70
    32
  0
VERTEX
  8
0
  5
466
 10
219.182
 20
87.4422
 30
0.000000
  70
    32
  0
VERTEX
  8
0
  5
467
 10
218.465
 20
87.6350
 30
0.000000
  70
    32
  0
VERTEX
  8
0
  5
468
 10
217.749
 20
87.8299
 30
0.000000
  70
    32
  0
VERTEX
  8
0
  5
469
 10
217.033
 20
88.0269
 30
0.000000
  70
    32
  0
VERTEX
  8
0
  5
46A
 10
216.317
 20
88.2260
 30
0.000000
  70
    32
  0
VERTEX
  8
0
  5
46B
 10
215.603
 20
88.4272
 30
0.000000
  70
    32
  0
VERTEX
  8
0
  5
46C
 10
214.888
 20
88.6305
 30
0.000000
  70
    32
  0
VERTEX
  8
0
  5
46D
 10
214.175
 20
88.8360
 30
0.000000
  70
    32
  0
VERTEX
  8
0
  5
46E
 10
213.462
 20
89.0435
 30
0.000000
  70
    32
  0
VERTEX
  8
0
  5
46F
 10
212.750
 20
89.2532
 30
0.000000
  70
    32
  0
VERTEX
  8
0
  5
470
 10
212.038
 20
89.4650
 30
0.000000
  70
    32
  0
VERTEX
  8
0
  5
471
 10
211.327
 20
89.6790
 30
0.000000
  70
    32
  0
VERTEX
  8
0
  5
472
 10
210.616
 20
89.8951
 30
0.000000
  70
    32
  0
VERTEX
  8
0
  5
473
 10
209.907
 20
90.1134
 30
0.000000
  70
    32
  0
VERTEX
  8
0
  5
474
 10
209.198
 20
90.3339
 30
0.000000
  70
    32
  0
VERTEX
  8
0
  5
475
 10
208.489
 20
90.5565
 30
0.000000
  70
    32
  0
VERTEX
  8
0
  5
476
 10
207.782
 20
90.7813
 30
0.000000
  70
    32
  0
VERTEX
  8
0
  5
477
 10
207.075
 20
91.0084
 30
0.000000
  70
    32
  0
VERTEX
  8
0
  5
478
 10
206.368
 20
91.2376
 30
0.000000
  70
    32
  0
VERTEX
  8
0
  5
479
 10
205.663
 20
91.4690
 30
0.000000
  70
    32
  0
VERTEX
  8
0
  5
47A
 10
204.958
 20
91.7026
 30
0.000000
  70
    32
  0
VERTEX
  8
0
  5
47B
 10
204.254
 20
91.9385
 30
0.000000
  70
    32
  0
VERTEX
  8
0
  5
47C
 10
203.551
 20
92.1766
 30
0.000000
  70
    32
  0
VERTEX
  8
0
  5
47D
 10
202.848
 20
92.4169
 30
0.000000
  70
    32
  0
VERTEX
  8
0
  5
47E
 10
202.146
 20
92.6595
 30
0.000000
  70
    32
  0
VERTEX
  8
0
  5
47F
 10
201.445
 20
92.9043
 30
0.000000
  70
    32
  0
VERTEX
  8
0
  5
480
 10
200.745
 20
93.1514
 30
0.000000
  70
    32
  0
VERTEX
  8
0
  5
481
 10
200.046
 20
93.4007
 30
0.000000
  70
    32
  0
VERTEX
  8
0
  5
482
 10
199.347
 20
93.6524
 30
0.000000
  70
    32
  0
VERTEX
  8
0
  5
483
 10
198.649
 20
93.9063
 30
0.000000
  70
    32
  0
VERTEX
  8
0
  5
484
 10
197.952
 20
94.1625
 30
0.000000
  70
    32
  0
VERTEX
  8
0
  5
485
 10
197.256
 20
94.4210
 30
0.000000
  70
    32
  0
VERTEX
  8
0
  5
486
 10
196.561
 20
94.6818
 30
0.000000
  70
    32
  0
VERTEX
  8
0
  5
487
 10
195.867
 20
94.9449
 30
0.000000
  70
    32
  0
VERTEX
  8
0
  5
488
 10
195.173
 20
95.2103
 30
0.000000
  70
    32
  0
VERTEX
  8
0
  5
489
 10
194.481
 20
95.4781
 30
0.000000
  70
    32
  0
VERTEX
  8
0
  5
48A
 10
193.789
 20
95.7482
 30
0.000000
  70
    32
  0
VERTEX
  8
0
  5
48B
 10
193.099
 20
96.0206
 30
0.000000
  70
    32
  0
VERTEX
  8
0
  5
48C
 10
192.409
 20
96.2954
 30
0.000000
  70
    32
  0
VERTEX
  8
0
  5
48D
 10
191.720
 20
96.5726
 30
0.000000
  70
    32
  0
VERTEX
  8
0
  5
48E
 10
191.032
 20
96.8521
 30
0.000000
  70
    32
  0
VERTEX
  8
0
  5
48F
 10
190.345
 20
97.1340
 30
0.000000
  70
    32
  0
VERTEX
  8
0
  5
490
 10
189.659
 20
97.4183
 30
0.000000
  70
    32
  0
VERTEX
  8
0
  5
491
 10
188.974
 20
97.7049
 30
0.000000
  70
    32
  0
VERTEX
  8
0
  5
492
 10
188.290
 20
97.9940
 30
0.000000
  70
    32
  0
VERTEX
  8
0
  5
493
 10
187.607
 20
98.2854
 30
0.000000
  70
    32
  0
VERTEX
  8
0
  5
494
 10
186.925
 20
98.5793
 30
0.000000
  70
    32
  0
VERTEX
  8
0
  5
495
 10
186.244
 20
98.8756
 30
0.000000
  70
    32
  0
VERTEX
  8
0
  5
496
 10
185.564
 20
99.1743
 30
0.000000
  70
    32
  0
VERTEX
  8
0
  5
497
 10
184.885
 20
99.4754
 30
0.000000
  70
    32
  0
VERTEX
  8
0
  5
498
 10
184.207
 20
99.7790
 30
0.000000
  70
    32
  0
VERTEX
  8
0
  5
499
 10
183.530
 20
100.085
 30
0.000000
  70
    32
  0
VERTEX
  8
0
  5
49A
 10
182.854
 20
100.393
 30
0.000000
  70
    32
  0
VERTEX
  8
0
  5
49B
 10
182.180
 20
100.704
 30
0.000000
  70
    32
  0
VERTEX
  8
0
  5
49C
 10
181.506
 20
101.018
 30
0.000000
  70
    32
  0
VERTEX
  8
0
  5
49D
 10
180.834
 20
101.334
 30
0.000000
  70
    32
  0
VERTEX
  8
0
  5
49E
 10
180.163
 20
101.652
 30
0.000000
  70
    32
  0
VERTEX
  8
0
  5
49F
 10
179.493
 20
101.973
 30
0.000000
  70
    32
  0
VERTEX
  8
0
  5
4A0
 10
178.824
 20
102.296
 30
0.000000
  70
    32
  0
VERTEX
  8
0
  5
4A1
 10
178.157
 20
102.622
 30
0.000000
  70
    32
  0
VERTEX
  8
0
  5
4A2
 10
177.491
 20
102.950
 30
0.000000
  70
    32
  0
VERTEX
  8
0
  5
4A3
 10
176.826
 20
103.281
 30
0.000000
  70
    32
  0
VERTEX
  8
0
  5
4A4
 10
176.162
 20
103.614
 30
0.000000
  70
    32
  0
VERTEX
  8
0
  5
4A5
 10
175.499
 20
103.950
 30
0.000000
  70
    32
  0
VERTEX
  8
0
  5
4A6
 10
174.838
 20
104.289
 30
0.000000
  70
    32
  0
VERTEX
  8
0
  5
4A7
 10
174.178
 20
104.630
 30
0.000000
  70
    32
  0
VERTEX
  8
0
  5
4A8
 10
173.520
 20
104.973
 30
0.000000
  70
    32
  0
VERTEX
  8
0
  5
4A9
 10
172.862
 20
105.319
 30
0.000000
  70
    32
  0
VERTEX
  8
0
  5
4AA
 10
172.207
 20
105.668
 30
0.000000
  70
    32
  0
VERTEX
  8
0
  5
4AB
 10
171.552
 20
106.019
 30
0.000000
  70
    32
  0
VERTEX
  8
0
  5
4AC
 10
170.899
 20
106.373
 30
0.000000
  70
    32
  0
VERTEX
  8
0
  5
4AD
 10
170.247
 20
106.729
 30
0.000000
  70
    32
  0
VERTEX
  8
0
  5
4AE
 10
169.597
 20
107.088
 30
0.000000
  70
    32
  0
VERTEX
  8
0
  5
4AF
 10
168.948
 20
107.450
 30
0.000000
  70
    32
  0
VERTEX
  8
0
  5
4B0
 10
168.301
 20
107.814
 30
0.000000
  70
    32
  0
VERTEX
  8
0
  5
4B1
 10
167.655
 20
108.180
 30
0.000000
  70
    32
  0
VERTEX
  8
0
  5
4B2
 10
167.011
 20
108.550
 30
0.000000
  70
    32
  0
VERTEX
  8
0
  5
4B3
 10
166.368
 20
108.922
 30
0.000000
  70
    32
  0
VERTEX
  8
0
  5
4B4
 10
165.727
 20
109.296
 30
0.000000
  70
    32
  0
VERTEX
  8
0
  5
4B5
 10
165.087
 20
109.673
 30
0.000000
  70
    32
  0
VERTEX
  8
0
  5
4B6
 10
164.449
 20
110.053
 30
0.000000
  70
    32
  0
VERTEX
  8
0
  5
4B7
 10
163.812
 20
110.436
 30
0.000000
  70
    32
  0
VERTEX
  8
0
  5
4B8
 10
163.177
 20
110.821
 30
0.000000
  70
    32
  0
VERTEX
  8
0
  5
4B9
 10
162.543
 20
111.209
 30
0.000000
  70
    32
  0
VERTEX
  8
0
  5
4BA
 10
161.912
 20
111.599
 30
0.000000
  70
    32
  0
VERTEX
  8
0
  5
4BB
 10
161.281
 20
111.992
 30
0.000000
  70
    32
  0
VERTEX
  8
0
  5
4BC
 10
160.653
 20
112.388
 30
0.000000
  70
    32
  0
VERTEX
  8
0
  5
4BD
 10
160.026
 20
112.787
 30
0.000000
  70
    32
  0
VERTEX
  8
0
  5
4BE
 10
159.401
 20
113.188
 30
0.000000
  70
    32
  0
VERTEX
  8
0
  5
4BF
 10
158.777
 20
113.592
 30
0.000000
  70
    32
  0
VERTEX
  8
0
  5
4C0
 10
158.155
 20
113.999
 30
0.000000
  70
    32
  0
VERTEX
  8
0
  5
4C1
 10
157.535
 20
114.408
 30
0.000000
  70
    32
  0
VERTEX
  8
0
  5
4C2
 10
156.917
 20
114.820
 30
0.000000
  70
    32
  0
VERTEX
  8
0
  5
4C3
 10
156.301
 20
115.235
 30
0.000000
  70
    32
  0
VERTEX
  8
0
  5
4C4
 10
155.686
 20
115.652
 30
0.000000
  70
    32
  0
VERTEX
  8
0
  5
4C5
 10
155.073
 20
116.073
 30
0.000000
  70
    32
  0
VERTEX
  8
0
  5
4C6
 10
154.462
 20
116.496
 30
0.000000
  70
    32
  0
VERTEX
  8
0
  5
4C7
 10
153.853
 20
116.921
 30
0.000000
  70
    32
  0
VERTEX
  8
0
  5
4C8
 10
153.246
 20
117.350
 30
0.000000
  70
    32
  0
VERTEX
  8
0
  5
4C9
 10
152.640
 20
117.781
 30
0.000000
  70
    32
  0
VERTEX
  8
0
  5
4CA
 10
152.037
 20
118.215
 30
0.000000
  70
    32
  0
VERTEX
  8
0
  5
4CB
 10
151.436
 20
118.651
 30
0.000000
  70
    32
  0
VERTEX
  8
0
  5
4CC
 10
150.836
 20
119.090
 30
0.000000
  70
    32
  0
VERTEX
  8
0
  5
4CD
 10
150.239
 20
119.532
 30
0.000000
  70
    32
  0
VERTEX
  8
0
  5
4CE
 10
149.644
 20
119.977
 30
0.000000
  70
    32
  0
VERTEX
  8
0
  5
4CF
 10
149.050
 20
120.425
 30
0.000000
  70
    32
  0
VERTEX
  8
0
  5
4D0
 10
148.459
 20
120.875
 30
0.000000
  70
    32
  0
VERTEX
  8
0
  5
4D1
 10
147.870
 20
121.328
 30
0.000000
  70
    32
  0
VERTEX
  8
0
  5
4D2
 10
147.283
 20
121.783
 30
0.000000
  70
    32
  0
VERTEX
  8
0
  5
4D3
 10
146.698
 20
122.242
 30
0.000000
  70
    32
  0
VERTEX
  8
0
  5
4D4
 10
146.115
 20
122.703
 30
0.000000
  70
    32
  0
VERTEX
  8
0
  5
4D5
 10
145.535
 20
123.167
 30
0.000000
  70
    32
  0
VERTEX
  8
0
  5
4D6
 10
144.956
 20
123.634
 30
0.000000
  70
    32
  0
VERTEX
  8
0
  5
4D7
 10
144.380
 20
124.103
 30
0.000000
  70
    32
  0
VERTEX
  8
0
  5
4D8
 10
143.806
 20
124.575
 30
0.000000
  70
    32
  0
VERTEX
  8
0
  5
4D9
 10
143.235
 20
125.050
 30
0.000000
  70
    32
  0
VERTEX
  8
0
  5
4DA
 10
142.666
 20
125.527
 30
0.000000
  70
    32
  0
VERTEX
  8
0
  5
4DB
 10
142.099
 20
126.008
 30
0.000000
  70
    32
  0
VERTEX
  8
0
  5
4DC
 10
141.534
 20
126.491
 30
0.000000
  70
    32
  0
VERTEX
  8
0
  5
4DD
 10
140.972
 20
126.977
 30
0.000000
  70
    32
  0
VERTEX
  8
0
  5
4DE
 10
140.412
 20
127.465
 30
0.000000
  70
    32
  0
VERTEX
  8
0
  5
4DF
 10
139.855
 20
127.957
 30
0.000000
  70
    32
  0
VERTEX
  8
0
  5
4E0
 10
139.300
 20
128.451
 30
0.000000
  70
    32
  0
VERTEX
  8
0
  5
4E1
 10
138.747
 20
128.947
 30
0.000000
  70
    32
  0
VERTEX
  8
0
  5
4E2
 10
138.197
 20
129.447
 30
0.000000
  70
    32
  0
VERTEX
  8
0
  5
4E3
 10
137.650
 20
129.949
 30
0.000000
  70
    32
  0
VERTEX
  8
0
  5
4E4
 10
137.105
 20
130.455
 30
0.000000
  70
    32
  0
VERTEX
  8
0
  5
4E5
 10
136.562
 20
130.962
 30
0.000000
  70
    32
  0
VERTEX
  8
0
  5
4E6
 10
136.022
 20
131.473
 30
0.000000
  70
    32
  0
VERTEX
  8
0
  5
4E7
 10
135.485
 20
131.986
 30
0.000000
  70
    32
  0
VERTEX
  8
0
  5
4E8
 10
134.950
 20
132.502
 30
0.000000
  70
    32
  0
VERTEX
  8
0
  5
4E9
 10
134.418
 20
133.021
 30
0.000000
  70
    32
  0
VERTEX
  8
0
  5
4EA
 10
133.889
 20
133.543
 30
0.000000
  70
    32
  0
VERTEX
  8
0
  5
4EB
 10
133.362
 20
134.067
 30
0.000000
  70
    32
  0
VERTEX
  8
0
  5
4EC
 10
132.838
 20
134.595
 30
0.000000
  70
    32
  0
VERTEX
  8
0
  5
4ED
 10
132.317
 20
135.125
 30
0.000000
  70
    32
  0
VERTEX
  8
0
  5
4EE
 10
131.799
 20
135.657
 30
0.000000
  70
    32
  0
VERTEX
  8
0
  5
4EF
 10
131.283
 20
136.193
 30
0.000000
  70
    32
  0
VERTEX
  8
0
  5
4F0
 10
130.770
 20
136.731
 30
0.000000
  70
    32
  0
VERTEX
  8
0
  5
4F1
 10
130.260
 20
137.272
 30
0.000000
  70
    32
  0
VERTEX
  8
0
  5
4F2
 10
129.753
 20
137.815
 30
0.000000
  70
    32
  0
VERTEX
  8
0
  5
4F3
 10
129.248
 20
138.361
 30
0.000000
  70
    32
  0
VERTEX
  8
0
  5
4F4
 10
128.747
 20
138.910
 30
0.000000
  70
    32
  0
VERTEX
  8
0
  5
4F5
 10
128.248
 20
139.462
 30
0.000000
  70
    32
  0
VERTEX
  8
0
  5
4F6
 10
127.753
 20
140.016
 30
0.000000
  70
    32
  0
VERTEX
  8
0
  5
4F7
 10
127.260
 20
140.573
 30
0.000000
  70
    32
  0
VERTEX
  8
0
  5
4F8
 10
126.770
 20
141.132
 30
0.000000
  70
    32
  0
VERTEX
  8
0
  5
4F9
 10
126.284
 20
141.694
 30
0.000000
  70
    32
  0
VERTEX
  8
0
  5
4FA
 10
125.800
 20
142.259
 30
0.000000
  70
    32
  0
VERTEX
  8
0
  5
4FB
 10
125.319
 20
142.826
 30
0.000000
  70
    32
  0
VERTEX
  8
0
  5
4FC
 10
124.842
 20
143.396
 30
0.000000
  70
    32
  0
VERTEX
  8
0
  5
4FD
 10
124.367
 20
143.969
 30
0.000000
  70
    32
  0
VERTEX
  8
0
  5
4FE
 10
123.896
 20
144.544
 30
0.000000
  70
    32
  0
VERTEX
  8
0
  5
4FF
 10
123.428
 20
145.122
 30
0.000000
  70
    32
  0
VERTEX
  8
0
  5
500
 10
122.963
 20
145.702
 30
0.000000
  70
    32
  0
VERTEX
  8
0
  5
501
 10
122.501
 20
146.285
 30
0.000000
  70
    32
  0
VERTEX
  8
0
  5
502
 10
122.043
 20
146.870
 30
0.000000
  70
    32
  0
VERTEX
  8
0
  5
503
 10
121.588
 20
147.458
 30
0.000000
  70
    32
  0
VERTEX
  8
0
  5
504
 10
121.136
 20
148.048
 30
0.000000
  70
    32
  0
VERTEX
  8
0
  5
505
 10
120.687
 20
148.641
 30
0.000000
  70
    32
  0
VERTEX
  8
0
  5
506
 10
120.242
 20
149.236
 30
0.000000
  70
    32
  0
VERTEX
  8
0
  5
507
 10
119.800
 20
149.834
 30
0.000000
  70
    32
  0
VERTEX
  8
0
  5
508
 10
119.361
 20
150.435
 30
0.000000
  70
    32
  0
VERTEX
  8
0
  5
509
 10
118.926
 20
151.037
 30
0.000000
  70
    32
  0
VERTEX
  8
0
  5
50A
 10
118.494
 20
151.643
 30
0.000000
  70
    32
  0
VERTEX
  8
0
  5
50B
 10
118.065
 20
152.250
 30
0.000000
  70
    32
  0
VERTEX
  8
0
  5
50C
 10
117.641
 20
152.861
 30
0.000000
  70
    32
  0
VERTEX
  8
0
  5
50D
 10
117.219
 20
153.473
 30
0.000000
  70
    32
  0
VERTEX
  8
0
  5
50E
 10
116.801
 20
154.088
 30
0.000000
  70
    32
  0
VERTEX
  8
0
  5
50F
 10
116.387
 20
154.706
 30
0.000000
  70
    32
  0
VERTEX
  8
0
  5
510
 10
115.976
 20
155.326
 30
0.000000
  70
    32
  0
VERTEX
  8
0
  5
511
 10
115.568
 20
155.948
 30
0.000000
  70
    32
  0
VERTEX
  8
0
  5
512
 10
115.165
 20
156.573
 30
0.000000
  70
    32
  0
VERTEX
  8
0
  5
513
 10
114.765
 20
157.200
 30
0.000000
  70
    32
  0
VERTEX
  8
0
  5
514
 10
114.368
 20
157.829
 30
0.000000
  70
    32
  0
VERTEX
  8
0
  5
515
 10
113.975
 20
158.461
 30
0.000000
  70
    32
  0
VERTEX
  8
0
  5
516
 10
113.586
 20
159.095
 30
0.000000
  70
    32
  0
VERTEX
  8
0
  5
517
 10
113.201
 20
159.731
 30
0.000000
  70
    32
  0
VERTEX
  8
0
  5
518
 10
112.819
 20
160.370
 30
0.000000
  70
    32
  0
VERTEX
  8
0
  5
519
 10
112.441
 20
161.011
 30
0.000000
  70
    32
  0
VERTEX
  8
0
  5
51A
 10
112.067
 20
161.654
 30
0.000000
  70
    32
  0
VERTEX
  8
0
  5
51B
 10
111.697
 20
162.299
 30
0.000000
  70
    32
  0
VERTEX
  8
0
  5
51C
 10
111.330
 20
162.947
 30
0.000000
  70
    32
  0
VERTEX
  8
0
  5
51D
 10
110.967
 20
163.597
 30
0.000000
  70
    32
  0
VERTEX
  8
0
  5
51E
 10
110.608
 20
164.248
 30
0.000000
  70
    32
  0
VERTEX
  8
0
  5
51F
 10
110.253
 20
164.902
 30
0.000000
  70
    32
  0
VERTEX
  8
0
  5
520
 10
109.901
 20
165.558
 30
0.000000
  70
    32
  0
VERTEX
  8
0
  5
521
 10
109.553
 20
166.217
 30
0.000000
  70
    32
  0
VERTEX
  8
0
  5
522
 10
109.210
 20
166.877
 30
0.000000
  70
    32
  0
VERTEX
  8
0
  5
523
 10
108.869
 20
167.539
 30
0.000000
  70
    32
  0
VERTEX
  8
0
  5
524
 10
108.533
 20
168.203
 30
0.000000
  70
    32
  0
VERTEX
  8
0
  5
525
 10
108.201
 20
168.869
 30
0.000000
  70
    32
  0
VERTEX
  8
0
  5
526
 10
107.873
 20
169.537
 30
0.000000
  70
    32
  0
VERTEX
  8
0
  5
527
 10
107.548
 20
170.207
 30
0.000000
  70
    32
  0
VERTEX
  8
0
  5
528
 10
107.227
 20
170.878
 30
0.000000
  70
    32
  0
VERTEX
  8
0
  5
529
 10
106.911
 20
171.552
 30
0.000000
  70
    32
  0
VERTEX
  8
0
  5
52A
 10
106.598
 20
172.227
 30
0.000000
  70
    32
  0
VERTEX
  8
0
  5
52B
 10
106.289
 20
172.905
 30
0.000000
  70
    32
  0
VERTEX
  8
0
  5
52C
 10
105.984
 20
173.584
 30
0.000000
  70
    32
  0
VERTEX
  8
0
  5
52D
 10
105.683
 20
174.264
 30
0.000000
  70
    32
  0
VERTEX
  8
0
  5
52E
 10
105.386
 20
174.947
 30
0.000000
  70
    32
  0
VERTEX
  8
0
  5
52F
 10
105.093
 20
175.631
 30
0.000000
  70
    32
  0
VERTEX
  8
0
  5
530
 10
104.804
 20
176.316
 30
0.000000
  70
    32
  0
VERTEX
  8
0
  5
531
 10
104.519
 20
177.004
 30
0.000000
  70
    32
  0
VERTEX
  8
0
  5
532
 10
104.238
 20
177.693
 30
0.000000
  70
    32
  0
VERTEX
  8
0
  5
533
 10
103.961
 20
178.383
 30
0.000000
  70
    32
  0
VERTEX
  8
0
  5
534
 10
103.688
 20
179.076
 30
0.000000
  70
    32
  0
VERTEX
  8
0
  5
535
 10
103.420
 20
179.769
 30
0.000000
  70
    32
  0
VERTEX
  8
0
  5
536
 10
103.155
 20
180.464
 30
0.000000
  70
    32
  0
VERTEX
  8
0
  5
537
 10
102.894
 20
181.161
 30
0.000000
  70
    32
  0
VERTEX
  8
0
  5
538
 10
102.638
 20
181.859
 30
0.000000
  70
    32
  0
VERTEX
  8
0
  5
539
 10
102.385
 20
182.559
 30
0.000000
  70
    32
  0
VERTEX
  8
0
  5
53A
 10
102.137
 20
183.260
 30
0.000000
  70
    32
  0
VERTEX
  8
0
  5
53B
 10
101.893
 20
183.962
 30
0.000000
  70
    32
  0
VERTEX
  8
0
  5
53C
 10
101.652
 20
184.666
 30
0.000000
  70
    32
  0
VERTEX
  8
0
  5
53D
 10
101.416
 20
185.371
 30
0.000000
  70
    32
  0
VERTEX
  8
0
  5
53E
 10
101.185
 20
186.077
 30
0.000000
  70
    32
  0
VERTEX
  8
0
  5
53F
 10
100.957
 20
186.784
 30
0.000000
  70
    32
  0
VERTEX
  8
0
  5
540
 10
100.734
 20
187.493
 30
0.000000
  70
    32
  0
VERTEX
  8
0
  5
541
 10
100.514
 20
188.203
 30
0.000000
  70
    32
  0
VERTEX
  8
0
  5
542
 10
100.299
 20
188.914
 30
0.000000
  70
    32
  0
VERTEX
  8
0
  5
543
 10
100.089
 20
189.627
 30
0.000000
  70
    32
  0
VERTEX
  8
0
  5
544
 10
99.8820
 20
190.340
 30
0.000000
  70
    32
  0
VERTEX
  8
0
  5
545
 10
99.6796
 20
191.055
 30
0.000000
  70
    32
  0
VERTEX
  8
0
  5
546
 10
99.4814
 20
191.771
 30
0.000000
  70
    32
  0
VERTEX
  8
0
  5
547
 10
99.2874
 20
192.487
 30
0.000000
  70
    32
  0
VERTEX
  8
0
  5
548
 10
99.0976
 20
193.205
 30
0.000000
  70
    32
  0
VERTEX
  8
0
  5
549
 10
98.9120
 20
193.924
 30
0.000000
  70
    32
  0
VERTEX
  8
0
  5
54A
 10
98.7306
 20
194.644
 30
0.000000
  70
    32
  0
VERTEX
  8
0
  5
54B
 10
98.5533
 20
195.365
 30
0.000000
  70
    32
  0
VERTEX
  8
0
  5
54C
 10
98.3802
 20
196.087
 30
0.000000
  70
    32
  0
VERTEX
  8
0
  5
54D
 10
98.2112
 20
196.810
 30
0.000000
  70
    32
  0
VERTEX
  8
0
  5
54E
 10
98.0464
 20
197.534
 30
0.000000
  70
    32
  0
VERTEX
  8
0
  5
54F
 10
97.8857
 20
198.259
 30
0.000000
  70
    32
  0
VERTEX
  8
0
  5
550
 10
97.7291
 20
198.984
 30
0.000000
  70
    32
  0
VERTEX
  8
0
  5
551
 10
97.5767
 20
199.711
 30
0.000000
  70
    32
  0
VERTEX
  8
0
  5
552
 10
97.4284
 20
200.438
 30
0.000000
  70
    32
  0
VERTEX
  8
0
  5
553
 10
97.2842
 20
201.166
 30
0.000000
  70
    32
  0
VERTEX
  8
0
  5
554
 10
97.1441
 20
201.895
 30
0.000000
  70
    32
  0
VERTEX
  8
0
  5
555
 10
97.0081
 20
202.625
 30
0.000000
  70
    32
  0
VERTEX
  8
0
  5
556
 10
96.8762
 20
203.355
 30
0.000000
  70
    32
  0
VERTEX
  8
0
  5
557
 10
96.7484
 20
204.087
 30
0.000000
  70
    32
  0
VERTEX
  8
0
  5
558
 10
96.6247
 20
204.819
 30
0.000000
  70
    32
  0
VERTEX
  8
0
  5
559
 10
96.5050
 20
205.551
 30
0.000000
  70
    32
  0
VERTEX
  8
0
  5
55A
 10
96.3894
 20
206.285
 30
0.000000
  70
    32
  0
VERTEX
  8
0
  5
55B
 10
96.2779
 20
207.019
 30
0.000000
  70
    32
  0
VERTEX
  8
0
  5
55C
 10
96.1704
 20
207.754
 30
0.000000
  70
    32
  0
VERTEX
  8
0
  5
55D
 10
96.0670
 20
208.489
 30
0.000000
  70
    32
  0
VERTEX
  8
0
  5
55E
 10
95.9676
 20
209.225
 30
0.000000
  70
    32
  0
VERTEX
  8
0
  5
55F
 10
95.8722
 20
209.961
 30
0.000000
  70
    32
  0
VERTEX
  8
0
  5
560
 10
95.7808
 20
210.698
 30
0.000000
  70
    32
  0
VERTEX
  8
0
  5
561
 10
95.6935
 20
211.436
 30
0.000000
  70
    32
  0
VERTEX
  8
0
  5
562
 10
95.6101
 20
212.174
 30
0.000000
  70
    32
  0
VERTEX
  8
0
  5
563
 10
95.5307
 20
212.912
 30
0.000000
  70
    32
  0
VERTEX
  8
0
  5
564
 10
95.4553
 20
213.651
 30
0.000000
  70
    32
  0
VERTEX
  8
0
  5
565
 10
95.3838
 20
214.390
 30
0.000000
  70
    32
  0
VERTEX
  8
0
  5
566
 10
95.3163
 20
215.130
 30
0.000000
  70
    32
  0
VERTEX
  8
0
  5
567
 10
95.2527
 20
215.870
 30
0.000000
  70
    32
  0
VERTEX
  8
0
  5
568
 10
95.1931
 20
216.610
 30
0.000000
  70
    32
  0
VERTEX
  8
0
  5
569
 10
95.1374
 20
217.351
 30
0.000000
  70
    32
  0
VERTEX
  8
0
  5
56A
 10
95.0856
 20
218.092
 30
0.000000
  70
    32
  0
VERTEX
  8
0
  5
56B
 10
95.0377
 20
218.833
 30
0.000000
  70
    32
  0
VERTEX
  8
0
  5
56C
 10
94.9937
 20
219.574
 30
0.000000
  70
    32
  0
VERTEX
  8
0
  5
56D
 10
94.9535
 20
220.316
 30
0.000000
  70
    32
  0
VERTEX
  8
0
  5
56E
 10
94.9173
 20
221.057
 30
0.000000
  70
    32
  0
VERTEX
  8
0
  5
56F
 10
94.8849
 20
221.799
 30
0.000000
  70
    32
  0
VERTEX
  8
0
  5
570
 10
94.8563
 20
222.541
 30
0.000000
  70
    32
  0
VERTEX
  8
0
  5
571
 10
94.8316
 20
223.283
 30
0.000000
  70
    32
  0
VERTEX
  8
0
  5
572
 10
94.8107
 20
224.025
 30
0.000000
  70
    32
  0
VERTEX
  8
0
  5
573
 10
94.7937
 20
224.767
 30
0.000000
  70
    32
  0
VERTEX
  8
0
  5
574
 10
94.7804
 20
225.509
 30
0.000000
  70
    32
  0
VERTEX
  8
0
  5
575
 10
94.7710
 20
226.251
 30
0.000000
  70
    32
  0
VERTEX
  8
0
  5
576
 10
94.7653
 20
226.993
 30
0.000000
  70
    32
  0
VERTEX
  8
0
  5
577
 10
94.7634
 20
227.735
 30
0.000000
  70
    32
  0
SEQEND
  8
0
  5
578
  0
POLYLINE
  8
0
  5
579
  66
     1
 10
0.000000
 20
0.000000
 30
0.000000
  70
     8
  0
VERTEX
  8
0
  5
57A
 10
505.237
 20
227.735
 30
0.000000
  70
    32
  0
VERTEX
  8
0
  5
57B
 10
505.235
 20
226.993
 30
0.000000
  70
    32
  0
VERTEX
  8
0
  5
57C
 10
505.229
 20
226.251
 30
0.000000
  70
    32
  0
VERTEX
  8
0
  5
57D
 10
505.220
 20
225.509
 30
0.000000
  70
    32
  0
VERTEX
  8
0
  5
57E
 10
505.206
 20
224.767
 30
0.000000
  70
    32
  0
VERTEX
  8
0
  5
57F
 10
505.189
 20
224.025
 30
0.000000
  70
    32
  0
VERTEX
  8
0
  5
580
 10
505.168
 20
223.283
 30
0.000000
  70
    32
  0
VERTEX
  8
0
  5
581
 10
505.144
 20
222.541
 30
0.000000
  70
    32
  0
VERTEX
  8
0
  5
582
 10
505.115
 20
221.799
 30
0.000000
  70
    32
  0
VERTEX
  8
0
  5
583
 10
505.083
 20
221.057
 30
0.000000
  70
    32
  0
VERTEX
  8
0
  5
584
 10
505.046
 20
220.316
 30
0.000000
  70
    32
  0
VERTEX
  8
0
  5
585
 10
505.006
 20
219.574
 30
0.000000
  70
    32
  0
VERTEX
  8
0
  5
586
 10
504.962
 20
218.833
 30
0.000000
  70
    32
  0
VERTEX
  8
0
  5
587
 10
504.914
 20
218.092
 30
0.000000
  70
    32
  0
VERTEX
  8
0
  5
588
 10
504.863
 20
217.351
 30
0.000000
  70
    32
  0
VERTEX
  8
0
  5
589
 10
504.807
 20
216.610
 30
0.000000
  70
    32
  0
VERTEX
  8
0
  5
58A
 10
504.747
 20
215.870
 30
0.000000
  70
    32
  0
VERTEX
  8
0
  5
58B
 10
504.684
 20
215.130
 30
0.000000
  70
    32
  0
VERTEX
  8
0
  5
58C
 10
504.616
 20
214.390
 30
0.000000
  70
    32
  0
VERTEX
  8
0
  5
58D
 10
504.545
 20
213.651
 30
0.000000
  70
    32
  0
VERTEX
  8
0
  5
58E
 10
504.469
 20
212.912
 30
0.000000
  70
    32
  0
VERTEX
  8
0
  5
58F
 10
504.390
 20
212.174
 30
0.000000
  70
    32
  0
VERTEX
  8
0
  5
590
 10
504.307
 20
211.436
 30
0.000000
  70
    32
  0
VERTEX
  8
0
  5
591
 10
504.219
 20
210.698
 30
0.000000
  70
    32
  0
VERTEX
  8
0
  5
592
 10
504.128
 20
209.961
 30
0.000000
  70
    32
  0
VERTEX
  8
0
  5
593
 10
504.032
 20
209.225
 30
0.000000
  70
    32
  0
VERTEX
  8
0
  5
594
 10
503.933
 20
208.489
 30
0.000000
  70
    32
  0
VERTEX
  8
0
  5
595
 10
503.830
 20
207.754
 30
0.000000
  70
    32
  0
VERTEX
  8
0
  5
596
 10
503.722
 20
207.019
 30
0.000000
  70
    32
  0
VERTEX
  8
0
  5
597
 10
503.611
 20
206.285
 30
0.000000
  70
    32
  0
VERTEX
  8
0
  5
598
 10
503.495
 20
205.551
 30
0.000000
  70
    32
  0
VERTEX
  8
0
  5
599
 10
503.375
 20
204.819
 30
0.000000
  70
    32
  0
VERTEX
  8
0
  5
59A
 10
503.252
 20
204.087
 30
0.000000
  70
    32
  0
VERTEX
  8
0
  5
59B
 10
503.124
 20
203.355
 30
0.000000
  70
    32
  0
VERTEX
  8
0
  5
59C
 10
502.992
 20
202.625
 30
0.000000
  70
    32
  0
VERTEX
  8
0
  5
59D
 10
502.856
 20
201.895
 30
0.000000
  70
    32
  0
VERTEX
  8
0
  5
59E
 10
502.716
 20
201.166
 30
0.000000
  70
    32
  0
VERTEX
  8
0
  5
59F
 10
502.572
 20
200.438
 30
0.000000
  70
    32
  0
VERTEX
  8
0
  5
5A0
 10
502.423
 20
199.711
 30
0.000000
  70
    32
  0
VERTEX
  8
0
  5
5A1
 10
502.271
 20
198.984
 30
0.000000
  70
    32
  0
VERTEX
  8
0
  5
5A2
 10
502.114
 20
198.259
 30
0.000000
  70
    32
  0
VERTEX
  8
0
  5
5A3
 10
501.954
 20
197.534
 30
0.000000
  70
    32
  0
VERTEX
  8
0
  5
5A4
 10
501.789
 20
196.810
 30
0.000000
  70
    32
  0
VERTEX
  8
0
  5
5A5
 10
501.620
 20
196.087
 30
0.000000
  70
    32
  0
VERTEX
  8
0
  5
5A6
 10
501.447
 20
195.365
 30
0.000000
  70
    32
  0
VERTEX
  8
0
  5
5A7
 10
501.269
 20
194.644
 30
0.000000
  70
    32
  0
VERTEX
  8
0
  5
5A8
 10
501.088
 20
193.924
 30
0.000000
  70
    32
  0
VERTEX
  8
0
  5
5A9
 10
500.902
 20
193.205
 30
0.000000
  70
    32
  0
VERTEX
  8
0
  5
5AA
 10
500.713
 20
192.487
 30
0.000000
  70
    32
  0
VERTEX
  8
0
  5
5AB
 10
500.519
 20
191.771
 30
0.000000
  70
    32
  0
VERTEX
  8
0
  5
5AC
 10
500.320
 20
191.055
 30
0.000000
  70
    32
  0
VERTEX
  8
0
  5
5AD
 10
500.118
 20
190.340
 30
0.000000
  70
    32
  0
VERTEX
  8
0
  5
5AE
 10
499.911
 20
189.627
 30
0.000000
  70
    32
  0
VERTEX
  8
0
  5
5AF
 10
499.701
 20
188.914
 30
0.000000
  70
    32
  0
VERTEX
  8
0
  5
5B0
 10
499.486
 20
188.203
 30
0.000000
  70
    32
  0
VERTEX
  8
0
  5
5B1
 10
499.266
 20
187.493
 30
0.000000
  70
    32
  0
VERTEX
  8
0
  5
5B2
 10
499.043
 20
186.784
 30
0.000000
  70
    32
  0
VERTEX
  8
0
  5
5B3
 10
498.815
 20
186.077
 30
0.000000
  70
    32
  0
VERTEX
  8
0
  5
5B4
 10
498.584
 20
185.371
 30
0.000000
  70
    32
  0
VERTEX
  8
0
  5
5B5
 10
498.348
 20
184.666
 30
0.000000
  70
    32
  0
VERTEX
  8
0
  5
5B6
 10
498.107
 20
183.962
 30
0.000000
  70
    32
  0
VERTEX
  8
0
  5
5B7
 10
497.863
 20
183.260
 30
0.000000
  70
    32
  0
VERTEX
  8
0
  5
5B8
 10
497.615
 20
182.559
 30
0.000000
  70
    32
  0
VERTEX
  8
0
  5
5B9
 10
497.362
 20
181.859
 30
0.000000
  70
    32
  0
VERTEX
  8
0
  5
5BA
 10
497.106
 20
181.161
 30
0.000000
  70
    32
  0
VERTEX
  8
0
  5
5BB
 10
496.845
 20
180.464
 30
0.000000
  70
    32
  0
VERTEX
  8
0
  5
5BC
 10
496.580
 20
179.769
 30
0.000000
  70
    32
  0
VERTEX
  8
0
  5
5BD
 10
496.312
 20
179.076
 30
0.000000
  70
    32
  0
VERTEX
  8
0
  5
5BE
 10
496.039
 20
178.383
 30
0.000000
  70
    32
  0
VERTEX
  8
0
  5
5BF
 10
495.762
 20
177.693
 30
0.000000
  70
    32
  0
VERTEX
  8
0
  5
5C0
 10
495.481
 20
177.004
 30
0.000000
  70
    32
  0
VERTEX
  8
0
  5
5C1
 10
495.196
 20
176.316
 30
0.000000
  70
    32
  0
VERTEX
  8
0
  5
5C2
 10
494.907
 20
175.631
 30
0.000000
  70
    32
  0
VERTEX
  8
0
  5
5C3
 10
494.614
 20
174.947
 30
0.000000
  70
    32
  0
VERTEX
  8
0
  5
5C4
 10
494.317
 20
174.264
 30
0.000000
  70
    32
  0
VERTEX
  8
0
  5
5C5
 10
494.016
 20
173.584
 30
0.000000
  70
    32
  0
VERTEX
  8
0
  5
5C6
 10
493.711
 20
172.905
 30
0.000000
  70
    32
  0
VERTEX
  8
0
  5
5C7
 10
493.402
 20
172.227
 30
0.000000
  70
    32
  0
VERTEX
  8
0
  5
5C8
 10
493.089
 20
171.552
 30
0.000000
  70
    32
  0
VERTEX
  8
0
  5
5C9
 10
492.773
 20
170.878
 30
0.000000
  70
    32
  0
VERTEX
  8
0
  5
5CA
 10
492.452
 20
170.207
 30
0.000000
  70
    32
  0
VERTEX
  8
0
  5
5CB
 10
492.127
 20
169.537
 30
0.000000
  70
    32
  0
VERTEX
  8
0
  5
5CC
 10
491.799
 20
168.869
 30
0.000000
  70
    32
  0
VERTEX
  8
0
  5
5CD
 10
491.467
 20
168.203
 30
0.000000
  70
    32
  0
VERTEX
  8
0
  5
5CE
 10
491.131
 20
167.539
 30
0.000000
  70
    32
  0
VERTEX
  8
0
  5
5CF
 10
490.791
 20
166.877
 30
0.000000
  70
    32
  0
VERTEX
  8
0
  5
5D0
 10
490.447
 20
166.217
 30
0.000000
  70
    32
  0
VERTEX
  8
0
  5
5D1
 10
490.099
 20
165.558
 30
0.000000
  70
    32
  0
VERTEX
  8
0
  5
5D2
 10
489.747
 20
164.902
 30
0.000000
  70
    32
  0
VERTEX
  8
0
  5
5D3
 10
489.392
 20
164.248
 30
0.000000
  70
    32
  0
VERTEX
  8
0
  5
5D4
 10
489.033
 20
163.597
 30
0.000000
  70
    32
  0
VERTEX
  8
0
  5
5D5
 10
488.670
 20
162.947
 30
0.000000
  70
    32
  0
VERTEX
  8
0
  5
5D6
 10
488.303
 20
162.299
 30
0.000000
  70
    32
  0
VERTEX
  8
0
  5
5D7
 10
487.933
 20
161.654
 30
0.000000
  70
    32
  0
VERTEX
  8
0
  5
5D8
 10
487.559
 20
161.011
 30
0.000000
  70
    32
  0
VERTEX
  8
0
  5
5D9
 10
487.181
 20
160.370
 30
0.000000
  70
    32
  0
VERTEX
  8
0
  5
5DA
 10
486.799
 20
159.731
 30
0.000000
  70
    32
  0
VERTEX
  8
0
  5
5DB
 10
486.414
 20
159.095
 30
0.000000
  70
    32
  0
VERTEX
  8
0
  5
5DC
 10
486.025
 20
158.461
 30
0.000000
  70
    32
  0
VERTEX
  8
0
  5
5DD
 10
485.632
 20
157.829
 30
0.000000
  70
    32
  0
VERTEX
  8
0
  5
5DE
 10
485.235
 20
157.200
 30
0.000000
  70
    32
  0
VERTEX
  8
0
  5
5DF
 10
484.835
 20
156.573
 30
0.000000
  70
    32
  0
VERTEX
  8
0
  5
5E0
 10
484.432
 20
155.948
 30
0.000000
  70
    32
  0
VERTEX
  8
0
  5
5E1
 10
484.024
 20
155.326
 30
0.000000
  70
    32
  0
VERTEX
  8
0
  5
5E2
 10
483.613
 20
154.706
 30
0.000000
  70
    32
  0
VERTEX
  8
0
  5
5E3
 10
483.199
 20
154.088
 30
0.000000
  70
    32
  0
VERTEX
  8
0
  5
5E4
 10
482.781
 20
153.473
 30
0.000000
  70
    32
  0
VERTEX
  8
0
  5
5E5
 10
482.359
 20
152.861
 30
0.000000
  70
    32
  0
VERTEX
  8
0
  5
5E6
 10
481.935
 20
152.250
 30
0.000000
  70
    32
  0
VERTEX
  8
0
  5
5E7
 10
481.506
 20
151.643
 30
0.000000
  70
    32
  0
VERTEX
  8
0
  5
5E8
 10
481.074
 20
151.037
 30
0.000000
  70
    32
  0
VERTEX
  8
0
  5
5E9
 10
480.639
 20
150.435
 30
0.000000
  70
    32
  0
VERTEX
  8
0
  5
5EA
 10
480.200
 20
149.834
 30
0.000000
  70
    32
  0
VERTEX
  8
0
  5
5EB
 10
479.758
 20
149.236
 30
0.000000
  70
    32
  0
VERTEX
  8
0
  5
5EC
 10
479.313
 20
148.641
 30
0.000000
  70
    32
  0
VERTEX
  8
0
  5
5ED
 10
478.864
 20
148.048
 30
0.000000
  70
    32
  0
VERTEX
  8
0
  5
5EE
 10
478.412
 20
147.458
 30
0.000000
  70
    32
  0
VERTEX
  8
0
  5
5EF
 10
477.957
 20
146.870
 30
0.000000
  70
    32
  0
VERTEX
  8
0
  5
5F0
 10
477.499
 20
146.285
 30
0.000000
  70
    32
  0
VERTEX
  8
0
  5
5F1
 10
477.037
 20
145.702
 30
0.000000
  70
    32
  0
VERTEX
  8
0
  5
5F2
 10
476.572
 20
145.122
 30
0.000000
  70
    32
  0
VERTEX
  8
0
  5
5F3
 10
476.104
 20
144.544
 30
0.000000
  70
    32
  0
VERTEX
  8
0
  5
5F4
 10
475.633
 20
143.969
 30
0.000000
  70
    32
  0
VERTEX
  8
0
  5
5F5
 10
475.158
 20
143.396
 30
0.000000
  70
    32
  0
VERTEX
  8
0
  5
5F6
 10
474.681
 20
142.826
 30
0.000000
  70
    32
  0
VERTEX
  8
0
  5
5F7
 10
474.200
 20
142.259
 30
0.000000
  70
    32
  0
VERTEX
  8
0
  5
5F8
 10
473.716
 20
141.694
 30
0.000000
  70
    32
  0
VERTEX
  8
0
  5
5F9
 10
473.230
 20
141.132
 30
0.000000
  70
    32
  0
VERTEX
  8
0
  5
5FA
 10
472.740
 20
140.573
 30
0.000000
  70
    32
  0
VERTEX
  8
0
  5
5FB
 10
472.247
 20
140.016
 30
0.000000
  70
    32
  0
VERTEX
  8
0
  5
5FC
 10
471.752
 20
139.462
 30
0.000000
  70
    32
  0
VERTEX
  8
0
  5
5FD
 10
471.253
 20
138.910
 30
0.000000
  70
    32
  0
VERTEX
  8
0
  5
5FE
 10
470.752
 20
138.361
 30
0.000000
  70
    32
  0
VERTEX
  8
0
  5
5FF
 10
470.247
 20
137.815
 30
0.000000
  70
    32
  0
VERTEX
  8
0
  5
600
 10
469.740
 20
137.272
 30
0.000000
  70
    32
  0
VERTEX
  8
0
  5
601
 10
469.230
 20
136.731
 30
0.000000
  70
    32
  0
VERTEX
  8
0
  5
602
 10
468.717
 20
136.193
 30
0.000000
  70
    32
  0
VERTEX
  8
0
  5
603
 10
468.201
 20
135.657
 30
0.000000
  70
    32
  0
VERTEX
  8
0
  5
604
 10
467.683
 20
135.125
 30
0.000000
  70
    32
  0
VERTEX
  8
0
  5
605
 10
467.162
 20
134.595
 30
0.000000
  70
    32
  0
VERTEX
  8
0
  5
606
 10
466.638
 20
134.067
 30
0.000000
  70
    32
  0
VERTEX
  8
0
  5
607
 10
466.111
 20
133.543
 30
0.000000
  70
    32
  0
VERTEX
  8
0
  5
608
 10
465.582
 20
133.021
 30
0.000000
  70
    32
  0
VERTEX
  8
0
  5
609
 10
465.050
 20
132.502
 30
0.000000
  70
    32
  0
VERTEX
  8
0
  5
60A
 10
464.515
 20
131.986
 30
0.000000
  70
    32
  0
VERTEX
  8
0
  5
60B
 10
463.978
 20
131.473
 30
0.000000
  70
    32
  0
VERTEX
  8
0
  5
60C
 10
463.438
 20
130.962
 30
0.000000
  70
    32
  0
VERTEX
  8
0
  5
60D
 10
462.895
 20
130.455
 30
0.000000
  70
    32
  0
VERTEX
  8
0
  5
60E
 10
462.350
 20
129.949
 30
0.000000
  70
    32
  0
VERTEX
  8
0
  5
60F
 10
461.803
 20
129.447
 30
0.000000
  70
    32
  0
VERTEX
  8
0
  5
610
 10
461.253
 20
128.947
 30
0.000000
  70
    32
  0
VERTEX
  8
0
  5
611
 10
460.700
 20
128.451
 30
0.000000
  70
    32
  0
VERTEX
  8
0
  5
612
 10
460.145
 20
127.957
 30
0.000000
  70
    32
  0
VERTEX
  8
0
  5
613
 10
459.588
 20
127.465
 30
0.000000
  70
    32
  0
VERTEX
  8
0
  5
614
 10
459.028
 20
126.977
 30
0.000000
  70
    32
  0
VERTEX
  8
0
  5
615
 10
458.466
 20
126.491
 30
0.000000
  70
    32
  0
VERTEX
  8
0
  5
616
 10
457.901
 20
126.008
 30
0.000000
  70
    32
  0
VERTEX
  8
0
  5
617
 10
457.334
 20
125.527
 30
0.000000
  70
    32
  0
VERTEX
  8
0
  5
618
 10
456.765
 20
125.050
 30
0.000000
  70
    32
  0
VERTEX
  8
0
  5
619
 10
456.194
 20
124.575
 30
0.000000
  70
    32
  0
VERTEX
  8
0
  5
61A
 10
455.620
 20
124.103
 30
0.000000
  70
    32
  0
VERTEX
  8
0
  5
61B
 10
455.044
 20
123.634
 30
0.000000
  70
    32
  0
VERTEX
  8
0
  5
61C
 10
454.465
 20
123.167
 30
0.000000
  70
    32
  0
VERTEX
  8
0
  5
61D
 10
453.885
 20
122.703
 30
0.000000
  70
    32
  0
VERTEX
  8
0
  5
61E
 10
453.302
 20
122.242
 30
0.000000
  70
    32
  0
VERTEX
  8
0
  5
61F
 10
452.717
 20
121.783
 30
0.000000
  70
    32
  0
VERTEX
  8
0
  5
620
 10
452.130
 20
121.328
 30
0.000000
  70
    32
  0
VERTEX
  8
0
  5
621
 10
451.541
 20
120.875
 30
0.000000
  70
    32
  0
VERTEX
  8
0
  5
622
 10
450.950
 20
120.425
 30
0.000000
  70
    32
  0
VERTEX
  8
0
  5
623
 10
450.356
 20
119.977
 30
0.000000
  70
    32
  0
VERTEX
  8
0
  5
624
 10
449.761
 20
119.532
 30
0.000000
  70
    32
  0
VERTEX
  8
0
  5
625
 10
449.164
 20
119.090
 30
0.000000
  70
    32
  0
VERTEX
  8
0
  5
626
 10
448.564
 20
118.651
 30
0.000000
  70
    32
  0
VERTEX
  8
0
  5
627
 10
447.963
 20
118.215
 30
0.000000
  70
    32
  0
VERTEX
  8
0
  5
628
 10
447.360
 20
117.781
 30
0.000000
  70
    32
  0
VERTEX
  8
0
  5
629
 10
446.754
 20
117.350
 30
0.000000
  70
    32
  0
VERTEX
  8
0
  5
62A
 10
446.147
 20
116.921
 30
0.000000
  70
    32
  0
VERTEX
  8
0
  5
62B
 10
445.538
 20
116.496
 30
0.000000
  70
    32
  0
VERTEX
  8
0
  5
62C
 10
444.927
 20
116.073
 30
0.000000
  70
    32
  0
VERTEX
  8
0
  5
62D
 10
444.314
 20
115.652
 30
0.000000
  70
    32
  0
VERTEX
  8
0
  5
62E
 10
443.699
 20
115.235
 30
0.000000
  70
    32
  0
VERTEX
  8
0
  5
62F
 10
443.083
 20
114.820
 30
0.000000
  70
    32
  0
VERTEX
  8
0
  5
630
 10
442.465
 20
114.408
 30
0.000000
  70
    32
  0
VERTEX
  8
0
  5
631
 10
441.845
 20
113.999
 30
0.000000
  70
    32
  0
VERTEX
  8
0
  5
632
 10
441.223
 20
113.592
 30
0.000000
  70
    32
  0
VERTEX
  8
0
  5
633
 10
440.599
 20
113.188
 30
0.000000
  70
    32
  0
VERTEX
  8
0
  5
634
 10
439.974
 20
112.787
 30
0.000000
  70
    32
  0
VERTEX
  8
0
  5
635
 10
439.347
 20
112.388
 30
0.000000
  70
    32
  0
VERTEX
  8
0
  5
636
 10
438.719
 20
111.992
 30
0.000000
  70
    32
  0
VERTEX
  8
0
  5
637
 10
438.088
 20
111.599
 30
0.000000
  70
    32
  0
VERTEX
  8
0
  5
638
 10
437.457
 20
111.209
 30
0.000000
  70
    32
  0
VERTEX
  8
0
  5
639
 10
436.823
 20
110.821
 30
0.000000
  70
    32
  0
VERTEX
  8
0
  5
63A
 10
436.188
 20
110.436
 30
0.000000
  70
    32
  0
VERTEX
  8
0
  5
63B
 10
435.551
 20
110.053
 30
0.000000
  70
    32
  0
VERTEX
  8
0
  5
63C
 10
434.913
 20
109.673
 30
0.000000
  70
    32
  0
VERTEX
  8
0
  5
63D
 10
434.273
 20
109.296
 30
0.000000
  70
    32
  0
VERTEX
  8
0
  5
63E
 10
433.632
 20
108.922
 30
0.000000
  70
    32
  0
VERTEX
  8
0
  5
63F
 10
432.989
 20
108.550
 30
0.000000
  70
    32
  0
VERTEX
  8
0
  5
640
 10
432.345
 20
108.180
 30
0.000000
  70
    32
  0
VERTEX
  8
0
  5
641
 10
431.699
 20
107.814
 30
0.000000
  70
    32
  0
VERTEX
  8
0
  5
642
 10
431.052
 20
107.450
 30
0.000000
  70
    32
  0
VERTEX
  8
0
  5
643
 10
430.403
 20
107.088
 30
0.000000
  70
    32
  0
VERTEX
  8
0
  5
644
 10
429.753
 20
106.729
 30
0.000000
  70
    32
  0
VERTEX
  8
0
  5
645
 10
429.101
 20
106.373
 30
0.000000
  70
    32
  0
VERTEX
  8
0
  5
646
 10
428.448
 20
106.019
 30
0.000000
  70
    32
  0
VERTEX
  8
0
  5
647
 10
427.793
 20
105.668
 30
0.000000
  70
    32
  0
VERTEX
  8
0
  5
648
 10
427.138
 20
105.319
 30
0.000000
  70
    32
  0
VERTEX
  8
0
  5
649
 10
426.480
 20
104.973
 30
0.000000
  70
    32
  0
VERTEX
  8
0
  5
64A
 10
425.822
 20
104.630
 30
0.000000
  70
    32
  0
VERTEX
  8
0
  5
64B
 10
425.162
 20
104.289
 30
0.000000
  70
    32
  0
VERTEX
  8
0
  5
64C
 10
424.501
 20
103.950
 30
0.000000
  70
    32
  0
VERTEX
  8
0
  5
64D
 10
423.838
 20
103.614
 30
0.000000
  70
    32
  0
VERTEX
  8
0
  5
64E
 10
423.174
 20
103.281
 30
0.000000
  70
    32
  0
VERTEX
  8
0
  5
64F
 10
422.509
 20
102.950
 30
0.000000
  70
    32
  0
VERTEX
  8
0
  5
650
 10
421.843
 20
102.622
 30
0.000000
  70
    32
  0
VERTEX
  8
0
  5
651
 10
421.176
 20
102.296
 30
0.000000
  70
    32
  0
VERTEX
  8
0
  5
652
 10
420.507
 20
101.973
 30
0.000000
  70
    32
  0
VERTEX
  8
0
  5
653
 10
419.837
 20
101.652
 30
0.000000
  70
    32
  0
VERTEX
  8
0
  5
654
 10
419.166
 20
101.334
 30
0.000000
  70
    32
  0
VERTEX
  8
0
  5
655
 10
418.494
 20
101.018
 30
0.000000
  70
    32
  0
VERTEX
  8
0
  5
656
 10
417.820
 20
100.704
 30
0.000000
  70
    32
  0
VERTEX
  8
0
  5
657
 10
417.146
 20
100.393
 30
0.000000
  70
    32
  0
VERTEX
  8
0
  5
658
 10
416.470
 20
100.085
 30
0.000000
  70
    32
  0
VERTEX
  8
0
  5
659
 10
415.793
 20
99.7790
 30
0.000000
  70
    32
  0
VERTEX
  8
0
  5
65A
 10
415.115
 20
99.4754
 30
0.000000
  70
    32
  0
VERTEX
  8
0
  5
65B
 10
414.436
 20
99.1743
 30
0.000000
  70
    32
  0
VERTEX
  8
0
  5
65C
 10
413.756
 20
98.8756
 30
0.000000
  70
    32
  0
VERTEX
  8
0
  5
65D
 10
413.075
 20
98.5793
 30
0.000000
  70
    32
  0
VERTEX
  8
0
  5
65E
 10
412.393
 20
98.2854
 30
0.000000
  70
    32
  0
VERTEX
  8
0
  5
65F
 10
411.710
 20
97.9940
 30
0.000000
  70
    32
  0
VERTEX
  8
0
  5
660
 10
411.026
 20
97.7049
 30
0.000000
  70
    32
  0
VERTEX
  8
0
  5
661
 10
410.341
 20
97.4183
 30
0.000000
  70
    32
  0
VERTEX
  8
0
  5
662
 10
409.655
 20
97.1340
 30
0.000000
  70
    32
  0
VERTEX
  8
0
  5
663
 10
408.968
 20
96.8521
 30
0.000000
  70
    32
  0
VERTEX
  8
0
  5
664
 10
408.280
 20
96.5726
 30
0.000000
  70
    32
  0
VERTEX
  8
0
  5
665
 10
407.591
 20
96.2954
 30
0.000000
  70
    32
  0
VERTEX
  8
0
  5
666
 10
406.901
 20
96.0206
 30
0.000000
  70
    32
  0
VERTEX
  8
0
  5
667
 10
406.211
 20
95.7482
 30
0.000000
  70
    32
  0
VERTEX
  8
0
  5
668
 10
405.519
 20
95.4781
 30
0.000000
  70
    32
  0
VERTEX
  8
0
  5
669
 10
404.827
 20
95.2103
 30
0.000000
  70
    32
  0
VERTEX
  8
0
  5
66A
 10
404.133
 20
94.9449
 30
0.000000
  70
    32
  0
VERTEX
  8
0
  5
66B
 10
403.439
 20
94.6818
 30
0.000000
  70
    32
  0
VERTEX
  8
0
  5
66C
 10
402.744
 20
94.4210
 30
0.000000
  70
    32
  0
VERTEX
  8
0
  5
66D
 10
402.048
 20
94.1625
 30
0.000000
  70
    32
  0
VERTEX
  8
0
  5
66E
 10
401.351
 20
93.9063
 30
0.000000
  70
    32
  0
VERTEX
  8
0
  5
66F
 10
400.653
 20
93.6524
 30
0.000000
  70
    32
  0
VERTEX
  8
0
  5
670
 10
399.954
 20
93.4007
 30
0.000000
  70
    32
  0
VERTEX
  8
0
  5
671
 10
399.255
 20
93.1514
 30
0.000000
  70
    32
  0
VERTEX
  8
0
  5
672
 10
398.555
 20
92.9043
 30
0.000000
  70
    32
  0
VERTEX
  8
0
  5
673
 10
397.854
 20
92.6595
 30
0.000000
  70
    32
  0
VERTEX
  8
0
  5
674
 10
397.152
 20
92.4169
 30
0.000000
  70
    32
  0
VERTEX
  8
0
  5
675
 10
396.450
 20
92.1766
 30
0.000000
  70
    32
  0
VERTEX
  8
0
  5
676
 10
395.746
 20
91.9385
 30
0.000000
  70
    32
  0
VERTEX
  8
0
  5
677
 10
395.042
 20
91.7026
 30
0.000000
  70
    32
  0
VERTEX
  8
0
  5
678
 10
394.337
 20
91.4690
 30
0.000000
  70
    32
  0
VERTEX
  8
0
  5
679
 10
393.632
 20
91.2376
 30
0.000000
  70
    32
  0
VERTEX
  8
0
  5
67A
 10
392.925
 20
91.0084
 30
0.000000
  70
    32
  0
VERTEX
  8
0
  5
67B
 10
392.219
 20
90.7813
 30
0.000000
  70
    32
  0
VERTEX
  8
0
  5
67C
 10
391.511
 20
90.5565
 30
0.000000
  70
    32
  0
VERTEX
  8
0
  5
67D
 10
390.802
 20
90.3339
 30
0.000000
  70
    32
  0
VERTEX
  8
0
  5
67E
 10
390.093
 20
90.1134
 30
0.000000
  70
    32
  0
VERTEX
  8
0
  5
67F
 10
389.384
 20
89.8951
 30
0.000000
  70
    32
  0
VERTEX
  8
0
  5
680
 10
388.673
 20
89.6790
 30
0.000000
  70
    32
  0
VERTEX
  8
0
  5
681
 10
387.962
 20
89.4650
 30
0.000000
  70
    32
  0
VERTEX
  8
0
  5
682
 10
387.250
 20
89.2532
 30
0.000000
  70
    32
  0
VERTEX
  8
0
  5
683
 10
386.538
 20
89.0435
 30
0.000000
  70
    32
  0
VERTEX
  8
0
  5
684
 10
385.825
 20
88.8360
 30
0.000000
  70
    32
  0
VERTEX
  8
0
  5
685
 10
385.112
 20
88.6305
 30
0.000000
  70
    32
  0
VERTEX
  8
0
  5
686
 10
384.397
 20
88.4272
 30
0.000000
  70
    32
  0
VERTEX
  8
0
  5
687
 10
383.683
 20
88.2260
 30
0.000000
  70
    32
  0
VERTEX
  8
0
  5
688
 10
382.967
 20
88.0269
 30
0.000000
  70
    32
  0
VERTEX
  8
0
  5
689
 10
382.252
 20
87.8299
 30
0.000000
  70
    32
  0
VERTEX
  8
0
  5
68A
 10
381.535
 20
87.6350
 30
0.000000
  70
    32
  0
VERTEX
  8
0
  5
68B
 10
380.818
 20
87.4422
 30
0.000000
  70
    32
  0
VERTEX
  8
0
  5
68C
 10
380.101
 20
87.2514
 30
0.000000
  70
    32
  0
VERTEX
  8
0
  5
68D
 10
379.382
 20
87.0627
 30
0.000000
  70
    32
  0
VERTEX
  8
0
  5
68E
 10
378.664
 20
86.8761
 30
0.000000
  70
    32
  0
VERTEX
  8
0
  5
68F
 10
377.945
 20
86.6915
 30
0.000000
  70
    32
  0
VERTEX
  8
0
  5
690
 10
377.225
 20
86.5090
 30
0.000000
  70
    32
  0
VERTEX
  8
0
  5
691
 10
376.505
 20
86.3285
 30
0.000000
  70
    32
  0
VERTEX
  8
0
  5
692
 10
375.784
 20
86.1500
 30
0.000000
  70
    32
  0
VERTEX
  8
0
  5
693
 10
375.063
 20
85.9736
 30
0.000000
  70
    32
  0
VERTEX
  8
0
  5
694
 10
374.342
 20
85.7991
 30
0.000000
  70
    32
  0
VERTEX
  8
0
  5
695
 10
373.620
 20
85.6267
 30
0.000000
  70
    32
  0
VERTEX
  8
0
  5
696
 10
372.897
 20
85.4563
 30
0.000000
  70
    32
  0
VERTEX
  8
0
  5
697
 10
372.174
 20
85.2879
 30
0.000000
  70
    32
  0
VERTEX
  8
0
  5
698
 10
371.451
 20
85.1215
 30
0.000000
  70
    32
  0
VERTEX
  8
0
  5
699
 10
370.727
 20
84.9571
 30
0.000000
  70
    32
  0
VERTEX
  8
0
  5
69A
 10
370.003
 20
84.7946
 30
0.000000
  70
    32
  0
VERTEX
  8
0
  5
69B
 10
369.278
 20
84.6342
 30
0.000000
  70
    32
  0
VERTEX
  8
0
  5
69C
 10
368.553
 20
84.4756
 30
0.000000
  70
    32
  0
VERTEX
  8
0
  5
69D
 10
367.827
 20
84.3191
 30
0.000000
  70
    32
  0
VERTEX
  8
0
  5
69E
 10
367.101
 20
84.1645
 30
0.000000
  70
    32
  0
VERTEX
  8
0
  5
69F
 10
366.375
 20
84.0119
 30
0.000000
  70
    32
  0
VERTEX
  8
0
  5
6A0
 10
365.648
 20
83.8612
 30
0.000000
  70
    32
  0
VERTEX
  8
0
  5
6A1
 10
364.921
 20
83.7125
 30
0.000000
  70
    32
  0
VERTEX
  8
0
  5
6A2
 10
364.193
 20
83.5656
 30
0.000000
  70
    32
  0
VERTEX
  8
0
  5
6A3
 10
363.465
 20
83.4207
 30
0.000000
  70
    32
  0
VERTEX
  8
0
  5
6A4
 10
362.736
 20
83.2777
 30
0.000000
  70
    32
  0
VERTEX
  8
0
  5
6A5
 10
362.008
 20
83.1367
 30
0.000000
  70
    32
  0
VERTEX
  8
0
  5
6A6
 10
361.278
 20
82.9975
 30
0.000000
  70
    32
  0
VERTEX
  8
0
  5
6A7
 10
360.549
 20
82.8602
 30
0.000000
  70
    32
  0
VERTEX
  8
0
  5
6A8
 10
359.819
 20
82.7249
 30
0.000000
  70
    32
  0
VERTEX
  8
0
  5
6A9
 10
359.089
 20
82.5914
 30
0.000000
  70
    32
  0
VERTEX
  8
0
  5
6AA
 10
358.358
 20
82.4598
 30
0.000000
  70
    32
  0
VERTEX
  8
0
  5
6AB
 10
357.627
 20
82.3300
 30
0.000000
  70
    32
  0
VERTEX
  8
0
  5
6AC
 10
356.896
 20
82.2022
 30
0.000000
  70
    32
  0
VERTEX
  8
0
  5
6AD
 10
356.164
 20
82.0762
 30
0.000000
  70
    32
  0
VERTEX
  8
0
  5
6AE
 10
355.432
 20
81.9520
 30
0.000000
  70
    32
  0
VERTEX
  8
0
  5
6AF
 10
354.700
 20
81.8297
 30
0.000000
  70
    32
  0
VERTEX
  8
0
  5
6B0
 10
353.968
 20
81.7092
 30
0.000000
  70
    32
  0
VERTEX
  8
0
  5
6B1
 10
353.235
 20
81.5906
 30
0.000000
  70
    32
  0
VERTEX
  8
0
  5
6B2
 10
352.502
 20
81.4738
 30
0.000000
  70
    32
  0
VERTEX
  8
0
  5
6B3
 10
351.768
 20
81.3588
 30
0.000000
  70
    32
  0
VERTEX
  8
0
  5
6B4
 10
351.034
 20
81.2456
 30
0.000000
  70
    32
  0
VERTEX
  8
0
  5
6B5
 10
350.300
 20
81.1343
 30
0.000000
  70
    32
  0
VERTEX
  8
0
  5
6B6
 10
349.566
 20
81.0247
 30
0.000000
  70
    32
  0
VERTEX
  8
0
  5
6B7
 10
348.831
 20
80.9170
 30
0.000000
  70
    32
  0
VERTEX
  8
0
  5
6B8
 10
348.096
 20
80.8110
 30
0.000000
  70
    32
  0
VERTEX
  8
0
  5
6B9
 10
347.361
 20
80.7068
 30
0.000000
  70
    32
  0
VERTEX
  8
0
  5
6BA
 10
346.626
 20
80.6044
 30
0.000000
  70
    32
  0
VERTEX
  8
0
  5
6BB
 10
345.890
 20
80.5038
 30
0.000000
  70
    32
  0
VERTEX
  8
0
  5
6BC
 10
345.155
 20
80.4049
 30
0.000000
  70
    32
  0
VERTEX
  8
0
  5
6BD
 10
344.418
 20
80.3078
 30
0.000000
  70
    32
  0
VERTEX
  8
0
  5
6BE
 10
343.682
 20
80.2125
 30
0.000000
  70
    32
  0
VERTEX
  8
0
  5
6BF
 10
342.946
 20
80.1189
 30
0.000000
  70
    32
  0
VERTEX
  8
0
  5
6C0
 10
342.209
 20
80.0270
 30
0.000000
  70
    32
  0
VERTEX
  8
0
  5
6C1
 10
341.472
 20
79.9369
 30
0.000000
  70
    32
  0
VERTEX
  8
0
  5
6C2
 10
340.735
 20
79.8484
 30
0.000000
  70
    32
  0
VERTEX
  8
0
  5
6C3
 10
339.997
 20
79.7618
 30
0.000000
  70
    32
  0
VERTEX
  8
0
  5
6C4
 10
339.260
 20
79.6768
 30
0.000000
  70
    32
  0
VERTEX
  8
0
  5
6C5
 10
338.522
 20
79.5935
 30
0.000000
  70
    32
  0
VERTEX
  8
0
  5
6C6
 10
337.784
 20
79.5120
 30
0.000000
  70
    32
  0
VERTEX
  8
0
  5
6C7
 10
337.046
 20
79.4321
 30
0.000000
  70
    32
  0
VERTEX
  8
0
  5
6C8
 10
336.308
 20
79.3540
 30
0.000000
  70
    32
  0
VERTEX
  8
0
  5
6C9
 10
335.569
 20
79.2776
 30
0.000000
  70
    32
  0
VERTEX
  8
0
  5
6CA
 10
334.831
 20
79.2028
 30
0.000000
  70
    32
  0
VERTEX
  8
0
  5
6CB
 10
334.092
 20
79.1297
 30
0.000000
  70
    32
  0
VERTEX
  8
0
  5
6CC
 10
333.353
 20
79.0583
 30
0.000000
  70
    32
  0
VERTEX
  8
0
  5
6CD
 10
332.614
 20
78.9886
 30
0.000000
  70
    32
  0
VERTEX
  8
0
  5
6CE
 10
331.874
 20
78.9206
 30
0.000000
  70
    32
  0
VERTEX
  8
0
  5
6CF
 10
331.135
 20
78.8542
 30
0.000000
  70
    32
  0
VERTEX
  8
0
  5
6D0
 10
330.395
 20
78.7895
 30
0.000000
  70
    32
  0
VERTEX
  8
0
  5
6D1
 10
329.655
 20
78.7264
 30
0.000000
  70
    32
  0
VERTEX
  8
0
  5
6D2
 10
328.916
 20
78.6650
 30
0.000000
  70
    32
  0
VERTEX
  8
0
  5
6D3
 10
328.176
 20
78.6052
 30
0.000000
  70
    32
  0
VERTEX
  8
0
  5
6D4
 10
327.436
 20
78.5471
 30
0.000000
  70
    32
  0
VERTEX
  8
0
  5
6D5
 10
326.695
 20
78.4906
 30
0.000000
  70
    32
  0
VERTEX
  8
0
  5
6D6
 10
325.955
 20
78.4358
 30
0.000000
  70
    32
  0
VERTEX
  8
0
  5
6D7
 10
325.214
 20
78.3825
 30
0.000000
  70
    32
  0
VERTEX
  8
0
  5
6D8
 10
324.474
 20
78.3309
 30
0.000000
  70
    32
  0
VERTEX
  8
0
  5
6D9
 10
323.733
 20
78.2809
 30
0.000000
  70
    32
  0
VERTEX
  8
0
  5
6DA
 10
322.992
 20
78.2326
 30
0.000000
  70
    32
  0
VERTEX
  8
0
  5
6DB
 10
322.251
 20
78.1858
 30
0.000000
  70
    32
  0
VERTEX
  8
0
  5
6DC
 10
321.510
 20
78.1406
 30
0.000000
  70
    32
  0
VERTEX
  8
0
  5
6DD
 10
320.769
 20
78.0971
 30
0.000000
  70
    32
  0
VERTEX
  8
0
  5
6DE
 10
320.028
 20
78.0551
 30
0.000000
  70
    32
  0
VERTEX
  8
0
  5
6DF
 10
319.287
 20
78.0147
 30
0.000000
  70
    32
  0
VERTEX
  8
0
  5
6E0
 10
318.546
 20
77.9759
 30
0.000000
  70
    32
  0
VERTEX
  8
0
  5
6E1
 10
317.804
 20
77.9387
 30
0.000000
  70
    32
  0
VERTEX
  8
0
  5
6E2
 10
317.063
 20
77.9031
 30
0.000000
  70
    32
  0
VERTEX
  8
0
  5
6E3
 10
316.321
 20
77.8690
 30
0.000000
  70
    32
  0
VERTEX
  8
0
  5
6E4
 10
315.580
 20
77.8365
 30
0.000000
  70
    32
  0
VERTEX
  8
0
  5
6E5
 10
314.838
 20
77.8056
 30
0.000000
  70
    32
  0
VERTEX
  8
0
  5
6E6
 10
314.096
 20
77.7762
 30
0.000000
  70
    32
  0
VERTEX
  8
0
  5
6E7
 10
313.354
 20
77.7483
 30
0.000000
  70
    32
  0
VERTEX
  8
0
  5
6E8
 10
312.613
 20
77.7220
 30
0.000000
  70
    32
  0
VERTEX
  8
0
  5
6E9
 10
311.871
 20
77.6973
 30
0.000000
  70
    32
  0
VERTEX
  8
0
  5
6EA
 10
311.129
 20
77.6741
 30
0.000000
  70
    32
  0
VERTEX
  8
0
  5
6EB
 10
310.387
 20
77.6524
 30
0.000000
  70
    32
  0
VERTEX
  8
0
  5
6EC
 10
309.645
 20
77.6323
 30
0.000000
  70
    32
  0
VERTEX
  8
0
  5
6ED
 10
308.903
 20
77.6136
 30
0.000000
  70
    32
  0
VERTEX
  8
0
  5
6EE
 10
308.161
 20
77.5965
 30
0.000000
  70
    32
  0
VERTEX
  8
0
  5
6EF
 10
307.419
 20
77.5809
 30
0.000000
  70
    32
  0
VERTEX
  8
0
  5
6F0
 10
306.677
 20
77.5668
 30
0.000000
  70
    32
  0
VERTEX
  8
0
  5
6F1
 10
305.935
 20
77.5542
 30
0.000000
  70
    32
  0
VERTEX
  8
0
  5
6F2
 10
305.193
 20
77.5432
 30
0.000000
  70
    32
  0
VERTEX
  8
0
  5
6F3
 10
304.451
 20
77.5336
 30
0.000000
  70
    32
  0
VERTEX
  8
0
  5
6F4
 10
303.710
 20
77.5255
 30
0.000000
  70
    32
  0
VERTEX
  8
0
  5
6F5
 10
302.968
 20
77.5188
 30
0.000000
  70
    32
  0
VERTEX
  8
0
  5
6F6
 10
302.226
 20
77.5137
 30
0.000000
  70
    32
  0
VERTEX
  8
0
  5
6F7
 10
301.484
 20
77.5100
 30
0.000000
  70
    32
  0
VERTEX
  8
0
  5
6F8
 10
300.742
 20
77.5078
 30
0.000000
  70
    32
  0
VERTEX
  8
0
  5
6F9
 10
300.000
 20
77.5071
 30
0.000000
  70
    32
  0
SEQEND
  8
0
  5
6FA
  0
POLYLINE
  8
0
  5
6FB
  66
     1
 10
0.000000
 20
0.000000
 30
0.000000
  70
     8
  0
VERTEX
  8
0
  5
6FC
 10
300.000
 20
377.963
 30
0.000000
  70
    32
  0
VERTEX
  8
0
  5
6FD
 10
300.742
 20
377.962
 30
0.000000
  70
    32
  0
VERTEX
  8
0
  5
6FE
 10
301.484
 20
377.960
 30
0.000000
  70
    32
  0
VERTEX
  8
0
  5
6FF
 10
302.226
 20
377.956
 30
0.000000
  70
    32
  0
VERTEX
  8
0
  5
700
 10
302.968
 20
377.951
 30
0.000000
  70
    32
  0
VERTEX
  8
0
  5
701
 10
303.710
 20
377.944
 30
0.000000
  70
    32
  0
VERTEX
  8
0
  5
702
 10
304.451
 20
377.936
 30
0.000000
  70
    32
  0
VERTEX
  8
0
  5
703
 10
305.193
 20
377.927
 30
0.000000
  70
    32
  0
VERTEX
  8
0
  5
704
 10
305.935
 20
377.915
 30
0.000000
  70
    32
  0
VERTEX
  8
0
  5
705
 10
306.677
 20
377.903
 30
0.000000
  70
    32
  0
VERTEX
  8
0
  5
706
 10
307.419
 20
377.889
 30
0.000000
  70
    32
  0
VERTEX
  8
0
  5
707
 10
308.161
 20
377.873
 30
0.000000
  70
    32
  0
VERTEX
  8
0
  5
708
 10
308.903
 20
377.856
 30
0.000000
  70
    32
  0
VERTEX
  8
0
  5
709
 10
309.645
 20
377.837
 30
0.000000
  70
    32
  0
VERTEX
  8
0
  5
70A
 10
310.387
 20
377.817
 30
0.000000
  70
    32
  0
VERTEX
  8
0
  5
70B
 10
311.129
 20
377.796
 30
0.000000
  70
    32
  0
VERTEX
  8
0
  5
70C
 10
311.871
 20
377.772
 30
0.000000
  70
    32
  0
VERTEX
  8
0
  5
70D
 10
312.613
 20
377.748
 30
0.000000
  70
    32
  0
VERTEX
  8
0
  5
70E
 10
313.354
 20
377.721
 30
0.000000
  70
    32
  0
VERTEX
  8
0
  5
70F
 10
314.096
 20
377.694
 30
0.000000
  70
    32
  0
VERTEX
  8
0
  5
710
 10
314.838
 20
377.664
 30
0.000000
  70
    32
  0
VERTEX
  8
0
  5
711
 10
315.580
 20
377.633
 30
0.000000
  70
    32
  0
VERTEX
  8
0
  5
712
 10
316.321
 20
377.601
 30
0.000000
  70
    32
  0
VERTEX
  8
0
  5
713
 10
317.063
 20
377.567
 30
0.000000
  70
    32
  0
VERTEX
  8
0
  5
714
 10
317.804
 20
377.531
 30
0.000000
  70
    32
  0
VERTEX
  8
0
  5
715
 10
318.546
 20
377.494
 30
0.000000
  70
    32
  0
VERTEX
  8
0
  5
716
 10
319.287
 20
377.455
 30
0.000000
  70
    32
  0
VERTEX
  8
0
  5
717
 10
320.028
 20
377.415
 30
0.000000
  70
    32
  0
VERTEX
  8
0
  5
718
 10
320.769
 20
377.373
 30
0.000000
  70
    32
  0
VERTEX
  8
0
  5
719
 10
321.510
 20
377.329
 30
0.000000
  70
    32
  0
VERTEX
  8
0
  5
71A
 10
322.251
 20
377.284
 30
0.000000
  70
    32
  0
VERTEX
  8
0
  5
71B
 10
322.992
 20
377.237
 30
0.000000
  70
    32
  0
VERTEX
  8
0
  5
71C
 10
323.733
 20
377.189
 30
0.000000
  70
    32
  0
VERTEX
  8
0
  5
71D
 10
324.474
 20
377.139
 30
0.000000
  70
    32
  0
VERTEX
  8
0
  5
71E
 10
325.214
 20
377.087
 30
0.000000
  70
    32
  0
VERTEX
  8
0
  5
71F
 10
325.955
 20
377.034
 30
0.000000
  70
    32
  0
VERTEX
  8
0
  5
720
 10
326.695
 20
376.979
 30
0.000000
  70
    32
  0
VERTEX
  8
0
  5
721
 10
327.436
 20
376.923
 30
0.000000
  70
    32
  0
VERTEX
  8
0
  5
722
 10
328.176
 20
376.865
 30
0.000000
  70
    32
  0
VERTEX
  8
0
  5
723
 10
328.916
 20
376.805
 30
0.000000
  70
    32
  0
VERTEX
  8
0
  5
724
 10
329.655
 20
376.743
 30
0.000000
  70
    32
  0
VERTEX
  8
0
  5
725
 10
330.395
 20
376.680
 30
0.000000
  70
    32
  0
VERTEX
  8
0
  5
726
 10
331.135
 20
376.616
 30
0.000000
  70
    32
  0
VERTEX
  8
0
  5
727
 10
331.874
 20
376.549
 30
0.000000
  70
    32
  0
VERTEX
  8
0
  5
728
 10
332.614
 20
376.481
 30
0.000000
  70
    32
  0
VERTEX
  8
0
  5
729
 10
333.353
 20
376.411
 30
0.000000
  70
    32
  0
VERTEX
  8
0
  5
72A
 10
334.092
 20
376.340
 30
0.000000
  70
    32
  0
VERTEX
  8
0
  5
72B
 10
334.831
 20
376.267
 30
0.000000
  70
    32
  0
VERTEX
  8
0
  5
72C
 10
335.569
 20
376.192
 30
0.000000
  70
    32
  0
VERTEX
  8
0
  5
72D
 10
336.308
 20
376.116
 30
0.000000
  70
    32
  0
VERTEX
  8
0
  5
72E
 10
337.046
 20
376.038
 30
0.000000
  70
    32
  0
VERTEX
  8
0
  5
72F
 10
337.784
 20
375.958
 30
0.000000
  70
    32
  0
VERTEX
  8
0
  5
730
 10
338.522
 20
375.876
 30
0.000000
  70
    32
  0
VERTEX
  8
0
  5
731
 10
339.260
 20
375.793
 30
0.000000
  70
    32
  0
VERTEX
  8
0
  5
732
 10
339.997
 20
375.708
 30
0.000000
  70
    32
  0
VERTEX
  8
0
  5
733
 10
340.735
 20
375.621
 30
0.000000
  70
    32
  0
VERTEX
  8
0
  5
734
 10
341.472
 20
375.533
 30
0.000000
  70
    32
  0
VERTEX
  8
0
  5
735
 10
342.209
 20
375.443
 30
0.000000
  70
    32
  0
VERTEX
  8
0
  5
736
 10
342.946
 20
375.351
 30
0.000000
  70
    32
  0
VERTEX
  8
0
  5
737
 10
343.682
 20
375.257
 30
0.000000
  70
    32
  0
VERTEX
  8
0
  5
738
 10
344.418
 20
375.162
 30
0.000000
  70
    32
  0
VERTEX
  8
0
  5
739
 10
345.155
 20
375.065
 30
0.000000
  70
    32
  0
VERTEX
  8
0
  5
73A
 10
345.890
 20
374.966
 30
0.000000
  70
    32
  0
VERTEX
  8
0
  5
73B
 10
346.626
 20
374.865
 30
0.000000
  70
    32
  0
VERTEX
  8
0
  5
73C
 10
347.361
 20
374.763
 30
0.000000
  70
    32
  0
VERTEX
  8
0
  5
73D
 10
348.096
 20
374.659
 30
0.000000
  70
    32
  0
VERTEX
  8
0
  5
73E
 10
348.831
 20
374.553
 30
0.000000
  70
    32
  0
VERTEX
  8
0
  5
73F
 10
349.566
 20
374.445
 30
0.000000
  70
    32
  0
VERTEX
  8
0
  5
740
 10
350.300
 20
374.335
 30
0.000000
  70
    32
  0
VERTEX
  8
0
  5
741
 10
351.034
 20
374.224
 30
0.000000
  70
    32
  0
VERTEX
  8
0
  5
742
 10
351.768
 20
374.111
 30
0.000000
  70
    32
  0
VERTEX
  8
0
  5
743
 10
352.502
 20
373.996
 30
0.000000
  70
    32
  0
VERTEX
  8
0
  5
744
 10
353.235
 20
373.879
 30
0.000000
  70
    32
  0
VERTEX
  8
0
  5
745
 10
353.968
 20
373.761
 30
0.000000
  70
    32
  0
VERTEX
  8
0
  5
746
 10
354.700
 20
373.640
 30
0.000000
  70
    32
  0
VERTEX
  8
0
  5
747
 10
355.432
 20
373.518
 30
0.000000
  70
    32
  0
VERTEX
  8
0
  5
748
 10
356.164
 20
373.394
 30
0.000000
  70
    32
  0
VERTEX
  8
0
  5
749
 10
356.896
 20
373.268
 30
0.000000
  70
    32
  0
VERTEX
  8
0
  5
74A
 10
357.627
 20
373.140
 30
0.000000
  70
    32
  0
VERTEX
  8
0
  5
74B
 10
358.358
 20
373.010
 30
0.000000
  70
    32
  0
VERTEX
  8
0
  5
74C
 10
359.089
 20
372.878
 30
0.000000
  70
    32
  0
VERTEX
  8
0
  5
74D
 10
359.819
 20
372.745
 30
0.000000
  70
    32
  0
VERTEX
  8
0
  5
74E
 10
360.549
 20
372.609
 30
0.000000
  70
    32
  0
VERTEX
  8
0
  5
74F
 10
361.278
 20
372.472
 30
0.000000
  70
    32
  0
VERTEX
  8
0
  5
750
 10
362.008
 20
372.333
 30
0.000000
  70
    32
  0
VERTEX
  8
0
  5
751
 10
362.736
 20
372.192
 30
0.000000
  70
    32
  0
VERTEX
  8
0
  5
752
 10
363.465
 20
372.049
 30
0.000000
  70
    32
  0
VERTEX
  8
0
  5
753
 10
364.193
 20
371.904
 30
0.000000
  70
    32
  0
VERTEX
  8
0
  5
754
 10
364.921
 20
371.757
 30
0.000000
  70
    32
  0
VERTEX
  8
0
  5
755
 10
365.648
 20
371.609
 30
0.000000
  70
    32
  0
VERTEX
  8
0
  5
756
 10
366.375
 20
371.458
 30
0.000000
  70
    32
  0
VERTEX
  8
0
  5
757
 10
367.101
 20
371.305
 30
0.000000
  70
    32
  0
VERTEX
  8
0
  5
758
 10
367.827
 20
371.151
 30
0.000000
  70
    32
  0
VERTEX
  8
0
  5
759
 10
368.553
 20
370.994
 30
0.000000
  70
    32
  0
VERTEX
  8
0
  5
75A
 10
369.278
 20
370.836
 30
0.000000
  70
    32
  0
VERTEX
  8
0
  5
75B
 10
370.003
 20
370.675
 30
0.000000
  70
    32
  0
VERTEX
  8
0
  5
75C
 10
370.727
 20
370.513
 30
0.000000
  70
    32
  0
VERTEX
  8
0
  5
75D
 10
371.451
 20
370.348
 30
0.000000
  70
    32
  0
VERTEX
  8
0
  5
75E
 10
372.174
 20
370.182
 30
0.000000
  70
    32
  0
VERTEX
  8
0
  5
75F
 10
372.897
 20
370.013
 30
0.000000
  70
    32
  0
VERTEX
  8
0
  5
760
 10
373.620
 20
369.843
 30
0.000000
  70
    32
  0
VERTEX
  8
0
  5
761
 10
374.342
 20
369.671
 30
0.000000
  70
    32
  0
VERTEX
  8
0
  5
762
 10
375.063
 20
369.496
 30
0.000000
  70
    32
  0
VERTEX
  8
0
  5
763
 10
375.784
 20
369.320
 30
0.000000
  70
    32
  0
VERTEX
  8
0
  5
764
 10
376.505
 20
369.141
 30
0.000000
  70
    32
  0
VERTEX
  8
0
  5
765
 10
377.225
 20
368.961
 30
0.000000
  70
    32
  0
VERTEX
  8
0
  5
766
 10
377.945
 20
368.778
 30
0.000000
  70
    32
  0
VERTEX
  8
0
  5
767
 10
378.664
 20
368.594
 30
0.000000
  70
    32
  0
VERTEX
  8
0
  5
768
 10
379.382
 20
368.407
 30
0.000000
  70
    32
  0
VERTEX
  8
0
  5
769
 10
380.101
 20
368.218
 30
0.000000
  70
    32
  0
VERTEX
  8
0
  5
76A
 10
380.818
 20
368.028
 30
0.000000
  70
    32
  0
VERTEX
  8
0
  5
76B
 10
381.535
 20
367.835
 30
0.000000
  70
    32
  0
VERTEX
  8
0
  5
76C
 10
382.252
 20
367.640
 30
0.000000
  70
    32
  0
VERTEX
  8
0
  5
76D
 10
382.967
 20
367.443
 30
0.000000
  70
    32
  0
VERTEX
  8
0
  5
76E
 10
383.683
 20
367.244
 30
0.000000
  70
    32
  0
VERTEX
  8
0
  5
76F
 10
384.397
 20
367.043
 30
0.000000
  70
    32
  0
VERTEX
  8
0
  5
770
 10
385.112
 20
366.839
 30
0.000000
  70
    32
  0
VERTEX
  8
0
  5
771
 10
385.825
 20
366.634
 30
0.000000
  70
    32
  0
VERTEX
  8
0
  5
772
 10
386.538
 20
366.426
 30
0.000000
  70
    32
  0
VERTEX
  8
0
  5
773
 10
387.250
 20
366.217
 30
0.000000
  70
    32
  0
VERTEX
  8
0
  5
774
 10
387.962
 20
366.005
 30
0.000000
  70
    32
  0
VERTEX
  8
0
  5
775
 10
388.673
 20
365.791
 30
0.000000
  70
    32
  0
VERTEX
  8
0
  5
776
 10
389.384
 20
365.575
 30
0.000000
  70
    32
  0
VERTEX
  8
0
  5
777
 10
390.093
 20
365.356
 30
0.000000
  70
    32
  0
VERTEX
  8
0
  5
778
 10
390.802
 20
365.136
 30
0.000000
  70
    32
  0
VERTEX
  8
0
  5
779
 10
391.511
 20
364.913
 30
0.000000
  70
    32
  0
VERTEX
  8
0
  5
77A
 10
392.219
 20
364.688
 30
0.000000
  70
    32
  0
VERTEX
  8
0
  5
77B
 10
392.925
 20
364.461
 30
0.000000
  70
    32
  0
VERTEX
  8
0
  5
77C
 10
393.632
 20
364.232
 30
0.000000
  70
    32
  0
VERTEX
  8
0
  5
77D
 10
394.337
 20
364.001
 30
0.000000
  70
    32
  0
VERTEX
  8
0
  5
77E
 10
395.042
 20
363.767
 30
0.000000
  70
    32
  0
VERTEX
  8
0
  5
77F
 10
395.746
 20
363.531
 30
0.000000
  70
    32
  0
VERTEX
  8
0
  5
780
 10
396.450
 20
363.293
 30
0.000000
  70
    32
  0
VERTEX
  8
0
  5
781
 10
397.152
 20
363.053
 30
0.000000
  70
    32
  0
VERTEX
  8
0
  5
782
 10
397.854
 20
362.810
 30
0.000000
  70
    32
  0
VERTEX
  8
0
  5
783
 10
398.555
 20
362.565
 30
0.000000
  70
    32
  0
VERTEX
  8
0
  5
784
 10
399.255
 20
362.318
 30
0.000000
  70
    32
  0
VERTEX
  8
0
  5
785
 10
399.954
 20
362.069
 30
0.000000
  70
    32
  0
VERTEX
  8
0
  5
786
 10
400.653
 20
361.817
 30
0.000000
  70
    32
  0
VERTEX
  8
0
  5
787
 10
401.351
 20
361.563
 30
0.000000
  70
    32
  0
VERTEX
  8
0
  5
788
 10
402.048
 20
361.307
 30
0.000000
  70
    32
  0
VERTEX
  8
0
  5
789
 10
402.744
 20
361.049
 30
0.000000
  70
    32
  0
VERTEX
  8
0
  5
78A
 10
403.439
 20
360.788
 30
0.000000
  70
    32
  0
VERTEX
  8
0
  5
78B
 10
404.133
 20
360.525
 30
0.000000
  70
    32
  0
VERTEX
  8
0
  5
78C
 10
404.827
 20
360.259
 30
0.000000
  70
    32
  0
VERTEX
  8
0
  5
78D
 10
405.519
 20
359.992
 30
0.000000
  70
    32
  0
VERTEX
  8
0
  5
78E
 10
406.211
 20
359.722
 30
0.000000
  70
    32
  0
VERTEX
  8
0
  5
78F
 10
406.901
 20
359.449
 30
0.000000
  70
    32
  0
VERTEX
  8
0
  5
790
 10
407.591
 20
359.174
 30
0.000000
  70
    32
  0
VERTEX
  8
0
  5
791
 10
408.280
 20
358.897
 30
0.000000
  70
    32
  0
VERTEX
  8
0
  5
792
 10
408.968
 20
358.618
 30
0.000000
  70
    32
  0
VERTEX
  8
0
  5
793
 10
409.655
 20
358.336
 30
0.000000
  70
    32
  0
VERTEX
  8
0
  5
794
 10
410.341
 20
358.051
 30
0.000000
  70
    32
  0
VERTEX
  8
0
  5
795
 10
411.026
 20
357.765
 30
0.000000
  70
    32
  0
VERTEX
  8
0
  5
796
 10
411.710
 20
357.476
 30
0.000000
  70
    32
  0
VERTEX
  8
0
  5
797
 10
412.393
 20
357.184
 30
0.000000
  70
    32
  0
VERTEX
  8
0
  5
798
 10
413.075
 20
356.890
 30
0.000000
  70
    32
  0
VERTEX
  8
0
  5
799
 10
413.756
 20
356.594
 30
0.000000
  70
    32
  0
VERTEX
  8
0
  5
79A
 10
414.436
 20
356.295
 30
0.000000
  70
    32
  0
VERTEX
  8
0
  5
79B
 10
415.115
 20
355.994
 30
0.000000
  70
    32
  0
VERTEX
  8
0
  5
79C
 10
415.793
 20
355.691
 30
0.000000
  70
    32
  0
VERTEX
  8
0
  5
79D
 10
416.470
 20
355.385
 30
0.000000
  70
    32
  0
VERTEX
  8
0
  5
79E
 10
417.146
 20
355.076
 30
0.000000
  70
    32
  0
VERTEX
  8
0
  5
79F
 10
417.820
 20
354.765
 30
0.000000
  70
    32
  0
VERTEX
  8
0
  5
7A0
 10
418.494
 20
354.452
 30
0.000000
  70
    32
  0
VERTEX
  8
0
  5
7A1
 10
419.166
 20
354.136
 30
0.000000
  70
    32
  0
VERTEX
  8
0
  5
7A2
 10
419.837
 20
353.818
 30
0.000000
  70
    32
  0
VERTEX
  8
0
  5
7A3
 10
420.507
 20
353.497
 30
0.000000
  70
    32
  0
VERTEX
  8
0
  5
7A4
 10
421.176
 20
353.174
 30
0.000000
  70
    32
  0
VERTEX
  8
0
  5
7A5
 10
421.843
 20
352.848
 30
0.000000
  70
    32
  0
VERTEX
  8
0
  5
7A6
 10
422.509
 20
352.519
 30
0.000000
  70
    32
  0
VERTEX
  8
0
  5
7A7
 10
423.174
 20
352.189
 30
0.000000
  70
    32
  0
VERTEX
  8
0
  5
7A8
 10
423.838
 20
351.855
 30
0.000000
  70
    32
  0
VERTEX
  8
0
  5
7A9
 10
424.501
 20
351.519
 30
0.000000
  70
    32
  0
VERTEX
  8
0
  5
7AA
 10
425.162
 20
351.181
 30
0.000000
  70
    32
  0
VERTEX
  8
0
  5
7AB
 10
425.822
 20
350.840
 30
0.000000
  70
    32
  0
VERTEX
  8
0
  5
7AC
 10
426.480
 20
350.497
 30
0.000000
  70
    32
  0
VERTEX
  8
0
  5
7AD
 10
427.138
 20
350.151
 30
0.000000
  70
    32
  0
VERTEX
  8
0
  5
7AE
 10
427.793
 20
349.802
 30
0.000000
  70
    32
  0
VERTEX
  8
0
  5
7AF
 10
428.448
 20
349.451
 30
0.000000
  70
    32
  0
VERTEX
  8
0
  5
7B0
 10
429.101
 20
349.097
 30
0.000000
  70
    32
  0
VERTEX
  8
0
  5
7B1
 10
429.753
 20
348.741
 30
0.000000
  70
    32
  0
VERTEX
  8
0
  5
7B2
 10
430.403
 20
348.382
 30
0.000000
  70
    32
  0
VERTEX
  8
0
  5
7B3
 10
431.052
 20
348.020
 30
0.000000
  70
    32
  0
VERTEX
  8
0
  5
7B4
 10
431.699
 20
347.656
 30
0.000000
  70
    32
  0
VERTEX
  8
0
  5
7B5
 10
432.345
 20
347.289
 30
0.000000
  70
    32
  0
VERTEX
  8
0
  5
7B6
 10
432.989
 20
346.920
 30
0.000000
  70
    32
  0
VERTEX
  8
0
  5
7B7
 10
433.632
 20
346.548
 30
0.000000
  70
    32
  0
VERTEX
  8
0
  5
7B8
 10
434.273
 20
346.174
 30
0.000000
  70
    32
  0
VERTEX
  8
0
  5
7B9
 10
434.913
 20
345.796
 30
0.000000
  70
    32
  0
VERTEX
  8
0
  5
7BA
 10
435.551
 20
345.416
 30
0.000000
  70
    32
  0
VERTEX
  8
0
  5
7BB
 10
436.188
 20
345.034
 30
0.000000
  70
    32
  0
VERTEX
  8
0
  5
7BC
 10
436.823
 20
344.649
 30
0.000000
  70
    32
  0
VERTEX
  8
0
  5
7BD
 10
437.457
 20
344.261
 30
0.000000
  70
    32
  0
VERTEX
  8
0
  5
7BE
 10
438.088
 20
343.870
 30
0.000000
  70
    32
  0
VERTEX
  8
0
  5
7BF
 10
438.719
 20
343.477
 30
0.000000
  70
    32
  0
VERTEX
  8
0
  5
7C0
 10
439.347
 20
343.081
 30
0.000000
  70
    32
  0
VERTEX
  8
0
  5
7C1
 10
439.974
 20
342.683
 30
0.000000
  70
    32
  0
VERTEX
  8
0
  5
7C2
 10
440.599
 20
342.282
 30
0.000000
  70
    32
  0
VERTEX
  8
0
  5
7C3
 10
441.223
 20
341.878
 30
0.000000
  70
    32
  0
VERTEX
  8
0
  5
7C4
 10
441.845
 20
341.471
 30
0.000000
  70
    32
  0
VERTEX
  8
0
  5
7C5
 10
442.465
 20
341.062
 30
0.000000
  70
    32
  0
VERTEX
  8
0
  5
7C6
 10
443.083
 20
340.650
 30
0.000000
  70
    32
  0
VERTEX
  8
0
  5
7C7
 10
443.699
 20
340.235
 30
0.000000
  70
    32
  0
VERTEX
  8
0
  5
7C8
 10
444.314
 20
339.817
 30
0.000000
  70
    32
  0
VERTEX
  8
0
  5
7C9
 10
444.927
 20
339.397
 30
0.000000
  70
    32
  0
VERTEX
  8
0
  5
7CA
 10
445.538
 20
338.974
 30
0.000000
  70
    32
  0
VERTEX
  8
0
  5
7CB
 10
446.147
 20
338.549
 30
0.000000
  70
    32
  0
VERTEX
  8
0
  5
7CC
 10
446.754
 20
338.120
 30
0.000000
  70
    32
  0
VERTEX
  8
0
  5
7CD
 10
447.360
 20
337.689
 30
0.000000
  70
    32
  0
VERTEX
  8
0
  5
7CE
 10
447.963
 20
337.255
 30
0.000000
  70
    32
  0
VERTEX
  8
0
  5
7CF
 10
448.564
 20
336.819
 30
0.000000
  70
    32
  0
VERTEX
  8
0
  5
7D0
 10
449.164
 20
336.379
 30
0.000000
  70
    32
  0
VERTEX
  8
0
  5
7D1
 10
449.761
 20
335.937
 30
0.000000
  70
    32
  0
VERTEX
  8
0
  5
7D2
 10
450.356
 20
335.493
 30
0.000000
  70
    32
  0
VERTEX
  8
0
  5
7D3
 10
450.950
 20
335.045
 30
0.000000
  70
    32
  0
VERTEX
  8
0
  5
7D4
 10
451.541
 20
334.595
 30
0.000000
  70
    32
  0
VERTEX
  8
0
  5
7D5
 10
452.130
 20
334.142
 30
0.000000
  70
    32
  0
VERTEX
  8
0
  5
7D6
 10
452.717
 20
333.686
 30
0.000000
  70
    32
  0
VERTEX
  8
0
  5
7D7
 10
453.302
 20
333.228
 30
0.000000
  70
    32
  0
VERTEX
  8
0
  5
7D8
 10
453.885
 20
332.767
 30
0.000000
  70
    32
  0
VERTEX
  8
0
  5
7D9
 10
454.465
 20
332.303
 30
0.000000
  70
    32
  0
VERTEX
  8
0
  5
7DA
 10
455.044
 20
331.836
 30
0.000000
  70
    32
  0
VERTEX
  8
0
  5
7DB
 10
455.620
 20
331.367
 30
0.000000
  70
    32
  0
VERTEX
  8
0
  5
7DC
 10
456.194
 20
330.895
 30
0.000000
  70
    32
  0
VERTEX
  8
0
  5
7DD
 10
456.765
 20
330.420
 30
0.000000
  70
    32
  0
VERTEX
  8
0
  5
7DE
 10
457.334
 20
329.942
 30
0.000000
  70
    32
  0
VERTEX
  8
0
  5
7DF
 10
457.901
 20
329.462
 30
0.000000
  70
    32
  0
VERTEX
  8
0
  5
7E0
 10
458.466
 20
328.979
 30
0.000000
  70
    32
  0
VERTEX
  8
0
  5
7E1
 10
459.028
 20
328.493
 30
0.000000
  70
    32
  0
VERTEX
  8
0
  5
7E2
 10
459.588
 20
328.004
 30
0.000000
  70
    32
  0
VERTEX
  8
0
  5
7E3
 10
460.145
 20
327.513
 30
0.000000
  70
    32
  0
VERTEX
  8
0
  5
7E4
 10
460.700
 20
327.019
 30
0.000000
  70
    32
  0
VERTEX
  8
0
  5
7E5
 10
461.253
 20
326.522
 30
0.000000
  70
    32
  0
VERTEX
  8
0
  5
7E6
 10
461.803
 20
326.023
 30
0.000000
  70
    32
  0
VERTEX
  8
0
  5
7E7
 10
462.350
 20
325.520
 30
0.000000
  70
    32
  0
VERTEX
  8
0
  5
7E8
 10
462.895
 20
325.015
 30
0.000000
  70
    32
  0
VERTEX
  8
0
  5
7E9
 10
463.438
 20
324.507
 30
0.000000
  70
    32
  0
VERTEX
  8
0
  5
7EA
 10
463.978
 20
323.997
 30
0.000000
  70
    32
  0
VERTEX
  8
0
  5
7EB
 10
464.515
 20
323.483
 30
0.000000
  70
    32
  0
VERTEX
  8
0
  5
7EC
 10
465.050
 20
322.967
 30
0.000000
  70
    32
  0
VERTEX
  8
0
  5
7ED
 10
465.582
 20
322.448
 30
0.000000
  70
    32
  0
VERTEX
  8
0
  5
7EE
 10
466.111
 20
321.927
 30
0.000000
  70
    32
  0
VERTEX
  8
0
  5
7EF
 10
466.638
 20
321.402
 30
0.000000
  70
    32
  0
VERTEX
  8
0
  5
7F0
 10
467.162
 20
320.875
 30
0.000000
  70
    32
  0
VERTEX
  8
0
  5
7F1
 10
467.683
 20
320.345
 30
0.000000
  70
    32
  0
VERTEX
  8
0
  5
7F2
 10
468.201
 20
319.813
 30
0.000000
  70
    32
  0
VERTEX
  8
0
  5
7F3
 10
468.717
 20
319.277
 30
0.000000
  70
    32
  0
VERTEX
  8
0
  5
7F4
 10
469.230
 20
318.739
 30
0.000000
  70
    32
  0
VERTEX
  8
0
  5
7F5
 10
469.740
 20
318.198
 30
0.000000
  70
    32
  0
VERTEX
  8
0
  5
7F6
 10
470.247
 20
317.655
 30
0.000000
  70
    32
  0
VERTEX
  8
0
  5
7F7
 10
470.752
 20
317.109
 30
0.000000
  70
    32
  0
VERTEX
  8
0
  5
7F8
 10
471.253
 20
316.560
 30
0.000000
  70
    32
  0
VERTEX
  8
0
  5
7F9
 10
471.752
 20
316.008
 30
0.000000
  70
    32
  0
VERTEX
  8
0
  5
7FA
 10
472.247
 20
315.454
 30
0.000000
  70
    32
  0
VERTEX
  8
0
  5
7FB
 10
472.740
 20
314.897
 30
0.000000
  70
    32
  0
VERTEX
  8
0
  5
7FC
 10
473.230
 20
314.338
 30
0.000000
  70
    32
  0
VERTEX
  8
0
  5
7FD
 10
473.716
 20
313.776
 30
0.000000
  70
    32
  0
VERTEX
  8
0
  5
7FE
 10
474.200
 20
313.211
 30
0.000000
  70
    32
  0
VERTEX
  8
0
  5
7FF
 10
474.681
 20
312.643
 30
0.000000
  70
    32
  0
VERTEX
  8
0
  5
800
 10
475.158
 20
312.074
 30
0.000000
  70
    32
  0
VERTEX
  8
0
  5
801
 10
475.633
 20
311.501
 30
0.000000
  70
    32
  0
VERTEX
  8
0
  5
802
 10
476.104
 20
310.926
 30
0.000000
  70
    32
  0
VERTEX
  8
0
  5
803
 10
476.572
 20
310.348
 30
0.000000
  70
    32
  0
VERTEX
  8
0
  5
804
 10
477.037
 20
309.768
 30
0.000000
  70
    32
  0
VERTEX
  8
0
  5
805
 10
477.499
 20
309.185
 30
0.000000
  70
    32
  0
VERTEX
  8
0
  5
806
 10
477.957
 20
308.600
 30
0.000000
  70
    32
  0
VERTEX
  8
0
  5
807
 10
478.412
 20
308.012
 30
0.000000
  70
    32
  0
VERTEX
  8
0
  5
808
 10
478.864
 20
307.422
 30
0.000000
  70
    32
  0
VERTEX
  8
0
  5
809
 10
479.313
 20
306.829
 30
0.000000
  70
    32
  0
VERTEX
  8
0
  5
80A
 10
479.758
 20
306.233
 30
0.000000
  70
    32
  0
VERTEX
  8
0
  5
80B
 10
480.200
 20
305.636
 30
0.000000
  70
    32
  0
VERTEX
  8
0
  5
80C
 10
480.639
 20
305.035
 30
0.000000
  70
    32
  0
VERTEX
  8
0
  5
80D
 10
481.074
 20
304.432
 30
0.000000
  70
    32
  0
VERTEX
  8
0
  5
80E
 10
481.506
 20
303.827
 30
0.000000
  70
    32
  0
VERTEX
  8
0
  5
80F
 10
481.935
 20
303.219
 30
0.000000
  70
    32
  0
VERTEX
  8
0
  5
810
 10
482.359
 20
302.609
 30
0.000000
  70
    32
  0
VERTEX
  8
0
  5
811
 10
482.781
 20
301.996
 30
0.000000
  70
    32
  0
VERTEX
  8
0
  5
812
 10
483.199
 20
301.381
 30
0.000000
  70
    32
  0
VERTEX
  8
0
  5
813
 10
483.613
 20
300.764
 30
0.000000
  70
    32
  0
VERTEX
  8
0
  5
814
 10
484.024
 20
300.144
 30
0.000000
  70
    32
  0
VERTEX
  8
0
  5
815
 10
484.432
 20
299.522
 30
0.000000
  70
    32
  0
VERTEX
  8
0
  5
816
 10
484.835
 20
298.897
 30
0.000000
  70
    32
  0
VERTEX
  8
0
  5
817
 10
485.235
 20
298.270
 30
0.000000
  70
    32
  0
VERTEX
  8
0
  5
818
 10
485.632
 20
297.641
 30
0.000000
  70
    32
  0
VERTEX
  8
0
  5
819
 10
486.025
 20
297.009
 30
0.000000
  70
    32
  0
VERTEX
  8
0
  5
81A
 10
486.414
 20
296.375
 30
0.000000
  70
    32
  0
VERTEX
  8
0
  5
81B
 10
486.799
 20
295.739
 30
0.000000
  70
    32
  0
VERTEX
  8
0
  5
81C
 10
487.181
 20
295.100
 30
0.000000
  70
    32
  0
VERTEX
  8
0
  5
81D
 10
487.559
 20
294.459
 30
0.000000
  70
    32
  0
VERTEX
  8
0
  5
81E
 10
487.933
 20
293.816
 30
0.000000
  70
    32
  0
VERTEX
  8
0
  5
81F
 10
488.303
 20
293.170
 30
0.000000
  70
    32
  0
VERTEX
  8
0
  5
820
 10
488.670
 20
292.523
 30
0.000000
  70
    32
  0
VERTEX
  8
0
  5
821
 10
489.033
 20
291.873
 30
0.000000
  70
    32
  0
VERTEX
  8
0
  5
822
 10
489.392
 20
291.221
 30
0.000000
  70
    32
  0
VERTEX
  8
0
  5
823
 10
489.747
 20
290.567
 30
0.000000
  70
    32
  0
VERTEX
  8
0
  5
824
 10
490.099
 20
289.911
 30
0.000000
  70
    32
  0
VERTEX
  8
0
  5
825
 10
490.447
 20
289.253
 30
0.000000
  70
    32
  0
VERTEX
  8
0
  5
826
 10
490.791
 20
288.593
 30
0.000000
  70
    32
  0
VERTEX
  8
0
  5
827
 10
491.131
 20
287.931
 30
0.000000
  70
    32
  0
VERTEX
  8
0
  5
828
 10
491.467
 20
287.267
 30
0.000000
  70
    32
  0
VERTEX
  8
0
  5
829
 10
491.799
 20
286.601
 30
0.000000
  70
    32
  0
VERTEX
  8
0
  5
82A
 10
492.127
 20
285.933
 30
0.000000
  70
    32
  0
VERTEX
  8
0
  5
82B
 10
492.452
 20
285.263
 30
0.000000
  70
    32
  0
VERTEX
  8
0
  5
82C
 10
492.773
 20
284.591
 30
0.000000
  70
    32
  0
VERTEX
  8
0
  5
82D
 10
493.089
 20
283.918
 30
0.000000
  70
    32
  0
VERTEX
  8
0
  5
82E
 10
493.402
 20
283.242
 30
0.000000
  70
    32
  0
VERTEX
  8
0
  5
82F
 10
493.711
 20
282.565
 30
0.000000
  70
    32
  0
VERTEX
  8
0
  5
830
 10
494.016
 20
281.886
 30
0.000000
  70
    32
  0
VERTEX
  8
0
  5
831
 10
494.317
 20
281.206
 30
0.000000
  70
    32
  0
VERTEX
  8
0
  5
832
 10
494.614
 20
280.523
 30
0.000000
  70
    32
  0
VERTEX
  8
0
  5
833
 10
494.907
 20
279.839
 30
0.000000
  70
    32
  0
VERTEX
  8
0
  5
834
 10
495.196
 20
279.153
 30
0.000000
  70
    32
  0
VERTEX
  8
0
  5
835
 10
495.481
 20
278.466
 30
0.000000
  70
    32
  0
VERTEX
  8
0
  5
836
 10
495.762
 20
277.777
 30
0.000000
  70
    32
  0
VERTEX
  8
0
  5
837
 10
496.039
 20
277.086
 30
0.000000
  70
    32
  0
VERTEX
  8
0
  5
838
 10
496.312
 20
276.394
 30
0.000000
  70
    32
  0
VERTEX
  8
0
  5
839
 10
496.580
 20
275.701
 30
0.000000
  70
    32
  0
VERTEX
  8
0
  5
83A
 10
496.845
 20
275.005
 30
0.000000
  70
    32
  0
VERTEX
  8
0
  5
83B
 10
497.106
 20
274.309
 30
0.000000
  70
    32
  0
VERTEX
  8
0
  5
83C
 10
497.362
 20
273.611
 30
0.000000
  70
    32
  0
VERTEX
  8
0
  5
83D
 10
497.615
 20
272.911
 30
0.000000
  70
    32
  0
VERTEX
  8
0
  5
83E
 10
497.863
 20
272.210
 30
0.000000
  70
    32
  0
VERTEX
  8
0
  5
83F
 10
498.107
 20
271.508
 30
0.000000
  70
    32
  0
VERTEX
  8
0
  5
840
 10
498.348
 20
270.804
 30
0.000000
  70
    32
  0
VERTEX
  8
0
  5
841
 10
498.584
 20
270.099
 30
0.000000
  70
    32
  0
VERTEX
  8
0
  5
842
 10
498.815
 20
269.393
 30
0.000000
  70
    32
  0
VERTEX
  8
0
  5
843
 10
499.043
 20
268.685
 30
0.000000
  70
    32
  0
VERTEX
  8
0
  5
844
 10
499.266
 20
267.977
 30
0.000000
  70
    32
  0
VERTEX
  8
0
  5
845
 10
499.486
 20
267.267
 30
0.000000
  70
    32
  0
VERTEX
  8
0
  5
846
 10
499.701
 20
266.555
 30
0.000000
  70
    32
  0
VERTEX
  8
0
  5
847
 10
499.911
 20
265.843
 30
0.000000
  70
    32
  0
VERTEX
  8
0
  5
848
 10
500.118
 20
265.129
 30
0.000000
  70
    32
  0
VERTEX
  8
0
  5
849
 10
500.320
 20
264.415
 30
0.000000
  70
    32
  0
VERTEX
  8
0
  5
84A
 10
500.519
 20
263.699
 30
0.000000
  70
    32
  0
VERTEX
  8
0
  5
84B
 10
500.713
 20
262.982
 30
0.000000
  70
    32
  0
VERTEX
  8
0
  5
84C
 10
500.902
 20
262.264
 30
0.000000
  70
    32
  0
VERTEX
  8
0
  5
84D
 10
501.088
 20
261.545
 30
0.000000
  70
    32
  0
VERTEX
  8
0
  5
84E
 10
501.269
 20
260.826
 30
0.000000
  70
    32
  0
VERTEX
  8
0
  5
84F
 10
501.447
 20
260.105
 30
0.000000
  70
    32
  0
VERTEX
  8
0
  5
850
 10
501.620
 20
259.383
 30
0.000000
  70
    32
  0
VERTEX
  8
0
  5
851
 10
501.789
 20
258.660
 30
0.000000
  70
    32
  0
VERTEX
  8
0
  5
852
 10
501.954
 20
257.936
 30
0.000000
  70
    32
  0
VERTEX
  8
0
  5
853
 10
502.114
 20
257.211
 30
0.000000
  70
    32
  0
VERTEX
  8
0
  5
854
 10
502.271
 20
256.486
 30
0.000000
  70
    32
  0
VERTEX
  8
0
  5
855
 10
502.423
 20
255.759
 30
0.000000
  70
    32
  0
VERTEX
  8
0
  5
856
 10
502.572
 20
255.032
 30
0.000000
  70
    32
  0
VERTEX
  8
0
  5
857
 10
502.716
 20
254.304
 30
0.000000
  70
    32
  0
VERTEX
  8
0
  5
858
 10
502.856
 20
253.575
 30
0.000000
  70
    32
  0
VERTEX
  8
0
  5
859
 10
502.992
 20
252.845
 30
0.000000
  70
    32
  0
VERTEX
  8
0
  5
85A
 10
503.124
 20
252.114
 30
0.000000
  70
    32
  0
VERTEX
  8
0
  5
85B
 10
503.252
 20
251.383
 30
0.000000
  70
    32
  0
VERTEX
  8
0
  5
85C
 10
503.375
 20
250.651
 30
0.000000
  70
    32
  0
VERTEX
  8
0
  5
85D
 10
503.495
 20
249.918
 30
0.000000
  70
    32
  0
VERTEX
  8
0
  5
85E
 10
503.611
 20
249.185
 30
0.000000
  70
    32
  0
VERTEX
  8
0
  5
85F
 10
503.722
 20
248.451
 30
0.000000
  70
    32
  0
VERTEX
  8
0
  5
860
 10
503.830
 20
247.716
 30
0.000000
  70
    32
  0
VERTEX
  8
0
  5
861
 10
503.933
 20
246.981
 30
0.000000
  70
    32
  0
VERTEX
  8
0
  5
862
 10
504.032
 20
246.245
 30
0.000000
  70
    32
  0
VERTEX
  8
0
  5
863
 10
504.128
 20
245.508
 30
0.000000
  70
    32
  0
VERTEX
  8
0
  5
864
 10
504.219
 20
244.771
 30
0.000000
  70
    32
  0
VERTEX
  8
0
  5
865
 10
504.307
 20
244.034
 30
0.000000
  70
    32
  0
VERTEX
  8
0
  5
866
 10
504.390
 20
243.296
 30
0.000000
  70
    32
  0
VERTEX
  8
0
  5
867
 10
504.469
 20
242.558
 30
0.000000
  70
    32
  0
VERTEX
  8
0
  5
868
 10
504.545
 20
241.819
 30
0.000000
  70
    32
  0
VERTEX
  8
0
  5
869
 10
504.616
 20
241.079
 30
0.000000
  70
    32
  0
VERTEX
  8
0
  5
86A
 10
504.684
 20
240.340
 30
0.000000
  70
    32
  0
VERTEX
  8
0
  5
86B
 10
504.747
 20
239.600
 30
0.000000
  70
    32
  0
VERTEX
  8
0
  5
86C
 10
504.807
 20
238.859
 30
0.000000
  70
    32
  0
VERTEX
  8
0
  5
86D
 10
504.863
 20
238.119
 30
0.000000
  70
    32
  0
VERTEX
  8
0
  5
86E
 10
504.914
 20
237.378
 30
0.000000
  70
    32
  0
VERTEX
  8
0
  5
86F
 10
504.962
 20
236.637
 30
0.000000
  70
    32
  0
VERTEX
  8
0
  5
870
 10
505.006
 20
235.896
 30
0.000000
  70
    32
  0
VERTEX
  8
0
  5
871
 10
505.046
 20
235.154
 30
0.000000
  70
    32
  0
VERTEX
  8
0
  5
872
 10
505.083
 20
234.412
 30
0.000000
  70
    32
  0
VERTEX
  8
0
  5
873
 10
505.115
 20
233.671
 30
0.000000
  70
    32
  0
VERTEX
  8
0
  5
874
 10
505.144
 20
232.929
 30
0.000000
  70
    32
  0
VERTEX
  8
0
  5
875
 10
505.168
 20
232.187
 30
0.000000
  70
    32
  0
VERTEX
  8
0
  5
876
 10
505.189
 20
231.445
 30
0.000000
  70
    32
  0
VERTEX
  8
0
  5
877
 10
505.206
 20
230.703
 30
0.000000
  70
    32
  0
VERTEX
  8
0
  5
878
 10
505.220
 20
229.961
 30
0.000000
  70
    32
  0
VERTEX
  8
0
  5
879
 10
505.229
 20
229.219
 30
0.000000
  70
    32
  0
VERTEX
  8
0
  5
87A
 10
505.235
 20
228.477
 30
0.000000
  70
    32
  0
VERTEX
  8
0
  5
87B
 10
505.237
 20
227.735
 30
0.000000
  70
    32
  0
SEQEND
  8
0
  5
87C
  0
POLYLINE
  8
0
  5
87D
  66
     1
 10
0.000000
 20
0.000000
 30
0.000000
  70
     8
  0
VERTEX
  8
0
  5
87E
 10
1005.24
 20
227.735
 30
0.000000
  70
    32
  0
VERTEX
  8
0
  5
87F
 10
1005.23
 20
228.477
 30
0.000000
  70
    32
  0
VERTEX
  8
0
  5
880
 10
1005.23
 20
229.219
 30
0.000000
  70
    32
  0
VERTEX
  8
0
  5
881
 10
1005.22
 20
229.961
 30
0.000000
  70
    32
  0
VERTEX
  8
0
  5
882
 10
1005.21
 20
230.703
 30
0.000000
  70
    32
  0
VERTEX
  8
0
  5
883
 10
1005.19
 20
231.445
 30
0.000000
  70
    32
  0
VERTEX
  8
0
  5
884
 10
1005.17
 20
232.187
 30
0.000000
  70
    32
  0
VERTEX
  8
0
  5
885
 10
1005.14
 20
232.929
 30
0.000000
  70
    32
  0
VERTEX
  8
0
  5
886
 10
1005.12
 20
233.671
 30
0.000000
  70
    32
  0
VERTEX
  8
0
  5
887
 10
1005.08
 20
234.412
 30
0.000000
  70
    32
  0
VERTEX
  8
0
  5
888
 10
1005.05
 20
235.154
 30
0.000000
  70
    32
  0
VERTEX
  8
0
  5
889
 10
1005.01
 20
235.896
 30
0.000000
  70
    32
  0
VERTEX
  8
0
  5
88A
 10
1004.96
 20
236.637
 30
0.000000
  70
    32
  0
VERTEX
  8
0
  5
88B
 10
1004.91
 20
237.378
 30
0.000000
  70
    32
  0
VERTEX
  8
0
  5
88C
 10
1004.86
 20
238.119
 30
0.000000
  70
    32
  0
VERTEX
  8
0
  5
88D
 10
1004.81
 20
238.859
 30
0.000000
  70
    32
  0
VERTEX
  8
0
  5
88E
 10
1004.75
 20
239.600
 30
0.000000
  70
    32
  0
VERTEX
  8
0
  5
88F
 10
1004.68
 20
240.340
 30
0.000000
  70
    32
  0
VERTEX
  8
0
  5
890
 10
1004.62
 20
241.079
 30
0.000000
  70
    32
  0
VERTEX
  8
0
  5
891
 10
1004.54
 20
241.819
 30
0.000000
  70
    32
  0
VERTEX
  8
0
  5
892
 10
1004.47
 20
242.558
 30
0.000000
  70
    32
  0
VERTEX
  8
0
  5
893
 10
1004.39
 20
243.296
 30
0.000000
  70
    32
  0
VERTEX
  8
0
  5
894
 10
1004.31
 20
244.034
 30
0.000000
  70
    32
  0
VERTEX
  8
0
  5
895
 10
1004.22
 20
244.771
 30
0.000000
  70
    32
  0
VERTEX
  8
0
  5
896
 10
1004.13
 20
245.508
 30
0.000000
  70
    32
  0
VERTEX
  8
0
  5
897
 10
1004.03
 20
246.245
 30
0.000000
  70
    32
  0
VERTEX
  8
0
  5
898
 10
1003.93
 20
246.981
 30
0.000000
  70
    32
  0
VERTEX
  8
0
  5
899
 10
1003.83
 20
247.716
 30
0.000000
  70
    32
  0
VERTEX
  8
0
  5
89A
 10
1003.72
 20
248.451
 30
0.000000
  70
    32
  0
VERTEX
  8
0
  5
89B
 10
1003.61
 20
249.185
 30
0.000000
  70
    32
  0
VERTEX
  8
0
  5
89C
 10
1003.49
 20
249.918
 30
0.000000
  70
    32
  0
VERTEX
  8
0
  5
89D
 10
1003.38
 20
250.651
 30
0.000000
  70
    32
  0
VERTEX
  8
0
  5
89E
 10
1003.25
 20
251.383
 30
0.000000
  70
    32
  0
VERTEX
  8
0
  5
89F
 10
1003.12
 20
252.114
 30
0.000000
  70
    32
  0
VERTEX
  8
0
  5
8A0
 10
1002.99
 20
252.845
 30
0.000000
  70
    32
  0
VERTEX
  8
0
  5
8A1
 10
1002.86
 20
253.575
 30
0.000000
  70
    32
  0
VERTEX
  8
0
  5
8A2
 10
1002.72
 20
254.304
 30
0.000000
  70
    32
  0
VERTEX
  8
0
  5
8A3
 10
1002.57
 20
255.032
 30
0.000000
  70
    32
  0
VERTEX
  8
0
  5
8A4
 10
1002.42
 20
255.759
 30
0.000000
  70
    32
  0
VERTEX
  8
0
  5
8A5
 10
1002.27
 20
256.486
 30
0.000000
  70
    32
  0
VERTEX
  8
0
  5
8A6
 10
1002.11
 20
257.211
 30
0.000000
  70
    32
  0
VERTEX
  8
0
  5
8A7
 10
1001.95
 20
257.936
 30
0.000000
  70
    32
  0
VERTEX
  8
0
  5
8A8
 10
1001.79
 20
258.660
 30
0.000000
  70
    32
  0
VERTEX
  8
0
  5
8A9
 10
1001.62
 20
259.383
 30
0.000000
  70
    32
  0
VERTEX
  8
0
  5
8AA
 10
1001.45
 20
260.105
 30
0.000000
  70
    32
  0
VERTEX
  8
0
  5
8AB
 10
1001.27
 20
260.826
 30
0.000000
  70
    32
  0
VERTEX
  8
0
  5
8AC
 10
1001.09
 20
261.545
 30
0.000000
  70
    32
  0
VERTEX
  8
0
  5
8AD
 10
1000.90
 20
262.264
 30
0.000000
  70
    32
  0
VERTEX
  8
0
  5
8AE
 10
1000.71
 20
262.982
 30
0.000000
  70
    32
  0
VERTEX
  8
0
  5
8AF
 10
1000.52
 20
263.699
 30
0.000000
  70
    32
  0
VERTEX
  8
0
  5
8B0
 10
1000.32
 20
264.415
 30
0.000000
  70
    32
  0
VERTEX
  8
0
  5
8B1
 10
1000.12
 20
265.129
 30
0.000000
  70
    32
  0
VERTEX
  8
0
  5
8B2
 10
999.911
 20
265.843
 30
0.000000
  70
    32
  0
VERTEX
  8
0
  5
8B3
 10
999.701
 20
266.555
 30
0.000000
  70
    32
  0
VERTEX
  8
0
  5
8B4
 10
999.486
 20
267.267
 30
0.000000
  70
    32
  0
VERTEX
  8
0
  5
8B5
 10
999.266
 20
267.977
 30
0.000000
  70
    32
  0
VERTEX
  8
0
  5
8B6
 10
999.043
 20
268.685
 30
0.000000
  70
    32
  0
VERTEX
  8
0
  5
8B7
 10
998.815
 20
269.393
 30
0.000000
  70
    32
  0
VERTEX
  8
0
  5
8B8
 10
998.584
 20
270.099
 30
0.000000
  70
    32
  0
VERTEX
  8
0
  5
8B9
 10
998.348
 20
270.804
 30
0.000000
  70
    32
  0
VERTEX
  8
0
  5
8BA
 10
998.107
 20
271.508
 30
0.000000
  70
    32
  0
VERTEX
  8
0
  5
8BB
 10
997.863
 20
272.210
 30
0.000000
  70
    32
  0
VERTEX
  8
0
  5
8BC
 10
997.615
 20
272.911
 30
0.000000
  70
    32
  0
VERTEX
  8
0
  5
8BD
 10
997.362
 20
273.611
 30
0.000000
  70
    32
  0
VERTEX
  8
0
  5
8BE
 10
997.106
 20
274.309
 30
0.000000
  70
    32
  0
VERTEX
  8
0
  5
8BF
 10
996.845
 20
275.005
 30
0.000000
  70
    32
  0
VERTEX
  8
0
  5
8C0
 10
996.580
 20
275.701
 30
0.000000
  70
    32
  0
VERTEX
  8
0
  5
8C1
 10
996.312
 20
276.394
 30
0.000000
  70
    32
  0
VERTEX
  8
0
  5
8C2
 10
996.039
 20
277.086
 30
0.000000
  70
    32
  0
VERTEX
  8
0
  5
8C3
 10
995.762
 20
277.777
 30
0.000000
  70
    32
  0
VERTEX
  8
0
  5
8C4
 10
995.481
 20
278.466
 30
0.000000
  70
    32
  0
VERTEX
  8
0
  5
8C5
 10
995.196
 20
279.153
 30
0.000000
  70
    32
  0
VERTEX
  8
0
  5
8C6
 10
994.907
 20
279.839
 30
0.000000
  70
    32
  0
VERTEX
  8
0
  5
8C7
 10
994.614
 20
280.523
 30
0.000000
  70
    32
  0
VERTEX
  8
0
  5
8C8
 10
994.317
 20
281.206
 30
0.000000
  70
    32
  0
VERTEX
  8
0
  5
8C9
 10
994.016
 20
281.886
 30
0.000000
  70
    32
  0
VERTEX
  8
0
  5
8CA
 10
993.711
 20
282.565
 30
0.000000
  70
    32
  0
VERTEX
  8
0
  5
8CB
 10
993.402
 20
283.242
 30
0.000000
  70
    32
  0
VERTEX
  8
0
  5
8CC
 10
993.089
 20
283.918
 30
0.000000
  70
    32
  0
VERTEX
  8
0
  5
8CD
 10
992.773
 20
284.591
 30
0.000000
  70
    32
  0
VERTEX
  8
0
  5
8CE
 10
992.452
 20
285.263
 30
0.000000
  70
    32
  0
VERTEX
  8
0
  5
8CF
 10
992.127
 20
285.933
 30
0.000000
  70
    32
  0
VERTEX
  8
0
  5
8D0
 10
991.799
 20
286.601
 30
0.000000
  70
    32
  0
VERTEX
  8
0
  5
8D1
 10
991.467
 20
287.267
 30
0.000000
  70
    32
  0
VERTEX
  8
0
  5
8D2
 10
991.131
 20
287.931
 30
0.000000
  70
    32
  0
VERTEX
  8
0
  5
8D3
 10
990.791
 20
288.593
 30
0.000000
  70
    32
  0
VERTEX
  8
0
  5
8D4
 10
990.447
 20
289.253
 30
0.000000
  70
    32
  0
VERTEX
  8
0
  5
8D5
 10
990.099
 20
289.911
 30
0.000000
  70
    32
  0
VERTEX
  8
0
  5
8D6
 10
989.747
 20
290.567
 30
0.000000
  70
    32
  0
VERTEX
  8
0
  5
8D7
 10
989.392
 20
291.221
 30
0.000000
  70
    32
  0
VERTEX
  8
0
  5
8D8
 10
989.033
 20
291.873
 30
0.000000
  70
    32
  0
VERTEX
  8
0
  5
8D9
 10
988.670
 20
292.523
 30
0.000000
  70
    32
  0
VERTEX
  8
0
  5
8DA
 10
988.303
 20
293.170
 30
0.000000
  70
    32
  0
VERTEX
  8
0
  5
8DB
 10
987.933
 20
293.816
 30
0.000000
  70
    32
  0
VERTEX
  8
0
  5
8DC
 10
987.559
 20
294.459
 30
0.000000
  70
    32
  0
VERTEX
  8
0
  5
8DD
 10
987.181
 20
295.100
 30
0.000000
  70
    32
  0
VERTEX
  8
0
  5
8DE
 10
986.799
 20
295.739
 30
0.000000
  70
    32
  0
VERTEX
  8
0
  5
8DF
 10
986.414
 20
296.375
 30
0.000000
  70
    32
  0
VERTEX
  8
0
  5
8E0
 10
986.025
 20
297.009
 30
0.000000
  70
    32
  0
VERTEX
  8
0
  5
8E1
 10
985.632
 20
297.641
 30
0.000000
  70
    32
  0
VERTEX
  8
0
  5
8E2
 10
985.235
 20
298.270
 30
0.000000
  70
    32
  0
VERTEX
  8
0
  5
8E3
 10
984.835
 20
298.897
 30
0.000000
  70
    32
  0
VERTEX
  8
0
  5
8E4
 10
984.432
 20
299.522
 30
0.000000
  70
    32
  0
VERTEX
  8
0
  5
8E5
 10
984.024
 20
300.144
 30
0.000000
  70
    32
  0
VERTEX
  8
0
  5
8E6
 10
983.613
 20
300.764
 30
0.000000
  70
    32
  0
VERTEX
  8
0
  5
8E7
 10
983.199
 20
301.381
 30
0.000000
  70
    32
  0
VERTEX
  8
0
  5
8E8
 10
982.781
 20
301.996
 30
0.000000
  70
    32
  0
VERTEX
  8
0
  5
8E9
 10
982.359
 20
302.609
 30
0.000000
  70
    32
  0
VERTEX
  8
0
  5
8EA
 10
981.935
 20
303.219
 30
0.000000
  70
    32
  0
VERTEX
  8
0
  5
8EB
 10
981.506
 20
303.827
 30
0.000000
  70
    32
  0
VERTEX
  8
0
  5
8EC
 10
981.074
 20
304.432
 30
0.000000
  70
    32
  0
VERTEX
  8
0
  5
8ED
 10
980.639
 20
305.035
 30
0.000000
  70
    32
  0
VERTEX
  8
0
  5
8EE
 10
980.200
 20
305.636
 30
0.000000
  70
    32
  0
VERTEX
  8
0
  5
8EF
 10
979.758
 20
306.233
 30
0.000000
  70
    32
  0
VERTEX
  8
0
  5
8F0
 10
979.313
 20
306.829
 30
0.000000
  70
    32
  0
VERTEX
  8
0
  5
8F1
 10
978.864
 20
307.422
 30
0.000000
  70
    32
  0
VERTEX
  8
0
  5
8F2
 10
978.412
 20
308.012
 30
0.000000
  70
    32
  0
VERTEX
  8
0
  5
8F3
 10
977.957
 20
308.600
 30
0.000000
  70
    32
  0
VERTEX
  8
0
  5
8F4
 10
977.499
 20
309.185
 30
0.000000
  70
    32
  0
VERTEX
  8
0
  5
8F5
 10
977.037
 20
309.768
 30
0.000000
  70
    32
  0
VERTEX
  8
0
  5
8F6
 10
976.572
 20
310.348
 30
0.000000
  70
    32
  0
VERTEX
  8
0
  5
8F7
 10
976.104
 20
310.926
 30
0.000000
  70
    32
  0
VERTEX
  8
0
  5
8F8
 10
975.633
 20
311.501
 30
0.000000
  70
    32
  0
VERTEX
  8
0
  5
8F9
 10
975.158
 20
312.074
 30
0.000000
  70
    32
  0
VERTEX
  8
0
  5
8FA
 10
974.681
 20
312.643
 30
0.000000
  70
    32
  0
VERTEX
  8
0
  5
8FB
 10
974.200
 20
313.211
 30
0.000000
  70
    32
  0
VERTEX
  8
0
  5
8FC
 10
973.716
 20
313.776
 30
0.000000
  70
    32
  0
VERTEX
  8
0
  5
8FD
 10
973.230
 20
314.338
 30
0.000000
  70
    32
  0
VERTEX
  8
0
  5
8FE
 10
972.740
 20
314.897
 30
0.000000
  70
    32
  0
VERTEX
  8
0
  5
8FF
 10
972.247
 20
315.454
 30
0.000000
  70
    32
  0
VERTEX
  8
0
  5
900
 10
971.752
 20
316.008
 30
0.000000
  70
    32
  0
VERTEX
  8
0
  5
901
 10
971.253
 20
316.560
 30
0.000000
  70
    32
  0
VERTEX
  8
0
  5
902
 10
970.752
 20
317.109
 30
0.000000
  70
    32
  0
VERTEX
  8
0
  5
903
 10
970.247
 20
317.655
 30
0.000000
  70
    32
  0
VERTEX
  8
0
  5
904
 10
969.740
 20
318.198
 30
0.000000
  70
    32
  0
VERTEX
  8
0
  5
905
 10
969.230
 20
318.739
 30
0.000000
  70
    32
  0
VERTEX
  8
0
  5
906
 10
968.717
 20
319.277
 30
0.000000
  70
    32
  0
VERTEX
  8
0
  5
907
 10
968.201
 20
319.813
 30
0.000000
  70
    32
  0
VERTEX
  8
0
  5
908
 10
967.683
 20
320.345
 30
0.000000
  70
    32
  0
VERTEX
  8
0
  5
909
 10
967.162
 20
320.875
 30
0.000000
  70
    32
  0
VERTEX
  8
0
  5
90A
 10
966.638
 20
321.402
 30
0.000000
  70
    32
  0
VERTEX
  8
0
  5
90B
 10
966.111
 20
321.927
 30
0.000000
  70
    32
  0
VERTEX
  8
0
  5
90C
 10
965.582
 20
322.448
 30
0.000000
  70
    32
  0
VERTEX
  8
0
  5
90D
 10
965.050
 20
322.967
 30
0.000000
  70
    32
  0
VERTEX
  8
0
  5
90E
 10
964.515
 20
323.483
 30
0.000000
  70
    32
  0
VERTEX
  8
0
  5
90F
 10
963.978
 20
323.997
 30
0.000000
  70
    32
  0
VERTEX
  8
0
  5
910
 10
963.438
 20
324.507
 30
0.000000
  70
    32
  0
VERTEX
  8
0
  5
911
 10
962.895
 20
325.015
 30
0.000000
  70
    32
  0
VERTEX
  8
0
  5
912
 10
962.350
 20
325.520
 30
0.000000
  70
    32
  0
VERTEX
  8
0
  5
913
 10
961.803
 20
326.023
 30
0.000000
  70
    32
  0
VERTEX
  8
0
  5
914
 10
961.253
 20
326.522
 30
0.000000
  70
    32
  0
VERTEX
  8
0
  5
915
 10
960.700
 20
327.019
 30
0.000000
  70
    32
  0
VERTEX
  8
0
  5
916
 10
960.145
 20
327.513
 30
0.000000
  70
    32
  0
VERTEX
  8
0
  5
917
 10
959.588
 20
328.004
 30
0.000000
  70
    32
  0
VERTEX
  8
0
  5
918
 10
959.028
 20
328.493
 30
0.000000
  70
    32
  0
VERTEX
  8
0
  5
919
 10
958.466
 20
328.979
 30
0.000000
  70
    32
  0
VERTEX
  8
0
  5
91A
 10
957.901
 20
329.462
 30
0.000000
  70
    32
  0
VERTEX
  8
0
  5
91B
 10
957.334
 20
329.942
 30
0.000000
  70
    32
  0
VERTEX
  8
0
  5
91C
 10
956.765
 20
330.420
 30
0.000000
  70
    32
  0
VERTEX
  8
0
  5
91D
 10
956.194
 20
330.895
 30
0.000000
  70
    32
  0
VERTEX
  8
0
  5
91E
 10
955.620
 20
331.367
 30
0.000000
  70
    32
  0
VERTEX
  8
0
  5
91F
 10
955.044
 20
331.836
 30
0.000000
  70
    32
  0
VERTEX
  8
0
  5
920
 10
954.465
 20
332.303
 30
0.000000
  70
    32
  0
VERTEX
  8
0
  5
921
 10
953.885
 20
332.767
 30
0.000000
  70
    32
  0
VERTEX
  8
0
  5
922
 10
953.302
 20
333.228
 30
0.000000
  70
    32
  0
VERTEX
  8
0
  5
923
 10
952.717
 20
333.686
 30
0.000000
  70
    32
  0
VERTEX
  8
0
  5
924
 10
952.130
 20
334.142
 30
0.000000
  70
    32
  0
VERTEX
  8
0
  5
925
 10
951.541
 20
334.595
 30
0.000000
  70
    32
  0
VERTEX
  8
0
  5
926
 10
950.950
 20
335.045
 30
0.000000
  70
    32
  0
VERTEX
  8
0
  5
927
 10
950.356
 20
335.493
 30
0.000000
  70
    32
  0
VERTEX
  8
0
  5
928
 10
949.761
 20
335.937
 30
0.000000
  70
    32
  0
VERTEX
  8
0
  5
929
 10
949.164
 20
336.379
 30
0.000000
  70
    32
  0
VERTEX
  8
0
  5
92A
 10
948.564
 20
336.819
 30
0.000000
  70
    32
  0
VERTEX
  8
0
  5
92B
 10
947.963
 20
337.255
 30
0.000000
  70
    32
  0
VERTEX
  8
0
  5
92C
 10
947.360
 20
337.689
 30
0.000000
  70
    32
  0
VERTEX
  8
0
  5
92D
 10
946.754
 20
338.120
 30
0.000000
  70
    32
  0
VERTEX
  8
0
  5
92E
 10
946.147
 20
338.549
 30
0.000000
  70
    32
  0
VERTEX
  8
0
  5
92F
 10
945.538
 20
338.974
 30
0.000000
  70
    32
  0
VERTEX
  8
0
  5
930
 10
944.927
 20
339.397
 30
0.000000
  70
    32
  0
VERTEX
  8
0
  5
931
 10
944.314
 20
339.817
 30
0.000000
  70
    32
  0
VERTEX
  8
0
  5
932
 10
943.699
 20
340.235
 30
0.000000
  70
    32
  0
VERTEX
  8
0
  5
933
 10
943.083
 20
340.650
 30
0.000000
  70
    32
  0
VERTEX
  8
0
  5
934
 10
942.465
 20
341.062
 30
0.000000
  70
    32
  0
VERTEX
  8
0
  5
935
 10
941.845
 20
341.471
 30
0.000000
  70
    32
  0
VERTEX
  8
0
  5
936
 10
941.223
 20
341.878
 30
0.000000
  70
    32
  0
VERTEX
  8
0
  5
937
 10
940.599
 20
342.282
 30
0.000000
  70
    32
  0
VERTEX
  8
0
  5
938
 10
939.974
 20
342.683
 30
0.000000
  70
    32
  0
VERTEX
  8
0
  5
939
 10
939.347
 20
343.081
 30
0.000000
  70
    32
  0
VERTEX
  8
0
  5
93A
 10
938.719
 20
343.477
 30
0.000000
  70
    32
  0
VERTEX
  8
0
  5
93B
 10
938.088
 20
343.870
 30
0.000000
  70
    32
  0
VERTEX
  8
0
  5
93C
 10
937.457
 20
344.261
 30
0.000000
  70
    32
  0
VERTEX
  8
0
  5
93D
 10
936.823
 20
344.649
 30
0.000000
  70
    32
  0
VERTEX
  8
0
  5
93E
 10
936.188
 20
345.034
 30
0.000000
  70
    32
  0
VERTEX
  8
0
  5
93F
 10
935.551
 20
345.416
 30
0.000000
  70
    32
  0
VERTEX
  8
0
  5
940
 10
934.913
 20
345.796
 30
0.000000
  70
    32
  0
VERTEX
  8
0
  5
941
 10
934.273
 20
346.174
 30
0.000000
  70
    32
  0
VERTEX
  8
0
  5
942
 10
933.632
 20
346.548
 30
0.000000
  70
    32
  0
VERTEX
  8
0
  5
943
 10
932.989
 20
346.920
 30
0.000000
  70
    32
  0
VERTEX
  8
0
  5
944
 10
932.345
 20
347.289
 30
0.000000
  70
    32
  0
VERTEX
  8
0
  5
945
 10
931.699
 20
347.656
 30
0.000000
  70
    32
  0
VERTEX
  8
0
  5
946
 10
931.052
 20
348.020
 30
0.000000
  70
    32
  0
VERTEX
  8
0
  5
947
 10
930.403
 20
348.382
 30
0.000000
  70
    32
  0
VERTEX
  8
0
  5
948
 10
929.753
 20
348.741
 30
0.000000
  70
    32
  0
VERTEX
  8
0
  5
949
 10
929.101
 20
349.097
 30
0.000000
  70
    32
  0
VERTEX
  8
0
  5
94A
 10
928.448
 20
349.451
 30
0.000000
  70
    32
  0
VERTEX
  8
0
  5
94B
 10
927.793
 20
349.802
 30
0.000000
  70
    32
  0
VERTEX
  8
0
  5
94C
 10
927.138
 20
350.151
 30
0.000000
  70
    32
  0
VERTEX
  8
0
  5
94D
 10
926.480
 20
350.497
 30
0.000000
  70
    32
  0
VERTEX
  8
0
  5
94E
 10
925.822
 20
350.840
 30
0.000000
  70
    32
  0
VERTEX
  8
0
  5
94F
 10
925.162
 20
351.181
 30
0.000000
  70
    32
  0
VERTEX
  8
0
  5
950
 10
924.501
 20
351.519
 30
0.000000
  70
    32
  0
VERTEX
  8
0
  5
951
 10
923.838
 20
351.855
 30
0.000000
  70
    32
  0
VERTEX
  8
0
  5
952
 10
923.174
 20
352.189
 30
0.000000
  70
    32
  0
VERTEX
  8
0
  5
953
 10
922.509
 20
352.519
 30
0.000000
  70
    32
  0
VERTEX
  8
0
  5
954
 10
921.843
 20
352.848
 30
0.000000
  70
    32
  0
VERTEX
  8
0
  5
955
 10
921.176
 20
353.174
 30
0.000000
  70
    32
  0
VERTEX
  8
0
  5
956
 10
920.507
 20
353.497
 30
0.000000
  70
    32
  0
VERTEX
  8
0
  5
957
 10
919.837
 20
353.818
 30
0.000000
  70
    32
  0
VERTEX
  8
0
  5
958
 10
919.166
 20
354.136
 30
0.000000
  70
    32
  0
VERTEX
  8
0
  5
959
 10
918.494
 20
354.452
 30
0.000000
  70
    32
  0
VERTEX
  8
0
  5
95A
 10
917.820
 20
354.765
 30
0.000000
  70
    32
  0
VERTEX
  8
0
  5
95B
 10
917.146
 20
355.076
 30
0.000000
  70
    32
  0
VERTEX
  8
0
  5
95C
 10
916.470
 20
355.385
 30
0.000000
  70
    32
  0
VERTEX
  8
0
  5
95D
 10
915.793
 20
355.691
 30
0.000000
  70
    32
  0
VERTEX
  8
0
  5
95E
 10
915.115
 20
355.994
 30
0.000000
  70
    32
  0
VERTEX
  8
0
  5
95F
 10
914.436
 20
356.295
 30
0.000000
  70
    32
  0
VERTEX
  8
0
  5
960
 10
913.756
 20
356.594
 30
0.000000
  70
    32
  0
VERTEX
  8
0
  5
961
 10
913.075
 20
356.890
 30
0.000000
  70
    32
  0
VERTEX
  8
0
  5
962
 10
912.393
 20
357.184
 30
0.000000
  70
    32
  0
VERTEX
  8
0
  5
963
 10
911.710
 20
357.476
 30
0.000000
  70
    32
  0
VERTEX
  8
0
  5
964
 10
911.026
 20
357.765
 30
0.000000
  70
    32
  0
VERTEX
  8
0
  5
965
 10
910.341
 20
358.051
 30
0.000000
  70
    32
  0
VERTEX
  8
0
  5
966
 10
909.655
 20
358.336
 30
0.000000
  70
    32
  0
VERTEX
  8
0
  5
967
 10
908.968
 20
358.618
 30
0.000000
  70
    32
  0
VERTEX
  8
0
  5
968
 10
908.280
 20
358.897
 30
0.000000
  70
    32
  0
VERTEX
  8
0
  5
969
 10
907.591
 20
359.174
 30
0.000000
  70
    32
  0
VERTEX
  8
0
  5
96A
 10
906.901
 20
359.449
 30
0.000000
  70
    32
  0
VERTEX
  8
0
  5
96B
 10
906.211
 20
359.722
 30
0.000000
  70
    32
  0
VERTEX
  8
0
  5
96C
 10
905.519
 20
359.992
 30
0.000000
  70
    32
  0
VERTEX
  8
0
  5
96D
 10
904.827
 20
360.259
 30
0.000000
  70
    32
  0
VERTEX
  8
0
  5
96E
 10
904.133
 20
360.525
 30
0.000000
  70
    32
  0
VERTEX
  8
0
  5
96F
 10
903.439
 20
360.788
 30
0.000000
  70
    32
  0
VERTEX
  8
0
  5
970
 10
902.744
 20
361.049
 30
0.000000
  70
    32
  0
VERTEX
  8
0
  5
971
 10
902.048
 20
361.307
 30
0.000000
  70
    32
  0
VERTEX
  8
0
  5
972
 10
901.351
 20
361.563
 30
0.000000
  70
    32
  0
VERTEX
  8
0
  5
973
 10
900.653
 20
361.817
 30
0.000000
  70
    32
  0
VERTEX
  8
0
  5
974
 10
899.954
 20
362.069
 30
0.000000
  70
    32
  0
VERTEX
  8
0
  5
975
 10
899.255
 20
362.318
 30
0.000000
  70
    32
  0
VERTEX
  8
0
  5
976
 10
898.555
 20
362.565
 30
0.000000
  70
    32
  0
VERTEX
  8
0
  5
977
 10
897.854
 20
362.810
 30
0.000000
  70
    32
  0
VERTEX
  8
0
  5
978
 10
897.152
 20
363.053
 30
0.000000
  70
    32
  0
VERTEX
  8
0
  5
979
 10
896.450
 20
363.293
 30
0.000000
  70
    32
  0
VERTEX
  8
0
  5
97A
 10
895.746
 20
363.531
 30
0.000000
  70
    32
  0
VERTEX
  8
0
  5
97B
 10
895.042
 20
363.767
 30
0.000000
  70
    32
  0
VERTEX
  8
0
  5
97C
 10
894.337
 20
364.001
 30
0.000000
  70
    32
  0
VERTEX
  8
0
  5
97D
 10
893.632
 20
364.232
 30
0.000000
  70
    32
  0
VERTEX
  8
0
  5
97E
 10
892.925
 20
364.461
 30
0.000000
  70
    32
  0
VERTEX
  8
0
  5
97F
 10
892.219
 20
364.688
 30
0.000000
  70
    32
  0
VERTEX
  8
0
  5
980
 10
891.511
 20
364.913
 30
0.000000
  70
    32
  0
VERTEX
  8
0
  5
981
 10
890.802
 20
365.136
 30
0.000000
  70
    32
  0
VERTEX
  8
0
  5
982
 10
890.093
 20
365.356
 30
0.000000
  70
    32
  0
VERTEX
  8
0
  5
983
 10
889.384
 20
365.575
 30
0.000000
  70
    32
  0
VERTEX
  8
0
  5
984
 10
888.673
 20
365.791
 30
0.000000
  70
    32
  0
VERTEX
  8
0
  5
985
 10
887.962
 20
366.005
 30
0.000000
  70
    32
  0
VERTEX
  8
0
  5
986
 10
887.250
 20
366.217
 30
0.000000
  70
    32
  0
VERTEX
  8
0
  5
987
 10
886.538
 20
366.426
 30
0.000000
  70
    32
  0
VERTEX
  8
0
  5
988
 10
885.825
 20
366.634
 30
0.000000
  70
    32
  0
VERTEX
  8
0
  5
989
 10
885.112
 20
366.839
 30
0.000000
  70
    32
  0
VERTEX
  8
0
  5
98A
 10
884.397
 20
367.043
 30
0.000000
  70
    32
  0
VERTEX
  8
0
  5
98B
 10
883.683
 20
367.244
 30
0.000000
  70
    32
  0
VERTEX
  8
0
  5
98C
 10
882.967
 20
367.443
 30
0.000000
  70
    32
  0
VERTEX
  8
0
  5
98D
 10
882.252
 20
367.640
 30
0.000000
  70
    32
  0
VERTEX
  8
0
  5
98E
 10
881.535
 20
367.835
 30
0.000000
  70
    32
  0
VERTEX
  8
0
  5
98F
 10
880.818
 20
368.028
 30
0.000000
  70
    32
  0
VERTEX
  8
0
  5
990
 10
880.101
 20
368.218
 30
0.000000
  70
    32
  0
VERTEX
  8
0
  5
991
 10
879.382
 20
368.407
 30
0.000000
  70
    32
  0
VERTEX
  8
0
  5
992
 10
878.664
 20
368.594
 30
0.000000
  70
    32
  0
VERTEX
  8
0
  5
993
 10
877.945
 20
368.778
 30
0.000000
  70
    32
  0
VERTEX
  8
0
  5
994
 10
877.225
 20
368.961
 30
0.000000
  70
    32
  0
VERTEX
  8
0
  5
995
 10
876.505
 20
369.141
 30
0.000000
  70
    32
  0
VERTEX
  8
0
  5
996
 10
875.784
 20
369.320
 30
0.000000
  70
    32
  0
VERTEX
  8
0
  5
997
 10
875.063
 20
369.496
 30
0.000000
  70
    32
  0
VERTEX
  8
0
  5
998
 10
874.342
 20
369.671
 30
0.000000
  70
    32
  0
VERTEX
  8
0
  5
999
 10
873.620
 20
369.843
 30
0.000000
  70
    32
  0
VERTEX
  8
0
  5
99A
 10
872.897
 20
370.013
 30
0.000000
  70
    32
  0
VERTEX
  8
0
  5
99B
 10
872.174
 20
370.182
 30
0.000000
  70
    32
  0
VERTEX
  8
0
  5
99C
 10
871.451
 20
370.348
 30
0.000000
  70
    32
  0
VERTEX
  8
0
  5
99D
 10
870.727
 20
370.513
 30
0.000000
  70
    32
  0
VERTEX
  8
0
  5
99E
 10
870.003
 20
370.675
 30
0.000000
  70
    32
  0
VERTEX
  8
0
  5
99F
 10
869.278
 20
370.836
 30
0.000000
  70
    32
  0
VERTEX
  8
0
  5
9A0
 10
868.553
 20
370.994
 30
0.000000
  70
    32
  0
VERTEX
  8
0
  5
9A1
 10
867.827
 20
371.151
 30
0.000000
  70
    32
  0
VERTEX
  8
0
  5
9A2
 10
867.101
 20
371.305
 30
0.000000
  70
    32
  0
VERTEX
  8
0
  5
9A3
 10
866.375
 20
371.458
 30
0.000000
  70
    32
  0
VERTEX
  8
0
  5
9A4
 10
865.648
 20
371.609
 30
0.000000
  70
    32
  0
VERTEX
  8
0
  5
9A5
 10
864.921
 20
371.757
 30
0.000000
  70
    32
  0
VERTEX
  8
0
  5
9A6
 10
864.193
 20
371.904
 30
0.000000
  70
    32
  0
VERTEX
  8
0
  5
9A7
 10
863.465
 20
372.049
 30
0.000000
  70
    32
  0
VERTEX
  8
0
  5
9A8
 10
862.736
 20
372.192
 30
0.000000
  70
    32
  0
VERTEX
  8
0
  5
9A9
 10
862.008
 20
372.333
 30
0.000000
  70
    32
  0
VERTEX
  8
0
  5
9AA
 10
861.278
 20
372.472
 30
0.000000
  70
    32
  0
VERTEX
  8
0
  5
9AB
 10
860.549
 20
372.609
 30
0.000000
  70
    32
  0
VERTEX
  8
0
  5
9AC
 10
859.819
 20
372.745
 30
0.000000
  70
    32
  0
VERTEX
  8
0
  5
9AD
 10
859.089
 20
372.878
 30
0.000000
  70
    32
  0
VERTEX
  8
0
  5
9AE
 10
858.358
 20
373.010
 30
0.000000
  70
    32
  0
VERTEX
  8
0
  5
9AF
 10
857.627
 20
373.140
 30
0.000000
  70
    32
  0
VERTEX
  8
0
  5
9B0
 10
856.896
 20
373.268
 30
0.000000
  70
    32
  0
VERTEX
  8
0
  5
9B1
 10
856.164
 20
373.394
 30
0.000000
  70
    32
  0
VERTEX
  8
0
  5
9B2
 10
855.432
 20
373.518
 30
0.000000
  70
    32
  0
VERTEX
  8
0
  5
9B3
 10
854.700
 20
373.640
 30
0.000000
  70
    32
  0
VERTEX
  8
0
  5
9B4
 10
853.968
 20
373.761
 30
0.000000
  70
    32
  0
VERTEX
  8
0
  5
9B5
 10
853.235
 20
373.879
 30
0.000000
  70
    32
  0
VERTEX
  8
0
  5
9B6
 10
852.502
 20
373.996
 30
0.000000
  70
    32
  0
VERTEX
  8
0
  5
9B7
 10
851.768
 20
374.111
 30
0.000000
  70
    32
  0
VERTEX
  8
0
  5
9B8
 10
851.034
 20
374.224
 30
0.000000
  70
    32
  0
VERTEX
  8
0
  5
9B9
 10
850.300
 20
374.335
 30
0.000000
  70
    32
  0
VERTEX
  8
0
  5
9BA
 10
849.566
 20
374.445
 30
0.000000
  70
    32
  0
VERTEX
  8
0
  5
9BB
 10
848.831
 20
374.553
 30
0.000000
  70
    32
  0
VERTEX
  8
0
  5
9BC
 10
848.096
 20
374.659
 30
0.000000
  70
    32
  0
VERTEX
  8
0
  5
9BD
 10
847.361
 20
374.763
 30
0.000000
  70
    32
  0
VERTEX
  8
0
  5
9BE
 10
846.626
 20
374.865
 30
0.000000
  70
    32
  0
VERTEX
  8
0
  5
9BF
 10
845.890
 20
374.966
 30
0.000000
  70
    32
  0
VERTEX
  8
0
  5
9C0
 10
845.155
 20
375.065
 30
0.000000
  70
    32
  0
VERTEX
  8
0
  5
9C1
 10
844.418
 20
375.162
 30
0.000000
  70
    32
  0
VERTEX
  8
0
  5
9C2
 10
843.682
 20
375.257
 30
0.000000
  70
    32
  0
VERTEX
  8
0
  5
9C3
 10
842.946
 20
375.351
 30
0.000000
  70
    32
  0
VERTEX
  8
0
  5
9C4
 10
842.209
 20
375.443
 30
0.000000
  70
    32
  0
VERTEX
  8
0
  5
9C5
 10
841.472
 20
375.533
 30
0.000000
  70
    32
  0
VERTEX
  8
0
  5
9C6
 10
840.735
 20
375.621
 30
0.000000
  70
    32
  0
VERTEX
  8
0
  5
9C7
 10
839.997
 20
375.708
 30
0.000000
  70
    32
  0
VERTEX
  8
0
  5
9C8
 10
839.260
 20
375.793
 30
0.000000
  70
    32
  0
VERTEX
  8
0
  5
9C9
 10
838.522
 20
375.876
 30
0.000000
  70
    32
  0
VERTEX
  8
0
  5
9CA
 10
837.784
 20
375.958
 30
0.000000
  70
    32
  0
VERTEX
  8
0
  5
9CB
 10
837.046
 20
376.038
 30
0.000000
  70
    32
  0
VERTEX
  8
0
  5
9CC
 10
836.308
 20
376.116
 30
0.000000
  70
    32
  0
VERTEX
  8
0
  5
9CD
 10
835.569
 20
376.192
 30
0.000000
  70
    32
  0
VERTEX
  8
0
  5
9CE
 10
834.831
 20
376.267
 30
0.000000
  70
    32
  0
VERTEX
  8
0
  5
9CF
 10
834.092
 20
376.340
 30
0.000000
  70
    32
  0
VERTEX
  8
0
  5
9D0
 10
833.353
 20
376.411
 30
0.000000
  70
    32
  0
VERTEX
  8
0
  5
9D1
 10
832.614
 20
376.481
 30
0.000000
  70
    32
  0
VERTEX
  8
0
  5
9D2
 10
831.874
 20
376.549
 30
0.000000
  70
    32
  0
VERTEX
  8
0
  5
9D3
 10
831.135
 20
376.616
 30
0.000000
  70
    32
  0
VERTEX
  8
0
  5
9D4
 10
830.395
 20
376.680
 30
0.000000
  70
    32
  0
VERTEX
  8
0
  5
9D5
 10
829.655
 20
376.743
 30
0.000000
  70
    32
  0
VERTEX
  8
0
  5
9D6
 10
828.916
 20
376.805
 30
0.000000
  70
    32
  0
VERTEX
  8
0
  5
9D7
 10
828.176
 20
376.865
 30
0.000000
  70
    32
  0
VERTEX
  8
0
  5
9D8
 10
827.436
 20
376.923
 30
0.000000
  70
    32
  0
VERTEX
  8
0
  5
9D9
 10
826.695
 20
376.979
 30
0.000000
  70
    32
  0
VERTEX
  8
0
  5
9DA
 10
825.955
 20
377.034
 30
0.000000
  70
    32
  0
VERTEX
  8
0
  5
9DB
 10
825.214
 20
377.087
 30
0.000000
  70
    32
  0
VERTEX
  8
0
  5
9DC
 10
824.474
 20
377.139
 30
0.000000
  70
    32
  0
VERTEX
  8
0
  5
9DD
 10
823.733
 20
377.189
 30
0.000000
  70
    32
  0
VERTEX
  8
0
  5
9DE
 10
822.992
 20
377.237
 30
0.000000
  70
    32
  0
VERTEX
  8
0
  5
9DF
 10
822.251
 20
377.284
 30
0.000000
  70
    32
  0
VERTEX
  8
0
  5
9E0
 10
821.510
 20
377.329
 30
0.000000
  70
    32
  0
VERTEX
  8
0
  5
9E1
 10
820.769
 20
377.373
 30
0.000000
  70
    32
  0
VERTEX
  8
0
  5
9E2
 10
820.028
 20
377.415
 30
0.000000
  70
    32
  0
VERTEX
  8
0
  5
9E3
 10
819.287
 20
377.455
 30
0.000000
  70
    32
  0
VERTEX
  8
0
  5
9E4
 10
818.546
 20
377.494
 30
0.000000
  70
    32
  0
VERTEX
  8
0
  5
9E5
 10
817.804
 20
377.531
 30
0.000000
  70
    32
  0
VERTEX
  8
0
  5
9E6
 10
817.063
 20
377.567
 30
0.000000
  70
    32
  0
VERTEX
  8
0
  5
9E7
 10
816.321
 20
377.601
 30
0.000000
  70
    32
  0
VERTEX
  8
0
  5
9E8
 10
815.580
 20
377.633
 30
0.000000
  70
    32
  0
VERTEX
  8
0
  5
9E9
 10
814.838
 20
377.664
 30
0.000000
  70
    32
  0
VERTEX
  8
0
  5
9EA
 10
814.096
 20
377.694
 30
0.000000
  70
    32
  0
VERTEX
  8
0
  5
9EB
 10
813.354
 20
377.721
 30
0.000000
  70
    32
  0
VERTEX
  8
0
  5
9EC
 10
812.613
 20
377.748
 30
0.000000
  70
    32
  0
VERTEX
  8
0
  5
9ED
 10
811.871
 20
377.772
 30
0.000000
  70
    32
  0
VERTEX
  8
0
  5
9EE
 10
811.129
 20
377.796
 30
0.000000
  70
    32
  0
VERTEX
  8
0
  5
9EF
 10
810.387
 20
377.817
 30
0.000000
  70
    32
  0
VERTEX
  8
0
  5
9F0
 10
809.645
 20
377.837
 30
0.000000
  70
    32
  0
VERTEX
  8
0
  5
9F1
 10
808.903
 20
377.856
 30
0.000000
  70
    32
  0
VERTEX
  8
0
  5
9F2
 10
808.161
 20
377.873
 30
0.000000
  70
    32
  0
VERTEX
  8
0
  5
9F3
 10
807.419
 20
377.889
 30
0.000000
  70
    32
  0
VERTEX
  8
0
  5
9F4
 10
806.677
 20
377.903
 30
0.000000
  70
    32
  0
VERTEX
  8
0
  5
9F5
 10
805.935
 20
377.915
 30
0.000000
  70
    32
  0
VERTEX
  8
0
  5
9F6
 10
805.193
 20
377.927
 30
0.000000
  70
    32
  0
VERTEX
  8
0
  5
9F7
 10
804.451
 20
377.936
 30
0.000000
  70
    32
  0
VERTEX
  8
0
  5
9F8
 10
803.710
 20
377.944
 30
0.000000
  70
    32
  0
VERTEX
  8
0
  5
9F9
 10
802.968
 20
377.951
 30
0.000000
  70
    32
  0
VERTEX
  8
0
  5
9FA
 10
802.226
 20
377.956
 30
0.000000
  70
    32
  0
VERTEX
  8
0
  5
9FB
 10
801.484
 20
377.960
 30
0.000000
  70
    32
  0
VERTEX
  8
0
  5
9FC
 10
800.742
 20
377.962
 30
0.000000
  70
    32
  0
VERTEX
  8
0
  5
9FD
 10
800.000
 20
377.963
 30
0.000000
  70
    32
  0
SEQEND
  8
0
  5
9FE
  0
POLYLINE
  8
0
  5
9FF
  66
     1
 10
0.000000
 20
0.000000
 30
0.000000
  70
     8
  0
VERTEX
  8
0
  5
A00
 10
800.000
 20
377.963
 30
0.000000
  70
    32
  0
VERTEX
  8
0
  5
A01
 10
799.258
 20
377.962
 30
0.000000
  70
    32
  0
VERTEX
  8
0
  5
A02
 10
798.516
 20
377.960
 30
0.000000
  70
    32
  0
VERTEX
  8
0
  5
A03
 10
797.774
 20
377.956
 30
0.000000
  70
    32
  0
VERTEX
  8
0
  5
A04
 10
797.032
 20
377.951
 30
0.000000
  70
    32
  0
VERTEX
  8
0
  5
A05
 10
796.291
 20
377.944
 30
0.000000
  70
    32
  0
VERTEX
  8
0
  5
A06
 10
795.549
 20
377.936
 30
0.000000
  70
    32
  0
VERTEX
  8
0
  5
A07
 10
794.807
 20
377.927
 30
0.000000
  70
    32
  0
VERTEX
  8
0
  5
A08
 10
794.065
 20
377.915
 30
0.000000
  70
    32
  0
VERTEX
  8
0
  5
A09
 10
793.323
 20
377.903
 30
0.000000
  70
    32
  0
VERTEX
  8
0
  5
A0A
 10
792.581
 20
377.889
 30
0.000000
  70
    32
  0
VERTEX
  8
0
  5
A0B
 10
791.839
 20
377.873
 30
0.000000
  70
    32
  0
VERTEX
  8
0
  5
A0C
 10
791.097
 20
377.856
 30
0.000000
  70
    32
  0
VERTEX
  8
0
  5
A0D
 10
790.355
 20
377.837
 30
0.000000
  70
    32
  0
VERTEX
  8
0
  5
A0E
 10
789.613
 20
377.817
 30
0.000000
  70
    32
  0
VERTEX
  8
0
  5
A0F
 10
788.871
 20
377.796
 30
0.000000
  70
    32
  0
VERTEX
  8
0
  5
A10
 10
788.129
 20
377.772
 30
0.000000
  70
    32
  0
VERTEX
  8
0
  5
A11
 10
787.387
 20
377.748
 30
0.000000
  70
    32
  0
VERTEX
  8
0
  5
A12
 10
786.646
 20
377.721
 30
0.000000
  70
    32
  0
VERTEX
  8
0
  5
A13
 10
785.904
 20
377.694
 30
0.000000
  70
    32
  0
VERTEX
  8
0
  5
A14
 10
785.162
 20
377.664
 30
0.000000
  70
    32
  0
VERTEX
  8
0
  5
A15
 10
784.420
 20
377.633
 30
0.000000
  70
    32
  0
VERTEX
  8
0
  5
A16
 10
783.679
 20
377.601
 30
0.000000
  70
    32
  0
VERTEX
  8
0
  5
A17
 10
782.937
 20
377.567
 30
0.000000
  70
    32
  0
VERTEX
  8
0
  5
A18
 10
782.196
 20
377.531
 30
0.000000
  70
    32
  0
VERTEX
  8
0
  5
A19
 10
781.454
 20
377.494
 30
0.000000
  70
    32
  0
VERTEX
  8
0
  5
A1A
 10
780.713
 20
377.455
 30
0.000000
  70
    32
  0
VERTEX
  8
0
  5
A1B
 10
779.972
 20
377.415
 30
0.000000
  70
    32
  0
VERTEX
  8
0
  5
A1C
 10
779.231
 20
377.373
 30
0.000000
  70
    32
  0
VERTEX
  8
0
  5
A1D
 10
778.490
 20
377.329
 30
0.000000
  70
    32
  0
VERTEX
  8
0
  5
A1E
 10
777.749
 20
377.284
 30
0.000000
  70
    32
  0
VERTEX
  8
0
  5
A1F
 10
777.008
 20
377.237
 30
0.000000
  70
    32
  0
VERTEX
  8
0
  5
A20
 10
776.267
 20
377.189
 30
0.000000
  70
    32
  0
VERTEX
  8
0
  5
A21
 10
775.526
 20
377.139
 30
0.000000
  70
    32
  0
VERTEX
  8
0
  5
A22
 10
774.786
 20
377.087
 30
0.000000
  70
    32
  0
VERTEX
  8
0
  5
A23
 10
774.045
 20
377.034
 30
0.000000
  70
    32
  0
VERTEX
  8
0
  5
A24
 10
773.305
 20
376.979
 30
0.000000
  70
    32
  0
VERTEX
  8
0
  5
A25
 10
772.565
 20
376.923
 30
0.000000
  70
    32
  0
VERTEX
  8
0
  5
A26
 10
771.824
 20
376.865
 30
0.000000
  70
    32
  0
VERTEX
  8
0
  5
A27
 10
771.084
 20
376.805
 30
0.000000
  70
    32
  0
VERTEX
  8
0
  5
A28
 10
770.345
 20
376.743
 30
0.000000
  70
    32
  0
VERTEX
  8
0
  5
A29
 10
769.605
 20
376.680
 30
0.000000
  70
    32
  0
VERTEX
  8
0
  5
A2A
 10
768.865
 20
376.616
 30
0.000000
  70
    32
  0
VERTEX
  8
0
  5
A2B
 10
768.126
 20
376.549
 30
0.000000
  70
    32
  0
VERTEX
  8
0
  5
A2C
 10
767.386
 20
376.481
 30
0.000000
  70
    32
  0
VERTEX
  8
0
  5
A2D
 10
766.647
 20
376.411
 30
0.000000
  70
    32
  0
VERTEX
  8
0
  5
A2E
 10
765.908
 20
376.340
 30
0.000000
  70
    32
  0
VERTEX
  8
0
  5
A2F
 10
765.169
 20
376.267
 30
0.000000
  70
    32
  0
VERTEX
  8
0
  5
A30
 10
764.431
 20
376.192
 30
0.000000
  70
    32
  0
VERTEX
  8
0
  5
A31
 10
763.692
 20
376.116
 30
0.000000
  70
    32
  0
VERTEX
  8
0
  5
A32
 10
762.954
 20
376.038
 30
0.000000
  70
    32
  0
VERTEX
  8
0
  5
A33
 10
762.216
 20
375.958
 30
0.000000
  70
    32
  0
VERTEX
  8
0
  5
A34
 10
761.478
 20
375.876
 30
0.000000
  70
    32
  0
VERTEX
  8
0
  5
A35
 10
760.740
 20
375.793
 30
0.000000
  70
    32
  0
VERTEX
  8
0
  5
A36
 10
760.003
 20
375.708
 30
0.000000
  70
    32
  0
VERTEX
  8
0
  5
A37
 10
759.265
 20
375.621
 30
0.000000
  70
    32
  0
VERTEX
  8
0
  5
A38
 10
758.528
 20
375.533
 30
0.000000
  70
    32
  0
VERTEX
  8
0
  5
A39
 10
757.791
 20
375.443
 30
0.000000
  70
    32
  0
VERTEX
  8
0
  5
A3A
 10
757.054
 20
375.351
 30
0.000000
  70
    32
  0
VERTEX
  8
0
  5
A3B
 10
756.318
 20
375.257
 30
0.000000
  70
    32
  0
VERTEX
  8
0
  5
A3C
 10
755.582
 20
375.162
 30
0.000000
  70
    32
  0
VERTEX
  8
0
  5
A3D
 10
754.845
 20
375.065
 30
0.000000
  70
    32
  0
VERTEX
  8
0
  5
A3E
 10
754.110
 20
374.966
 30
0.000000
  70
    32
  0
VERTEX
  8
0
  5
A3F
 10
753.374
 20
374.865
 30
0.000000
  70
    32
  0
VERTEX
  8
0
  5
A40
 10
752.639
 20
374.763
 30
0.000000
  70
    32
  0
VERTEX
  8
0
  5
A41
 10
751.904
 20
374.659
 30
0.000000
  70
    32
  0
VERTEX
  8
0
  5
A42
 10
751.169
 20
374.553
 30
0.000000
  70
    32
  0
VERTEX
  8
0
  5
A43
 10
750.434
 20
374.445
 30
0.000000
  70
    32
  0
VERTEX
  8
0
  5
A44
 10
749.700
 20
374.335
 30
0.000000
  70
    32
  0
VERTEX
  8
0
  5
A45
 10
748.966
 20
374.224
 30
0.000000
  70
    32
  0
VERTEX
  8
0
  5
A46
 10
748.232
 20
374.111
 30
0.000000
  70
    32
  0
VERTEX
  8
0
  5
A47
 10
747.499
 20
373.996
 30
0.000000
  70
    32
  0
VERTEX
  8
0
  5
A48
 10
746.765
 20
373.879
 30
0.000000
  70
    32
  0
VERTEX
  8
0
  5
A49
 10
746.032
 20
373.761
 30
0.000000
  70
    32
  0
VERTEX
  8
0
  5
A4A
 10
745.300
 20
373.640
 30
0.000000
  70
    32
  0
VERTEX
  8
0
  5
A4B
 10
744.568
 20
373.518
 30
0.000000
  70
    32
  0
VERTEX
  8
0
  5
A4C
 10
743.836
 20
373.394
 30
0.000000
  70
    32
  0
VERTEX
  8
0
  5
A4D
 10
743.104
 20
373.268
 30
0.000000
  70
    32
  0
VERTEX
  8
0
  5
A4E
 10
742.373
 20
373.140
 30
0.000000
  70
    32
  0
VERTEX
  8
0
  5
A4F
 10
741.642
 20
373.010
 30
0.000000
  70
    32
  0
VERTEX
  8
0
  5
A50
 10
740.911
 20
372.878
 30
0.000000
  70
    32
  0
VERTEX
  8
0
  5
A51
 10
740.181
 20
372.745
 30
0.000000
  70
    32
  0
VERTEX
  8
0
  5
A52
 10
739.451
 20
372.609
 30
0.000000
  70
    32
  0
VERTEX
  8
0
  5
A53
 10
738.722
 20
372.472
 30
0.000000
  70
    32
  0
VERTEX
  8
0
  5
A54
 10
737.992
 20
372.333
 30
0.000000
  70
    32
  0
VERTEX
  8
0
  5
A55
 10
737.264
 20
372.192
 30
0.000000
  70
    32
  0
VERTEX
  8
0
  5
A56
 10
736.535
 20
372.049
 30
0.000000
  70
    32
  0
VERTEX
  8
0
  5
A57
 10
735.807
 20
371.904
 30
0.000000
  70
    32
  0
VERTEX
  8
0
  5
A58
 10
735.079
 20
371.757
 30
0.000000
  70
    32
  0
VERTEX
  8
0
  5
A59
 10
734.352
 20
371.609
 30
0.000000
  70
    32
  0
VERTEX
  8
0
  5
A5A
 10
733.625
 20
371.458
 30
0.000000
  70
    32
  0
VERTEX
  8
0
  5
A5B
 10
732.899
 20
371.305
 30
0.000000
  70
    32
  0
VERTEX
  8
0
  5
A5C
 10
732.173
 20
371.151
 30
0.000000
  70
    32
  0
VERTEX
  8
0
  5
A5D
 10
731.447
 20
370.994
 30
0.000000
  70
    32
  0
VERTEX
  8
0
  5
A5E
 10
730.722
 20
370.836
 30
0.000000
  70
    32
  0
VERTEX
  8
0
  5
A5F
 10
729.997
 20
370.675
 30
0.000000
  70
    32
  0
VERTEX
  8
0
  5
A60
 10
729.273
 20
370.513
 30
0.000000
  70
    32
  0
VERTEX
  8
0
  5
A61
 10
728.549
 20
370.348
 30
0.000000
  70
    32
  0
VERTEX
  8
0
  5
A62
 10
727.826
 20
370.182
 30
0.000000
  70
    32
  0
VERTEX
  8
0
  5
A63
 10
727.103
 20
370.013
 30
0.000000
  70
    32
  0
VERTEX
  8
0
  5
A64
 10
726.380
 20
369.843
 30
0.000000
  70
    32
  0
VERTEX
  8
0
  5
A65
 10
725.658
 20
369.671
 30
0.000000
  70
    32
  0
VERTEX
  8
0
  5
A66
 10
724.937
 20
369.496
 30
0.000000
  70
    32
  0
VERTEX
  8
0
  5
A67
 10
724.216
 20
369.320
 30
0.000000
  70
    32
  0
VERTEX
  8
0
  5
A68
 10
723.495
 20
369.141
 30
0.000000
  70
    32
  0
VERTEX
  8
0
  5
A69
 10
722.775
 20
368.961
 30
0.000000
  70
    32
  0
VERTEX
  8
0
  5
A6A
 10
722.055
 20
368.778
 30
0.000000
  70
    32
  0
VERTEX
  8
0
  5
A6B
 10
721.336
 20
368.594
 30
0.000000
  70
    32
  0
VERTEX
  8
0
  5
A6C
 10
720.618
 20
368.407
 30
0.000000
  70
    32
  0
VERTEX
  8
0
  5
A6D
 10
719.900
 20
368.218
 30
0.000000
  70
    32
  0
VERTEX
  8
0
  5
A6E
 10
719.182
 20
368.028
 30
0.000000
  70
    32
  0
VERTEX
  8
0
  5
A6F
 10
718.465
 20
367.835
 30
0.000000
  70
    32
  0
VERTEX
  8
0
  5
A70
 10
717.749
 20
367.640
 30
0.000000
  70
    32
  0
VERTEX
  8
0
  5
A71
 10
717.033
 20
367.443
 30
0.000000
  70
    32
  0
VERTEX
  8
0
  5
A72
 10
716.317
 20
367.244
 30
0.000000
  70
    32
  0
VERTEX
  8
0
  5
A73
 10
715.603
 20
367.043
 30
0.000000
  70
    32
  0
VERTEX
  8
0
  5
A74
 10
714.888
 20
366.839
 30
0.000000
  70
    32
  0
VERTEX
  8
0
  5
A75
 10
714.175
 20
366.634
 30
0.000000
  70
    32
  0
VERTEX
  8
0
  5
A76
 10
713.462
 20
366.426
 30
0.000000
  70
    32
  0
VERTEX
  8
0
  5
A77
 10
712.750
 20
366.217
 30
0.000000
  70
    32
  0
VERTEX
  8
0
  5
A78
 10
712.038
 20
366.005
 30
0.000000
  70
    32
  0
VERTEX
  8
0
  5
A79
 10
711.327
 20
365.791
 30
0.000000
  70
    32
  0
VERTEX
  8
0
  5
A7A
 10
710.616
 20
365.575
 30
0.000000
  70
    32
  0
VERTEX
  8
0
  5
A7B
 10
709.907
 20
365.356
 30
0.000000
  70
    32
  0
VERTEX
  8
0
  5
A7C
 10
709.198
 20
365.136
 30
0.000000
  70
    32
  0
VERTEX
  8
0
  5
A7D
 10
708.489
 20
364.913
 30
0.000000
  70
    32
  0
VERTEX
  8
0
  5
A7E
 10
707.782
 20
364.688
 30
0.000000
  70
    32
  0
VERTEX
  8
0
  5
A7F
 10
707.075
 20
364.461
 30
0.000000
  70
    32
  0
VERTEX
  8
0
  5
A80
 10
706.368
 20
364.232
 30
0.000000
  70
    32
  0
VERTEX
  8
0
  5
A81
 10
705.663
 20
364.001
 30
0.000000
  70
    32
  0
VERTEX
  8
0
  5
A82
 10
704.958
 20
363.767
 30
0.000000
  70
    32
  0
VERTEX
  8
0
  5
A83
 10
704.254
 20
363.531
 30
0.000000
  70
    32
  0
VERTEX
  8
0
  5
A84
 10
703.551
 20
363.293
 30
0.000000
  70
    32
  0
VERTEX
  8
0
  5
A85
 10
702.848
 20
363.053
 30
0.000000
  70
    32
  0
VERTEX
  8
0
  5
A86
 10
702.146
 20
362.810
 30
0.000000
  70
    32
  0
VERTEX
  8
0
  5
A87
 10
701.445
 20
362.565
 30
0.000000
  70
    32
  0
VERTEX
  8
0
  5
A88
 10
700.745
 20
362.318
 30
0.000000
  70
    32
  0
VERTEX
  8
0
  5
A89
 10
700.046
 20
362.069
 30
0.000000
  70
    32
  0
VERTEX
  8
0
  5
A8A
 10
699.347
 20
361.817
 30
0.000000
  70
    32
  0
VERTEX
  8
0
  5
A8B
 10
698.649
 20
361.563
 30
0.000000
  70
    32
  0
VERTEX
  8
0
  5
A8C
 10
697.952
 20
361.307
 30
0.000000
  70
    32
  0
VERTEX
  8
0
  5
A8D
 10
697.256
 20
361.049
 30
0.000000
  70
    32
  0
VERTEX
  8
0
  5
A8E
 10
696.561
 20
360.788
 30
0.000000
  70
    32
  0
VERTEX
  8
0
  5
A8F
 10
695.867
 20
360.525
 30
0.000000
  70
    32
  0
VERTEX
  8
0
  5
A90
 10
695.173
 20
360.259
 30
0.000000
  70
    32
  0
VERTEX
  8
0
  5
A91
 10
694.481
 20
359.992
 30
0.000000
  70
    32
  0
VERTEX
  8
0
  5
A92
 10
693.789
 20
359.722
 30
0.000000
  70
    32
  0
VERTEX
  8
0
  5
A93
 10
693.099
 20
359.449
 30
0.000000
  70
    32
  0
VERTEX
  8
0
  5
A94
 10
692.409
 20
359.174
 30
0.000000
  70
    32
  0
VERTEX
  8
0
  5
A95
 10
691.720
 20
358.897
 30
0.000000
  70
    32
  0
VERTEX
  8
0
  5
A96
 10
691.032
 20
358.618
 30
0.000000
  70
    32
  0
VERTEX
  8
0
  5
A97
 10
690.345
 20
358.336
 30
0.000000
  70
    32
  0
VERTEX
  8
0
  5
A98
 10
689.659
 20
358.051
 30
0.000000
  70
    32
  0
VERTEX
  8
0
  5
A99
 10
688.974
 20
357.765
 30
0.000000
  70
    32
  0
VERTEX
  8
0
  5
A9A
 10
688.290
 20
357.476
 30
0.000000
  70
    32
  0
VERTEX
  8
0
  5
A9B
 10
687.607
 20
357.184
 30
0.000000
  70
    32
  0
VERTEX
  8
0
  5
A9C
 10
686.925
 20
356.890
 30
0.000000
  70
    32
  0
VERTEX
  8
0
  5
A9D
 10
686.244
 20
356.594
 30
0.000000
  70
    32
  0
VERTEX
  8
0
  5
A9E
 10
685.564
 20
356.295
 30
0.000000
  70
    32
  0
VERTEX
  8
0
  5
A9F
 10
684.885
 20
355.994
 30
0.000000
  70
    32
  0
VERTEX
  8
0
  5
AA0
 10
684.207
 20
355.691
 30
0.000000
  70
    32
  0
VERTEX
  8
0
  5
AA1
 10
683.530
 20
355.385
 30
0.000000
  70
    32
  0
VERTEX
  8
0
  5
AA2
 10
682.854
 20
355.076
 30
0.000000
  70
    32
  0
VERTEX
  8
0
  5
AA3
 10
682.180
 20
354.765
 30
0.000000
  70
    32
  0
VERTEX
  8
0
  5
AA4
 10
681.506
 20
354.452
 30
0.000000
  70
    32
  0
VERTEX
  8
0
  5
AA5
 10
680.834
 20
354.136
 30
0.000000
  70
    32
  0
VERTEX
  8
0
  5
AA6
 10
680.163
 20
353.818
 30
0.000000
  70
    32
  0
VERTEX
  8
0
  5
AA7
 10
679.493
 20
353.497
 30
0.000000
  70
    32
  0
VERTEX
  8
0
  5
AA8
 10
678.824
 20
353.174
 30
0.000000
  70
    32
  0
VERTEX
  8
0
  5
AA9
 10
678.157
 20
352.848
 30
0.000000
  70
    32
  0
VERTEX
  8
0
  5
AAA
 10
677.491
 20
352.519
 30
0.000000
  70
    32
  0
VERTEX
  8
0
  5
AAB
 10
676.826
 20
352.189
 30
0.000000
  70
    32
  0
VERTEX
  8
0
  5
AAC
 10
676.162
 20
351.855
 30
0.000000
  70
    32
  0
VERTEX
  8
0
  5
AAD
 10
675.499
 20
351.519
 30
0.000000
  70
    32
  0
VERTEX
  8
0
  5
AAE
 10
674.838
 20
351.181
 30
0.000000
  70
    32
  0
VERTEX
  8
0
  5
AAF
 10
674.178
 20
350.840
 30
0.000000
  70
    32
  0
VERTEX
  8
0
  5
AB0
 10
673.520
 20
350.497
 30
0.000000
  70
    32
  0
VERTEX
  8
0
  5
AB1
 10
672.862
 20
350.151
 30
0.000000
  70
    32
  0
VERTEX
  8
0
  5
AB2
 10
672.207
 20
349.802
 30
0.000000
  70
    32
  0
VERTEX
  8
0
  5
AB3
 10
671.552
 20
349.451
 30
0.000000
  70
    32
  0
VERTEX
  8
0
  5
AB4
 10
670.899
 20
349.097
 30
0.000000
  70
    32
  0
VERTEX
  8
0
  5
AB5
 10
670.247
 20
348.741
 30
0.000000
  70
    32
  0
VERTEX
  8
0
  5
AB6
 10
669.597
 20
348.382
 30
0.000000
  70
    32
  0
VERTEX
  8
0
  5
AB7
 10
668.948
 20
348.020
 30
0.000000
  70
    32
  0
VERTEX
  8
0
  5
AB8
 10
668.301
 20
347.656
 30
0.000000
  70
    32
  0
VERTEX
  8
0
  5
AB9
 10
667.655
 20
347.289
 30
0.000000
  70
    32
  0
VERTEX
  8
0
  5
ABA
 10
667.011
 20
346.920
 30
0.000000
  70
    32
  0
VERTEX
  8
0
  5
ABB
 10
666.368
 20
346.548
 30
0.000000
  70
    32
  0
VERTEX
  8
0
  5
ABC
 10
665.727
 20
346.174
 30
0.000000
  70
    32
  0
VERTEX
  8
0
  5
ABD
 10
665.087
 20
345.796
 30
0.000000
  70
    32
  0
VERTEX
  8
0
  5
ABE
 10
664.449
 20
345.416
 30
0.000000
  70
    32
  0
VERTEX
  8
0
  5
ABF
 10
663.812
 20
345.034
 30
0.000000
  70
    32
  0
VERTEX
  8
0
  5
AC0
 10
663.177
 20
344.649
 30
0.000000
  70
    32
  0
VERTEX
  8
0
  5
AC1
 10
662.543
 20
344.261
 30
0.000000
  70
    32
  0
VERTEX
  8
0
  5
AC2
 10
661.912
 20
343.870
 30
0.000000
  70
    32
  0
VERTEX
  8
0
  5
AC3
 10
661.281
 20
343.477
 30
0.000000
  70
    32
  0
VERTEX
  8
0
  5
AC4
 10
660.653
 20
343.081
 30
0.000000
  70
    32
  0
VERTEX
  8
0
  5
AC5
 10
660.026
 20
342.683
 30
0.000000
  70
    32
  0
VERTEX
  8
0
  5
AC6
 10
659.401
 20
342.282
 30
0.000000
  70
    32
  0
VERTEX
  8
0
  5
AC7
 10
658.777
 20
341.878
 30
0.000000
  70
    32
  0
VERTEX
  8
0
  5
AC8
 10
658.155
 20
341.471
 30
0.000000
  70
    32
  0
VERTEX
  8
0
  5
AC9
 10
657.535
 20
341.062
 30
0.000000
  70
    32
  0
VERTEX
  8
0
  5
ACA
 10
656.917
 20
340.650
 30
0.000000
  70
    32
  0
VERTEX
  8
0
  5
ACB
 10
656.301
 20
340.235
 30
0.000000
  70
    32
  0
VERTEX
  8
0
  5
ACC
 10
655.686
 20
339.817
 30
0.000000
  70
    32
  0
VERTEX
  8
0
  5
ACD
 10
655.073
 20
339.397
 30
0.000000
  70
    32
  0
VERTEX
  8
0
  5
ACE
 10
654.462
 20
338.974
 30
0.000000
  70
    32
  0
VERTEX
  8
0
  5
ACF
 10
653.853
 20
338.549
 30
0.000000
  70
    32
  0
VERTEX
  8
0
  5
AD0
 10
653.246
 20
338.120
 30
0.000000
  70
    32
  0
VERTEX
  8
0
  5
AD1
 10
652.640
 20
337.689
 30
0.000000
  70
    32
  0
VERTEX
  8
0
  5
AD2
 10
652.037
 20
337.255
 30
0.000000
  70
    32
  0
VERTEX
  8
0
  5
AD3
 10
651.436
 20
336.819
 30
0.000000
  70
    32
  0
VERTEX
  8
0
  5
AD4
 10
650.836
 20
336.379
 30
0.000000
  70
    32
  0
VERTEX
  8
0
  5
AD5
 10
650.239
 20
335.937
 30
0.000000
  70
    32
  0
VERTEX
  8
0
  5
AD6
 10
649.644
 20
335.493
 30
0.000000
  70
    32
  0
VERTEX
  8
0
  5
AD7
 10
649.050
 20
335.045
 30
0.000000
  70
    32
  0
VERTEX
  8
0
  5
AD8
 10
648.459
 20
334.595
 30
0.000000
  70
    32
  0
VERTEX
  8
0
  5
AD9
 10
647.870
 20
334.142
 30
0.000000
  70
    32
  0
VERTEX
  8
0
  5
ADA
 10
647.283
 20
333.686
 30
0.000000
  70
    32
  0
VERTEX
  8
0
  5
ADB
 10
646.698
 20
333.228
 30
0.000000
  70
    32
  0
VERTEX
  8
0
  5
ADC
 10
646.115
 20
332.767
 30
0.000000
  70
    32
  0
VERTEX
  8
0
  5
ADD
 10
645.535
 20
332.303
 30
0.000000
  70
    32
  0
VERTEX
  8
0
  5
ADE
 10
644.956
 20
331.836
 30
0.000000
  70
    32
  0
VERTEX
  8
0
  5
ADF
 10
644.380
 20
331.367
 30
0.000000
  70
    32
  0
VERTEX
  8
0
  5
AE0
 10
643.806
 20
330.895
 30
0.000000
  70
    32
  0
VERTEX
  8
0
  5
AE1
 10
643.235
 20
330.420
 30
0.000000
  70
    32
  0
VERTEX
  8
0
  5
AE2
 10
642.666
 20
329.942
 30
0.000000
  70
    32
  0
VERTEX
  8
0
  5
AE3
 10
642.099
 20
329.462
 30
0.000000
  70
    32
  0
VERTEX
  8
0
  5
AE4
 10
641.534
 20
328.979
 30
0.000000
  70
    32
  0
VERTEX
  8
0
  5
AE5
 10
640.972
 20
328.493
 30
0.000000
  70
    32
  0
VERTEX
  8
0
  5
AE6
 10
640.412
 20
328.004
 30
0.000000
  70
    32
  0
VERTEX
  8
0
  5
AE7
 10
639.855
 20
327.513
 30
0.000000
  70
    32
  0
VERTEX
  8
0
  5
AE8
 10
639.300
 20
327.019
 30
0.000000
  70
    32
  0
VERTEX
  8
0
  5
AE9
 10
638.747
 20
326.522
 30
0.000000
  70
    32
  0
VERTEX
  8
0
  5
AEA
 10
638.197
 20
326.023
 30
0.000000
  70
    32
  0
VERTEX
  8
0
  5
AEB
 10
637.650
 20
325.520
 30
0.000000
  70
    32
  0
VERTEX
  8
0
  5
AEC
 10
637.105
 20
325.015
 30
0.000000
  70
    32
  0
VERTEX
  8
0
  5
AED
 10
636.562
 20
324.507
 30
0.000000
  70
    32
  0
VERTEX
  8
0
  5
AEE
 10
636.022
 20
323.997
 30
0.000000
  70
    32
  0
VERTEX
  8
0
  5
AEF
 10
635.485
 20
323.483
 30
0.000000
  70
    32
  0
VERTEX
  8
0
  5
AF0
 10
634.950
 20
322.967
 30
0.000000
  70
    32
  0
VERTEX
  8
0
  5
AF1
 10
634.418
 20
322.448
 30
0.000000
  70
    32
  0
VERTEX
  8
0
  5
AF2
 10
633.889
 20
321.927
 30
0.000000
  70
    32
  0
VERTEX
  8
0
  5
AF3
 10
633.362
 20
321.402
 30
0.000000
  70
    32
  0
VERTEX
  8
0
  5
AF4
 10
632.838
 20
320.875
 30
0.000000
  70
    32
  0
VERTEX
  8
0
  5
AF5
 10
632.317
 20
320.345
 30
0.000000
  70
    32
  0
VERTEX
  8
0
  5
AF6
 10
631.799
 20
319.813
 30
0.000000
  70
    32
  0
VERTEX
  8
0
  5
AF7
 10
631.283
 20
319.277
 30
0.000000
  70
    32
  0
VERTEX
  8
0
  5
AF8
 10
630.770
 20
318.739
 30
0.000000
  70
    32
  0
VERTEX
  8
0
  5
AF9
 10
630.260
 20
318.198
 30
0.000000
  70
    32
  0
VERTEX
  8
0
  5
AFA
 10
629.753
 20
317.655
 30
0.000000
  70
    32
  0
VERTEX
  8
0
  5
AFB
 10
629.248
 20
317.109
 30
0.000000
  70
    32
  0
VERTEX
  8
0
  5
AFC
 10
628.747
 20
316.560
 30
0.000000
  70
    32
  0
VERTEX
  8
0
  5
AFD
 10
628.248
 20
316.008
 30
0.000000
  70
    32
  0
VERTEX
  8
0
  5
AFE
 10
627.753
 20
315.454
 30
0.000000
  70
    32
  0
VERTEX
  8
0
  5
AFF
 10
627.260
 20
314.897
 30
0.000000
  70
    32
  0
VERTEX
  8
0
  5
B00
 10
626.770
 20
314.338
 30
0.000000
  70
    32
  0
VERTEX
  8
0
  5
B01
 10
626.284
 20
313.776
 30
0.000000
  70
    32
  0
VERTEX
  8
0
  5
B02
 10
625.800
 20
313.211
 30
0.000000
  70
    32
  0
VERTEX
  8
0
  5
B03
 10
625.319
 20
312.643
 30
0.000000
  70
    32
  0
VERTEX
  8
0
  5
B04
 10
624.842
 20
312.074
 30
0.000000
  70
    32
  0
VERTEX
  8
0
  5
B05
 10
624.367
 20
311.501
 30
0.000000
  70
    32
  0
VERTEX
  8
0
  5
B06
 10
623.896
 20
310.926
 30
0.000000
  70
    32
  0
VERTEX
  8
0
  5
B07
 10
623.428
 20
310.348
 30
0.000000
  70
    32
  0
VERTEX
  8
0
  5
B08
 10
622.963
 20
309.768
 30
0.000000
  70
    32
  0
VERTEX
  8
0
  5
B09
 10
622.501
 20
309.185
 30
0.000000
  70
    32
  0
VERTEX
  8
0
  5
B0A
 10
622.043
 20
308.600
 30
0.000000
  70
    32
  0
VERTEX
  8
0
  5
B0B
 10
621.588
 20
308.012
 30
0.000000
  70
    32
  0
VERTEX
  8
0
  5
B0C
 10
621.136
 20
307.422
 30
0.000000
  70
    32
  0
VERTEX
  8
0
  5
B0D
 10
620.687
 20
306.829
 30
0.000000
  70
    32
  0
VERTEX
  8
0
  5
B0E
 10
620.242
 20
306.233
 30
0.000000
  70
    32
  0
VERTEX
  8
0
  5
B0F
 10
619.800
 20
305.636
 30
0.000000
  70
    32
  0
VERTEX
  8
0
  5
B10
 10
619.361
 20
305.035
 30
0.000000
  70
    32
  0
VERTEX
  8
0
  5
B11
 10
618.926
 20
304.432
 30
0.000000
  70
    32
  0
VERTEX
  8
0
  5
B12
 10
618.494
 20
303.827
 30
0.000000
  70
    32
  0
VERTEX
  8
0
  5
B13
 10
618.065
 20
303.219
 30
0.000000
  70
    32
  0
VERTEX
  8
0
  5
B14
 10
617.641
 20
302.609
 30
0.000000
  70
    32
  0
VERTEX
  8
0
  5
B15
 10
617.219
 20
301.996
 30
0.000000
  70
    32
  0
VERTEX
  8
0
  5
B16
 10
616.801
 20
301.381
 30
0.000000
  70
    32
  0
VERTEX
  8
0
  5
B17
 10
616.387
 20
300.764
 30
0.000000
  70
    32
  0
VERTEX
  8
0
  5
B18
 10
615.976
 20
300.144
 30
0.000000
  70
    32
  0
VERTEX
  8
0
  5
B19
 10
615.568
 20
299.522
 30
0.000000
  70
    32
  0
VERTEX
  8
0
  5
B1A
 10
615.165
 20
298.897
 30
0.000000
  70
    32
  0
VERTEX
  8
0
  5
B1B
 10
614.765
 20
298.270
 30
0.000000
  70
    32
  0
VERTEX
  8
0
  5
B1C
 10
614.368
 20
297.641
 30
0.000000
  70
    32
  0
VERTEX
  8
0
  5
B1D
 10
613.975
 20
297.009
 30
0.000000
  70
    32
  0
VERTEX
  8
0
  5
B1E
 10
613.586
 20
296.375
 30
0.000000
  70
    32
  0
VERTEX
  8
0
  5
B1F
 10
613.201
 20
295.739
 30
0.000000
  70
    32
  0
VERTEX
  8
0
  5
B20
 10
612.819
 20
295.100
 30
0.000000
  70
    32
  0
VERTEX
  8
0
  5
B21
 10
612.441
 20
294.459
 30
0.000000
  70
    32
  0
VERTEX
  8
0
  5
B22
 10
612.067
 20
293.816
 30
0.000000
  70
    32
  0
VERTEX
  8
0
  5
B23
 10
611.697
 20
293.170
 30
0.000000
  70
    32
  0
VERTEX
  8
0
  5
B24
 10
611.330
 20
292.523
 30
0.000000
  70
    32
  0
VERTEX
  8
0
  5
B25
 10
610.967
 20
291.873
 30
0.000000
  70
    32
  0
VERTEX
  8
0
  5
B26
 10
610.608
 20
291.221
 30
0.000000
  70
    32
  0
VERTEX
  8
0
  5
B27
 10
610.253
 20
290.567
 30
0.000000
  70
    32
  0
VERTEX
  8
0
  5
B28
 10
609.901
 20
289.911
 30
0.000000
  70
    32
  0
VERTEX
  8
0
  5
B29
 10
609.553
 20
289.253
 30
0.000000
  70
    32
  0
VERTEX
  8
0
  5
B2A
 10
609.210
 20
288.593
 30
0.000000
  70
    32
  0
VERTEX
  8
0
  5
B2B
 10
608.869
 20
287.931
 30
0.000000
  70
    32
  0
VERTEX
  8
0
  5
B2C
 10
608.533
 20
287.267
 30
0.000000
  70
    32
  0
VERTEX
  8
0
  5
B2D
 10
608.201
 20
286.601
 30
0.000000
  70
    32
  0
VERTEX
  8
0
  5
B2E
 10
607.873
 20
285.933
 30
0.000000
  70
    32
  0
VERTEX
  8
0
  5
B2F
 10
607.548
 20
285.263
 30
0.000000
  70
    32
  0
VERTEX
  8
0
  5
B30
 10
607.227
 20
284.591
 30
0.000000
  70
    32
  0
VERTEX
  8
0
  5
B31
 10
606.911
 20
283.918
 30
0.000000
  70
    32
  0
VERTEX
  8
0
  5
B32
 10
606.598
 20
283.242
 30
0.000000
  70
    32
  0
VERTEX
  8
0
  5
B33
 10
606.289
 20
282.565
 30
0.000000
  70
    32
  0
VERTEX
  8
0
  5
B34
 10
605.984
 20
281.886
 30
0.000000
  70
    32
  0
VERTEX
  8
0
  5
B35
 10
605.683
 20
281.206
 30
0.000000
  70
    32
  0
VERTEX
  8
0
  5
B36
 10
605.386
 20
280.523
 30
0.000000
  70
    32
  0
VERTEX
  8
0
  5
B37
 10
605.093
 20
279.839
 30
0.000000
  70
    32
  0
VERTEX
  8
0
  5
B38
 10
604.804
 20
279.153
 30
0.000000
  70
    32
  0
VERTEX
  8
0
  5
B39
 10
604.519
 20
278.466
 30
0.000000
  70
    32
  0
VERTEX
  8
0
  5
B3A
 10
604.238
 20
277.777
 30
0.000000
  70
    32
  0
VERTEX
  8
0
  5
B3B
 10
603.961
 20
277.086
 30
0.000000
  70
    32
  0
VERTEX
  8
0
  5
B3C
 10
603.688
 20
276.394
 30
0.000000
  70
    32
  0
VERTEX
  8
0
  5
B3D
 10
603.420
 20
275.701
 30
0.000000
  70
    32
  0
VERTEX
  8
0
  5
B3E
 10
603.155
 20
275.005
 30
0.000000
  70
    32
  0
VERTEX
  8
0
  5
B3F
 10
602.894
 20
274.309
 30
0.000000
  70
    32
  0
VERTEX
  8
0
  5
B40
 10
602.638
 20
273.611
 30
0.000000
  70
    32
  0
VERTEX
  8
0
  5
B41
 10
602.385
 20
272.911
 30
0.000000
  70
    32
  0
VERTEX
  8
0
  5
B42
 10
602.137
 20
272.210
 30
0.000000
  70
    32
  0
VERTEX
  8
0
  5
B43
 10
601.893
 20
271.508
 30
0.000000
  70
    32
  0
VERTEX
  8
0
  5
B44
 10
601.652
 20
270.804
 30
0.000000
  70
    32
  0
VERTEX
  8
0
  5
B45
 10
601.416
 20
270.099
 30
0.000000
  70
    32
  0
VERTEX
  8
0
  5
B46
 10
601.185
 20
269.393
 30
0.000000
  70
    32
  0
VERTEX
  8
0
  5
B47
 10
600.957
 20
268.685
 30
0.000000
  70
    32
  0
VERTEX
  8
0
  5
B48
 10
600.734
 20
267.977
 30
0.000000
  70
    32
  0
VERTEX
  8
0
  5
B49
 10
600.514
 20
267.267
 30
0.000000
  70
    32
  0
VERTEX
  8
0
  5
B4A
 10
600.299
 20
266.555
 30
0.000000
  70
    32
  0
VERTEX
  8
0
  5
B4B
 10
600.089
 20
265.843
 30
0.000000
  70
    32
  0
VERTEX
  8
0
  5
B4C
 10
599.882
 20
265.129
 30
0.000000
  70
    32
  0
VERTEX
  8
0
  5
B4D
 10
599.680
 20
264.415
 30
0.000000
  70
    32
  0
VERTEX
  8
0
  5
B4E
 10
599.481
 20
263.699
 30
0.000000
  70
    32
  0
VERTEX
  8
0
  5
B4F
 10
599.287
 20
262.982
 30
0.000000
  70
    32
  0
VERTEX
  8
0
  5
B50
 10
599.098
 20
262.264
 30
0.000000
  70
    32
  0
VERTEX
  8
0
  5
B51
 10
598.912
 20
261.545
 30
0.000000
  70
    32
  0
VERTEX
  8
0
  5
B52
 10
598.731
 20
260.826
 30
0.000000
  70
    32
  0
VERTEX
  8
0
  5
B53
 10
598.553
 20
260.105
 30
0.000000
  70
    32
  0
VERTEX
  8
0
  5
B54
 10
598.380
 20
259.383
 30
0.000000
  70
    32
  0
VERTEX
  8
0
  5
B55
 10
598.211
 20
258.660
 30
0.000000
  70
    32
  0
VERTEX
  8
0
  5
B56
 10
598.046
 20
257.936
 30
0.000000
  70
    32
  0
VERTEX
  8
0
  5
B57
 10
597.886
 20
257.211
 30
0.000000
  70
    32
  0
VERTEX
  8
0
  5
B58
 10
597.729
 20
256.486
 30
0.000000
  70
    32
  0
VERTEX
  8
0
  5
B59
 10
597.577
 20
255.759
 30
0.000000
  70
    32
  0
VERTEX
  8
0
  5
B5A
 10
597.428
 20
255.032
 30
0.000000
  70
    32
  0
VERTEX
  8
0
  5
B5B
 10
597.284
 20
254.304
 30
0.000000
  70
    32
  0
VERTEX
  8
0
  5
B5C
 10
597.144
 20
253.575
 30
0.000000
  70
    32
  0
VERTEX
  8
0
  5
B5D
 10
597.008
 20
252.845
 30
0.000000
  70
    32
  0
VERTEX
  8
0
  5
B5E
 10
596.876
 20
252.114
 30
0.000000
  70
    32
  0
VERTEX
  8
0
  5
B5F
 10
596.748
 20
251.383
 30
0.000000
  70
    32
  0
VERTEX
  8
0
  5
B60
 10
596.625
 20
250.651
 30
0.000000
  70
    32
  0
VERTEX
  8
0
  5
B61
 10
596.505
 20
249.918
 30
0.000000
  70
    32
  0
VERTEX
  8
0
  5
B62
 10
596.389
 20
249.185
 30
0.000000
  70
    32
  0
VERTEX
  8
0
  5
B63
 10
596.278
 20
248.451
 30
0.000000
  70
    32
  0
VERTEX
  8
0
  5
B64
 10
596.170
 20
247.716
 30
0.000000
  70
    32
  0
VERTEX
  8
0
  5
B65
 10
596.067
 20
246.981
 30
0.000000
  70
    32
  0
VERTEX
  8
0
  5
B66
 10
595.968
 20
246.245
 30
0.000000
  70
    32
  0
VERTEX
  8
0
  5
B67
 10
595.872
 20
245.508
 30
0.000000
  70
    32
  0
VERTEX
  8
0
  5
B68
 10
595.781
 20
244.771
 30
0.000000
  70
    32
  0
VERTEX
  8
0
  5
B69
 10
595.693
 20
244.034
 30
0.000000
  70
    32
  0
VERTEX
  8
0
  5
B6A
 10
595.610
 20
243.296
 30
0.000000
  70
    32
  0
VERTEX
  8
0
  5
B6B
 10
595.531
 20
242.558
 30
0.000000
  70
    32
  0
VERTEX
  8
0
  5
B6C
 10
595.455
 20
241.819
 30
0.000000
  70
    32
  0
VERTEX
  8
0
  5
B6D
 10
595.384
 20
241.079
 30
0.000000
  70
    32
  0
VERTEX
  8
0
  5
B6E
 10
595.316
 20
240.340
 30
0.000000
  70
    32
  0
VERTEX
  8
0
  5
B6F
 10
595.253
 20
239.600
 30
0.000000
  70
    32
  0
VERTEX
  8
0
  5
B70
 10
595.193
 20
238.859
 30
0.000000
  70
    32
  0
VERTEX
  8
0
  5
B71
 10
595.137
 20
238.119
 30
0.000000
  70
    32
  0
VERTEX
  8
0
  5
B72
 10
595.086
 20
237.378
 30
0.000000
  70
    32
  0
VERTEX
  8
0
  5
B73
 10
595.038
 20
236.637
 30
0.000000
  70
    32
  0
VERTEX
  8
0
  5
B74
 10
594.994
 20
235.896
 30
0.000000
  70
    32
  0
VERTEX
  8
0
  5
B75
 10
594.954
 20
235.154
 30
0.000000
  70
    32
  0
VERTEX
  8
0
  5
B76
 10
594.917
 20
234.412
 30
0.000000
  70
    32
  0
VERTEX
  8
0
  5
B77
 10
594.885
 20
233.671
 30
0.000000
  70
    32
  0
VERTEX
  8
0
  5
B78
 10
594.856
 20
232.929
 30
0.000000
  70
    32
  0
VERTEX
  8
0
  5
B79
 10
594.832
 20
232.187
 30
0.000000
  70
    32
  0
VERTEX
  8
0
  5
B7A
 10
594.811
 20
231.445
 30
0.000000
  70
    32
  0
VERTEX
  8
0
  5
B7B
 10
594.794
 20
230.703
 30
0.000000
  70
    32
  0
VERTEX
  8
0
  5
B7C
 10
594.780
 20
229.961
 30
0.000000
  70
    32
  0
VERTEX
  8
0
  5
B7D
 10
594.771
 20
229.219
 30
0.000000
  70
    32
  0
VERTEX
  8
0
  5
B7E
 10
594.765
 20
228.477
 30
0.000000
  70
    32
  0
VERTEX
  8
0
  5
B7F
 10
594.763
 20
227.735
 30
0.000000
  70
    32
  0
SEQEND
  8
0
  5
B80
  0
POLYLINE
  8
0
  5
B81
  66
     1
 10
0.000000
 20
0.000000
 30
0.000000
  70
     8
  0
VERTEX
  8
0
  5
B82
 10
594.763
 20
227.735
 30
0.000000
  70
    32
  0
VERTEX
  8
0
  5
B83
 10
594.765
 20
226.993
 30
0.000000
  70
    32
  0
VERTEX
  8
0
  5
B84
 10
594.771
 20
226.251
 30
0.000000
  70
    32
  0
VERTEX
  8
0
  5
B85
 10
594.780
 20
225.509
 30
0.000000
  70
    32
  0
VERTEX
  8
0
  5
B86
 10
594.794
 20
224.767
 30
0.000000
  70
    32
  0
VERTEX
  8
0
  5
B87
 10
594.811
 20
224.025
 30
0.000000
  70
    32
  0
VERTEX
  8
0
  5
B88
 10
594.832
 20
223.283
 30
0.000000
  70
    32
  0
VERTEX
  8
0
  5
B89
 10
594.856
 20
222.541
 30
0.000000
  70
    32
  0
VERTEX
  8
0
  5
B8A
 10
594.885
 20
221.799
 30
0.000000
  70
    32
  0
VERTEX
  8
0
  5
B8B
 10
594.917
 20
221.057
 30
0.000000
  70
    32
  0
VERTEX
  8
0
  5
B8C
 10
594.954
 20
220.316
 30
0.000000
  70
    32
  0
VERTEX
  8
0
  5
B8D
 10
594.994
 20
219.574
 30
0.000000
  70
    32
  0
VERTEX
  8
0
  5
B8E
 10
595.038
 20
218.833
 30
0.000000
  70
    32
  0
VERTEX
  8
0
  5
B8F
 10
595.086
 20
218.092
 30
0.000000
  70
    32
  0
VERTEX
  8
0
  5
B90
 10
595.137
 20
217.351
 30
0.000000
  70
    32
  0
VERTEX
  8
0
  5
B91
 10
595.193
 20
216.610
 30
0.000000
  70
    32
  0
VERTEX
  8
0
  5
B92
 10
595.253
 20
215.870
 30
0.000000
  70
    32
  0
VERTEX
  8
0
  5
B93
 10
595.316
 20
215.130
 30
0.000000
  70
    32
  0
VERTEX
  8
0
  5
B94
 10
595.384
 20
214.390
 30
0.000000
  70
    32
  0
VERTEX
  8
0
  5
B95
 10
595.455
 20
213.651
 30
0.000000
  70
    32
  0
VERTEX
  8
0
  5
B96
 10
595.531
 20
212.912
 30
0.000000
  70
    32
  0
VERTEX
  8
0
  5
B97
 10
595.610
 20
212.174
 30
0.000000
  70
    32
  0
VERTEX
  8
0
  5
B98
 10
595.693
 20
211.436
 30
0.000000
  70
    32
  0
VERTEX
  8
0
  5
B99
 10
595.781
 20
210.698
 30
0.000000
  70
    32
  0
VERTEX
  8
0
  5
B9A
 10
595.872
 20
209.961
 30
0.000000
  70
    32
  0
VERTEX
  8
0
  5
B9B
 10
595.968
 20
209.225
 30
0.000000
  70
    32
  0
VERTEX
  8
0
  5
B9C
 10
596.067
 20
208.489
 30
0.000000
  70
    32
  0
VERTEX
  8
0
  5
B9D
 10
596.170
 20
207.754
 30
0.000000
  70
    32
  0
VERTEX
  8
0
  5
B9E
 10
596.278
 20
207.019
 30
0.000000
  70
    32
  0
VERTEX
  8
0
  5
B9F
 10
596.389
 20
206.285
 30
0.000000
  70
    32
  0
VERTEX
  8
0
  5
BA0
 10
596.505
 20
205.551
 30
0.000000
  70
    32
  0
VERTEX
  8
0
  5
BA1
 10
596.625
 20
204.819
 30
0.000000
  70
    32
  0
VERTEX
  8
0
  5
BA2
 10
596.748
 20
204.087
 30
0.000000
  70
    32
  0
VERTEX
  8
0
  5
BA3
 10
596.876
 20
203.355
 30
0.000000
  70
    32
  0
VERTEX
  8
0
  5
BA4
 10
597.008
 20
202.625
 30
0.000000
  70
    32
  0
VERTEX
  8
0
  5
BA5
 10
597.144
 20
201.895
 30
0.000000
  70
    32
  0
VERTEX
  8
0
  5
BA6
 10
597.284
 20
201.166
 30
0.000000
  70
    32
  0
VERTEX
  8
0
  5
BA7
 10
597.428
 20
200.438
 30
0.000000
  70
    32
  0
VERTEX
  8
0
  5
BA8
 10
597.577
 20
199.711
 30
0.000000
  70
    32
  0
VERTEX
  8
0
  5
BA9
 10
597.729
 20
198.984
 30
0.000000
  70
    32
  0
VERTEX
  8
0
  5
BAA
 10
597.886
 20
198.259
 30
0.000000
  70
    32
  0
VERTEX
  8
0
  5
BAB
 10
598.046
 20
197.534
 30
0.000000
  70
    32
  0
VERTEX
  8
0
  5
BAC
 10
598.211
 20
196.810
 30
0.000000
  70
    32
  0
VERTEX
  8
0
  5
BAD
 10
598.380
 20
196.087
 30
0.000000
  70
    32
  0
VERTEX
  8
0
  5
BAE
 10
598.553
 20
195.365
 30
0.000000
  70
    32
  0
VERTEX
  8
0
  5
BAF
 10
598.731
 20
194.644
 30
0.000000
  70
    32
  0
VERTEX
  8
0
  5
BB0
 10
598.912
 20
193.924
 30
0.000000
  70
    32
  0
VERTEX
  8
0
  5
BB1
 10
599.098
 20
193.205
 30
0.000000
  70
    32
  0
VERTEX
  8
0
  5
BB2
 10
599.287
 20
192.487
 30
0.000000
  70
    32
  0
VERTEX
  8
0
  5
BB3
 10
599.481
 20
191.771
 30
0.000000
  70
    32
  0
VERTEX
  8
0
  5
BB4
 10
599.680
 20
191.055
 30
0.000000
  70
    32
  0
VERTEX
  8
0
  5
BB5
 10
599.882
 20
190.340
 30
0.000000
  70
    32
  0
VERTEX
  8
0
  5
BB6
 10
600.089
 20
189.627
 30
0.000000
  70
    32
  0
VERTEX
  8
0
  5
BB7
 10
600.299
 20
188.914
 30
0.000000
  70
    32
  0
VERTEX
  8
0
  5
BB8
 10
600.514
 20
188.203
 30
0.000000
  70
    32
  0
VERTEX
  8
0
  5
BB9
 10
600.734
 20
187.493
 30
0.000000
  70
    32
  0
VERTEX
  8
0
  5
BBA
 10
600.957
 20
186.784
 30
0.000000
  70
    32
  0
VERTEX
  8
0
  5
BBB
 10
601.185
 20
186.077
 30
0.000000
  70
    32
  0
VERTEX
  8
0
  5
BBC
 10
601.416
 20
185.371
 30
0.000000
  70
    32
  0
VERTEX
  8
0
  5
BBD
 10
601.652
 20
184.666
 30
0.000000
  70
    32
  0
VERTEX
  8
0
  5
BBE
 10
601.893
 20
183.962
 30
0.000000
  70
    32
  0
VERTEX
  8
0
  5
BBF
 10
602.137
 20
183.260
 30
0.000000
  70
    32
  0
VERTEX
  8
0
  5
BC0
 10
602.385
 20
182.559
 30
0.000000
  70
    32
  0
VERTEX
  8
0
  5
BC1
 10
602.638
 20
181.859
 30
0.000000
  70
    32
  0
VERTEX
  8
0
  5
BC2
 10
602.894
 20
181.161
 30
0.000000
  70
    32
  0
VERTEX
  8
0
  5
BC3
 10
603.155
 20
180.464
 30
0.000000
  70
    32
  0
VERTEX
  8
0
  5
BC4
 10
603.420
 20
179.769
 30
0.000000
  70
    32
  0
VERTEX
  8
0
  5
BC5
 10
603.688
 20
179.076
 30
0.000000
  70
    32
  0
VERTEX
  8
0
  5
BC6
 10
603.961
 20
178.383
 30
0.000000
  70
    32
  0
VERTEX
  8
0
  5
BC7
 10
604.238
 20
177.693
 30
0.000000
  70
    32
  0
VERTEX
  8
0
  5
BC8
 10
604.519
 20
177.004
 30
0.000000
  70
    32
  0
VERTEX
  8
0
  5
BC9
 10
604.804
 20
176.316
 30
0.000000
  70
    32
  0
VERTEX
  8
0
  5
BCA
 10
605.093
 20
175.631
 30
0.000000
  70
    32
  0
VERTEX
  8
0
  5
BCB
 10
605.386
 20
174.947
 30
0.000000
  70
    32
  0
VERTEX
  8
0
  5
BCC
 10
605.683
 20
174.264
 30
0.000000
  70
    32
  0
VERTEX
  8
0
  5
BCD
 10
605.984
 20
173.584
 30
0.000000
  70
    32
  0
VERTEX
  8
0
  5
BCE
 10
606.289
 20
172.905
 30
0.000000
  70
    32
  0
VERTEX
  8
0
  5
BCF
 10
606.598
 20
172.227
 30
0.000000
  70
    32
  0
VERTEX
  8
0
  5
BD0
 10
606.911
 20
171.552
 30
0.000000
  70
    32
  0
VERTEX
  8
0
  5
BD1
 10
607.227
 20
170.878
 30
0.000000
  70
    32
  0
VERTEX
  8
0
  5
BD2
 10
607.548
 20
170.207
 30
0.000000
  70
    32
  0
VERTEX
  8
0
  5
BD3
 10
607.873
 20
169.537
 30
0.000000
  70
    32
  0
VERTEX
  8
0
  5
BD4
 10
608.201
 20
168.869
 30
0.000000
  70
    32
  0
VERTEX
  8
0
  5
BD5
 10
608.533
 20
168.203
 30
0.000000
  70
    32
  0
VERTEX
  8
0
  5
BD6
 10
608.869
 20
167.539
 30
0.000000
  70
    32
  0
VERTEX
  8
0
  5
BD7
 10
609.210
 20
166.877
 30
0.000000
  70
    32
  0
VERTEX
  8
0
  5
BD8
 10
609.553
 20
166.217
 30
0.000000
  70
    32
  0
VERTEX
  8
0
  5
BD9
 10
609.901
 20
165.558
 30
0.000000
  70
    32
  0
VERTEX
  8
0
  5
BDA
 10
610.253
 20
164.902
 30
0.000000
  70
    32
  0
VERTEX
  8
0
  5
BDB
 10
610.608
 20
164.248
 30
0.000000
  70
    32
  0
VERTEX
  8
0
  5
BDC
 10
610.967
 20
163.597
 30
0.000000
  70
    32
  0
VERTEX
  8
0
  5
BDD
 10
611.330
 20
162.947
 30
0.000000
  70
    32
  0
VERTEX
  8
0
  5
BDE
 10
611.697
 20
162.299
 30
0.000000
  70
    32
  0
VERTEX
  8
0
  5
BDF
 10
612.067
 20
161.654
 30
0.000000
  70
    32
  0
VERTEX
  8
0
  5
BE0
 10
612.441
 20
161.011
 30
0.000000
  70
    32
  0
VERTEX
  8
0
  5
BE1
 10
612.819
 20
160.370
 30
0.000000
  70
    32
  0
VERTEX
  8
0
  5
BE2
 10
613.201
 20
159.731
 30
0.000000
  70
    32
  0
VERTEX
  8
0
  5
BE3
 10
613.586
 20
159.095
 30
0.000000
  70
    32
  0
VERTEX
  8
0
  5
BE4
 10
613.975
 20
158.461
 30
0.000000
  70
    32
  0
VERTEX
  8
0
  5
BE5
 10
614.368
 20
157.829
 30
0.000000
  70
    32
  0
VERTEX
  8
0
  5
BE6
 10
614.765
 20
157.200
 30
0.000000
  70
    32
  0
VERTEX
  8
0
  5
BE7
 10
615.165
 20
156.573
 30
0.000000
  70
    32
  0
VERTEX
  8
0
  5
BE8
 10
615.568
 20
155.948
 30
0.000000
  70
    32
  0
VERTEX
  8
0
  5
BE9
 10
615.976
 20
155.326
 30
0.000000
  70
    32
  0
VERTEX
  8
0
  5
BEA
 10
616.387
 20
154.706
 30
0.000000
  70
    32
  0
VERTEX
  8
0
  5
BEB
 10
616.801
 20
154.088
 30
0.000000
  70
    32
  0
VERTEX
  8
0
  5
BEC
 10
617.219
 20
153.473
 30
0.000000
  70
    32
  0
VERTEX
  8
0
  5
BED
 10
617.641
 20
152.861
 30
0.000000
  70
    32
  0
VERTEX
  8
0
  5
BEE
 10
618.065
 20
152.250
 30
0.000000
  70
    32
  0
VERTEX
  8
0
  5
BEF
 10
618.494
 20
151.643
 30
0.000000
  70
    32
  0
VERTEX
  8
0
  5
BF0
 10
618.926
 20
151.037
 30
0.000000
  70
    32
  0
VERTEX
  8
0
  5
BF1
 10
619.361
 20
150.435
 30
0.000000
  70
    32
  0
VERTEX
  8
0
  5
BF2
 10
619.800
 20
149.834
 30
0.000000
  70
    32
  0
VERTEX
  8
0
  5
BF3
 10
620.242
 20
149.236
 30
0.000000
  70
    32
  0
VERTEX
  8
0
  5
BF4
 10
620.687
 20
148.641
 30
0.000000
  70
    32
  0
VERTEX
  8
0
  5
BF5
 10
621.136
 20
148.048
 30
0.000000
  70
    32
  0
VERTEX
  8
0
  5
BF6
 10
621.588
 20
147.458
 30
0.000000
  70
    32
  0
VERTEX
  8
0
  5
BF7
 10
622.043
 20
146.870
 30
0.000000
  70
    32
  0
VERTEX
  8
0
  5
BF8
 10
622.501
 20
146.285
 30
0.000000
  70
    32
  0
VERTEX
  8
0
  5
BF9
 10
622.963
 20
145.702
 30
0.000000
  70
    32
  0
VERTEX
  8
0
  5
BFA
 10
623.428
 20
145.122
 30
0.000000
  70
    32
  0
VERTEX
  8
0
  5
BFB
 10
623.896
 20
144.544
 30
0.000000
  70
    32
  0
VERTEX
  8
0
  5
BFC
 10
624.367
 20
143.969
 30
0.000000
  70
    32
  0
VERTEX
  8
0
  5
BFD
 10
624.842
 20
143.396
 30
0.000000
  70
    32
  0
VERTEX
  8
0
  5
BFE
 10
625.319
 20
142.826
 30
0.000000
  70
    32
  0
VERTEX
  8
0
  5
BFF
 10
625.800
 20
142.259
 30
0.000000
  70
    32
  0
VERTEX
  8
0
  5
C00
 10
626.284
 20
141.694
 30
0.000000
  70
    32
  0
VERTEX
  8
0
  5
C01
 10
626.770
 20
141.132
 30
0.000000
  70
    32
  0
VERTEX
  8
0
  5
C02
 10
627.260
 20
140.573
 30
0.000000
  70
    32
  0
VERTEX
  8
0
  5
C03
 10
627.753
 20
140.016
 30
0.000000
  70
    32
  0
VERTEX
  8
0
  5
C04
 10
628.248
 20
139.462
 30
0.000000
  70
    32
  0
VERTEX
  8
0
  5
C05
 10
628.747
 20
138.910
 30
0.000000
  70
    32
  0
VERTEX
  8
0
  5
C06
 10
629.248
 20
138.361
 30
0.000000
  70
    32
  0
VERTEX
  8
0
  5
C07
 10
629.753
 20
137.815
 30
0.000000
  70
    32
  0
VERTEX
  8
0
  5
C08
 10
630.260
 20
137.272
 30
0.000000
  70
    32
  0
VERTEX
  8
0
  5
C09
 10
630.770
 20
136.731
 30
0.000000
  70
    32
  0
VERTEX
  8
0
  5
C0A
 10
631.283
 20
136.193
 30
0.000000
  70
    32
  0
VERTEX
  8
0
  5
C0B
 10
631.799
 20
135.657
 30
0.000000
  70
    32
  0
VERTEX
  8
0
  5
C0C
 10
632.317
 20
135.125
 30
0.000000
  70
    32
  0
VERTEX
  8
0
  5
C0D
 10
632.838
 20
134.595
 30
0.000000
  70
    32
  0
VERTEX
  8
0
  5
C0E
 10
633.362
 20
134.067
 30
0.000000
  70
    32
  0
VERTEX
  8
0
  5
C0F
 10
633.889
 20
133.543
 30
0.000000
  70
    32
  0
VERTEX
  8
0
  5
C10
 10
634.418
 20
133.021
 30
0.000000
  70
    32
  0
VERTEX
  8
0
  5
C11
 10
634.950
 20
132.502
 30
0.000000
  70
    32
  0
VERTEX
  8
0
  5
C12
 10
635.485
 20
131.986
 30
0.000000
  70
    32
  0
VERTEX
  8
0
  5
C13
 10
636.022
 20
131.473
 30
0.000000
  70
    32
  0
VERTEX
  8
0
  5
C14
 10
636.562
 20
130.962
 30
0.000000
  70
    32
  0
VERTEX
  8
0
  5
C15
 10
637.105
 20
130.455
 30
0.000000
  70
    32
  0
VERTEX
  8
0
  5
C16
 10
637.650
 20
129.949
 30
0.000000
  70
    32
  0
VERTEX
  8
0
  5
C17
 10
638.197
 20
129.447
 30
0.000000
  70
    32
  0
VERTEX
  8
0
  5
C18
 10
638.747
 20
128.947
 30
0.000000
  70
    32
  0
VERTEX
  8
0
  5
C19
 10
639.300
 20
128.451
 30
0.000000
  70
    32
  0
VERTEX
  8
0
  5
C1A
 10
639.855
 20
127.957
 30
0.000000
  70
    32
  0
VERTEX
  8
0
  5
C1B
 10
640.412
 20
127.465
 30
0.000000
  70
    32
  0
VERTEX
  8
0
  5
C1C
 10
640.972
 20
126.977
 30
0.000000
  70
    32
  0
VERTEX
  8
0
  5
C1D
 10
641.534
 20
126.491
 30
0.000000
  70
    32
  0
VERTEX
  8
0
  5
C1E
 10
642.099
 20
126.008
 30
0.000000
  70
    32
  0
VERTEX
  8
0
  5
C1F
 10
642.666
 20
125.527
 30
0.000000
  70
    32
  0
VERTEX
  8
0
  5
C20
 10
643.235
 20
125.050
 30
0.000000
  70
    32
  0
VERTEX
  8
0
  5
C21
 10
643.806
 20
124.575
 30
0.000000
  70
    32
  0
VERTEX
  8
0
  5
C22
 10
644.380
 20
124.103
 30
0.000000
  70
    32
  0
VERTEX
  8
0
  5
C23
 10
644.956
 20
123.634
 30
0.000000
  70
    32
  0
VERTEX
  8
0
  5
C24
 10
645.535
 20
123.167
 30
0.000000
  70
    32
  0
VERTEX
  8
0
  5
C25
 10
646.115
 20
122.703
 30
0.000000
  70
    32
  0
VERTEX
  8
0
  5
C26
 10
646.698
 20
122.242
 30
0.000000
  70
    32
  0
VERTEX
  8
0
  5
C27
 10
647.283
 20
121.783
 30
0.000000
  70
    32
  0
VERTEX
  8
0
  5
C28
 10
647.870
 20
121.328
 30
0.000000
  70
    32
  0
VERTEX
  8
0
  5
C29
 10
648.459
 20
120.875
 30
0.000000
  70
    32
  0
VERTEX
  8
0
  5
C2A
 10
649.050
 20
120.425
 30
0.000000
  70
    32
  0
VERTEX
  8
0
  5
C2B
 10
649.644
 20
119.977
 30
0.000000
  70
    32
  0
VERTEX
  8
0
  5
C2C
 10
650.239
 20
119.532
 30
0.000000
  70
    32
  0
VERTEX
  8
0
  5
C2D
 10
650.836
 20
119.090
 30
0.000000
  70
    32
  0
VERTEX
  8
0
  5
C2E
 10
651.436
 20
118.651
 30
0.000000
  70
    32
  0
VERTEX
  8
0
  5
C2F
 10
652.037
 20
118.215
 30
0.000000
  70
    32
  0
VERTEX
  8
0
  5
C30
 10
652.640
 20
117.781
 30
0.000000
  70
    32
  0
VERTEX
  8
0
  5
C31
 10
653.246
 20
117.350
 30
0.000000
  70
    32
  0
VERTEX
  8
0
  5
C32
 10
653.853
 20
116.921
 30
0.000000
  70
    32
  0
VERTEX
  8
0
  5
C33
 10
654.462
 20
116.496
 30
0.000000
  70
    32
  0
VERTEX
  8
0
  5
C34
 10
655.073
 20
116.073
 30
0.000000
  70
    32
  0
VERTEX
  8
0
  5
C35
 10
655.686
 20
115.652
 30
0.000000
  70
    32
  0
VERTEX
  8
0
  5
C36
 10
656.301
 20
115.235
 30
0.000000
  70
    32
  0
VERTEX
  8
0
  5
C37
 10
656.917
 20
114.820
 30
0.000000
  70
    32
  0
VERTEX
  8
0
  5
C38
 10
657.535
 20
114.408
 30
0.000000
  70
    32
  0
VERTEX
  8
0
  5
C39
 10
658.155
 20
113.999
 30
0.000000
  70
    32
  0
VERTEX
  8
0
  5
C3A
 10
658.777
 20
113.592
 30
0.000000
  70
    32
  0
VERTEX
  8
0
  5
C3B
 10
659.401
 20
113.188
 30
0.000000
  70
    32
  0
VERTEX
  8
0
  5
C3C
 10
660.026
 20
112.787
 30
0.000000
  70
    32
  0
VERTEX
  8
0
  5
C3D
 10
660.653
 20
112.388
 30
0.000000
  70
    32
  0
VERTEX
  8
0
  5
C3E
 10
661.281
 20
111.992
 30
0.000000
  70
    32
  0
VERTEX
  8
0
  5
C3F
 10
661.912
 20
111.599
 30
0.000000
  70
    32
  0
VERTEX
  8
0
  5
C40
 10
662.543
 20
111.209
 30
0.000000
  70
    32
  0
VERTEX
  8
0
  5
C41
 10
663.177
 20
110.821
 30
0.000000
  70
    32
  0
VERTEX
  8
0
  5
C42
 10
663.812
 20
110.436
 30
0.000000
  70
    32
  0
VERTEX
  8
0
  5
C43
 10
664.449
 20
110.053
 30
0.000000
  70
    32
  0
VERTEX
  8
0
  5
C44
 10
665.087
 20
109.673
 30
0.000000
  70
    32
  0
VERTEX
  8
0
  5
C45
 10
665.727
 20
109.296
 30
0.000000
  70
    32
  0
VERTEX
  8
0
  5
C46
 10
666.368
 20
108.922
 30
0.000000
  70
    32
  0
VERTEX
  8
0
  5
C47
 10
667.011
 20
108.550
 30
0.000000
  70
    32
  0
VERTEX
  8
0
  5
C48
 10
667.655
 20
108.180
 30
0.000000
  70
    32
  0
VERTEX
  8
0
  5
C49
 10
668.301
 20
107.814
 30
0.000000
  70
    32
  0
VERTEX
  8
0
  5
C4A
 10
668.948
 20
107.450
 30
0.000000
  70
    32
  0
VERTEX
  8
0
  5
C4B
 10
669.597
 20
107.088
 30
0.000000
  70
    32
  0
VERTEX
  8
0
  5
C4C
 10
670.247
 20
106.729
 30
0.000000
  70
    32
  0
VERTEX
  8
0
  5
C4D
 10
670.899
 20
106.373
 30
0.000000
  70
    32
  0
VERTEX
  8
0
  5
C4E
 10
671.552
 20
106.019
 30
0.000000
  70
    32
  0
VERTEX
  8
0
  5
C4F
 10
672.207
 20
105.668
 30
0.000000
  70
    32
  0
VERTEX
  8
0
  5
C50
 10
672.862
 20
105.319
 30
0.000000
  70
    32
  0
VERTEX
  8
0
  5
C51
 10
673.520
 20
104.973
 30
0.000000
  70
    32
  0
VERTEX
  8
0
  5
C52
 10
674.178
 20
104.630
 30
0.000000
  70
    32
  0
VERTEX
  8
0
  5
C53
 10
674.838
 20
104.289
 30
0.000000
  70
    32
  0
VERTEX
  8
0
  5
C54
 10
675.499
 20
103.950
 30
0.000000
  70
    32
  0
VERTEX
  8
0
  5
C55
 10
676.162
 20
103.614
 30
0.000000
  70
    32
  0
VERTEX
  8
0
  5
C56
 10
676.826
 20
103.281
 30
0.000000
  70
    32
  0
VERTEX
  8
0
  5
C57
 10
677.491
 20
102.950
 30
0.000000
  70
    32
  0
VERTEX
  8
0
  5
C58
 10
678.157
 20
102.622
 30
0.000000
  70
    32
  0
VERTEX
  8
0
  5
C59
 10
678.824
 20
102.296
 30
0.000000
  70
    32
  0
VERTEX
  8
0
  5
C5A
 10
679.493
 20
101.973
 30
0.000000
  70
    32
  0
VERTEX
  8
0
  5
C5B
 10
680.163
 20
101.652
 30
0.000000
  70
    32
  0
VERTEX
  8
0
  5
C5C
 10
680.834
 20
101.334
 30
0.000000
  70
    32
  0
VERTEX
  8
0
  5
C5D
 10
681.506
 20
101.018
 30
0.000000
  70
    32
  0
VERTEX
  8
0
  5
C5E
 10
682.180
 20
100.704
 30
0.000000
  70
    32
  0
VERTEX
  8
0
  5
C5F
 10
682.854
 20
100.393
 30
0.000000
  70
    32
  0
VERTEX
  8
0
  5
C60
 10
683.530
 20
100.085
 30
0.000000
  70
    32
  0
VERTEX
  8
0
  5
C61
 10
684.207
 20
99.7790
 30
0.000000
  70
    32
  0
VERTEX
  8
0
  5
C62
 10
684.885
 20
99.4754
 30
0.000000
  70
    32
  0
VERTEX
  8
0
  5
C63
 10
685.564
 20
99.1743
 30
0.000000
  70
    32
  0
VERTEX
  8
0
  5
C64
 10
686.244
 20
98.8756
 30
0.000000
  70
    32
  0
VERTEX
  8
0
  5
C65
 10
686.925
 20
98.5793
 30
0.000000
  70
    32
  0
VERTEX
  8
0
  5
C66
 10
687.607
 20
98.2854
 30
0.000000
  70
    32
  0
VERTEX
  8
0
  5
C67
 10
688.290
 20
97.9940
 30
0.000000
  70
    32
  0
VERTEX
  8
0
  5
C68
 10
688.974
 20
97.7049
 30
0.000000
  70
    32
  0
VERTEX
  8
0
  5
C69
 10
689.659
 20
97.4183
 30
0.000000
  70
    32
  0
VERTEX
  8
0
  5
C6A
 10
690.345
 20
97.1340
 30
0.000000
  70
    32
  0
VERTEX
  8
0
  5
C6B
 10
691.032
 20
96.8521
 30
0.000000
  70
    32
  0
VERTEX
  8
0
  5
C6C
 10
691.720
 20
96.5726
 30
0.000000
  70
    32
  0
VERTEX
  8
0
  5
C6D
 10
692.409
 20
96.2954
 30
0.000000
  70
    32
  0
VERTEX
  8
0
  5
C6E
 10
693.099
 20
96.0206
 30
0.000000
  70
    32
  0
VERTEX
  8
0
  5
C6F
 10
693.789
 20
95.7482
 30
0.000000
  70
    32
  0
VERTEX
  8
0
  5
C70
 10
694.481
 20
95.4781
 30
0.000000
  70
    32
  0
VERTEX
  8
0
  5
C71
 10
695.173
 20
95.2103
 30
0.000000
  70
    32
  0
VERTEX
  8
0
  5
C72
 10
695.867
 20
94.9449
 30
0.000000
  70
    32
  0
VERTEX
  8
0
  5
C73
 10
696.561
 20
94.6818
 30
0.000000
  70
    32
  0
VERTEX
  8
0
  5
C74
 10
697.256
 20
94.4210
 30
0.000000
  70
    32
  0
VERTEX
  8
0
  5
C75
 10
697.952
 20
94.1625
 30
0.000000
  70
    32
  0
VERTEX
  8
0
  5
C76
 10
698.649
 20
93.9063
 30
0.000000
  70
    32
  0
VERTEX
  8
0
  5
C77
 10
699.347
 20
93.6524
 30
0.000000
  70
    32
  0
VERTEX
  8
0
  5
C78
 10
700.046
 20
93.4007
 30
0.000000
  70
    32
  0
VERTEX
  8
0
  5
C79
 10
700.745
 20
93.1514
 30
0.000000
  70
    32
  0
VERTEX
  8
0
  5
C7A
 10
701.445
 20
92.9043
 30
0.000000
  70
    32
  0
VERTEX
  8
0
  5
C7B
 10
702.146
 20
92.6595
 30
0.000000
  70
    32
  0
VERTEX
  8
0
  5
C7C
 10
702.848
 20
92.4169
 30
0.000000
  70
    32
  0
VERTEX
  8
0
  5
C7D
 10
703.551
 20
92.1766
 30
0.000000
  70
    32
  0
VERTEX
  8
0
  5
C7E
 10
704.254
 20
91.9385
 30
0.000000
  70
    32
  0
VERTEX
  8
0
  5
C7F
 10
704.958
 20
91.7026
 30
0.000000
  70
    32
  0
VERTEX
  8
0
  5
C80
 10
705.663
 20
91.4690
 30
0.000000
  70
    32
  0
VERTEX
  8
0
  5
C81
 10
706.368
 20
91.2376
 30
0.000000
  70
    32
  0
VERTEX
  8
0
  5
C82
 10
707.075
 20
91.0084
 30
0.000000
  70
    32
  0
VERTEX
  8
0
  5
C83
 10
707.782
 20
90.7813
 30
0.000000
  70
    32
  0
VERTEX
  8
0
  5
C84
 10
708.489
 20
90.5565
 30
0.000000
  70
    32
  0
VERTEX
  8
0
  5
C85
 10
709.198
 20
90.3339
 30
0.000000
  70
    32
  0
VERTEX
  8
0
  5
C86
 10
709.907
 20
90.1134
 30
0.000000
  70
    32
  0
VERTEX
  8
0
  5
C87
 10
710.616
 20
89.8951
 30
0.000000
  70
    32
  0
VERTEX
  8
0
  5
C88
 10
711.327
 20
89.6790
 30
0.000000
  70
    32
  0
VERTEX
  8
0
  5
C89
 10
712.038
 20
89.4650
 30
0.000000
  70
    32
  0
VERTEX
  8
0
  5
C8A
 10
712.750
 20
89.2532
 30
0.000000
  70
    32
  0
VERTEX
  8
0
  5
C8B
 10
713.462
 20
89.0435
 30
0.000000
  70
    32
  0
VERTEX
  8
0
  5
C8C
 10
714.175
 20
88.8360
 30
0.000000
  70
    32
  0
VERTEX
  8
0
  5
C8D
 10
714.888
 20
88.6305
 30
0.000000
  70
    32
  0
VERTEX
  8
0
  5
C8E
 10
715.603
 20
88.4272
 30
0.000000
  70
    32
  0
VERTEX
  8
0
  5
C8F
 10
716.317
 20
88.2260
 30
0.000000
  70
    32
  0
VERTEX
  8
0
  5
C90
 10
717.033
 20
88.0269
 30
0.000000
  70
    32
  0
VERTEX
  8
0
  5
C91
 10
717.749
 20
87.8299
 30
0.000000
  70
    32
  0
VERTEX
  8
0
  5
C92
 10
718.465
 20
87.6350
 30
0.000000
  70
    32
  0
VERTEX
  8
0
  5
C93
 10
719.182
 20
87.4422
 30
0.000000
  70
    32
  0
VERTEX
  8
0
  5
C94
 10
719.900
 20
87.2514
 30
0.000000
  70
    32
  0
VERTEX
  8
0
  5
C95
 10
720.618
 20
87.0627
 30
0.000000
  70
    32
  0
VERTEX
  8
0
  5
C96
 10
721.336
 20
86.8761
 30
0.000000
  70
    32
  0
VERTEX
  8
0
  5
C97
 10
722.055
 20
86.6915
 30
0.000000
  70
    32
  0
VERTEX
  8
0
  5
C98
 10
722.775
 20
86.5090
 30
0.000000
  70
    32
  0
VERTEX
  8
0
  5
C99
 10
723.495
 20
86.3285
 30
0.000000
  70
    32
  0
VERTEX
  8
0
  5
C9A
 10
724.216
 20
86.1500
 30
0.000000
  70
    32
  0
VERTEX
  8
0
  5
C9B
 10
724.937
 20
85.9736
 30
0.000000
  70
    32
  0
VERTEX
  8
0
  5
C9C
 10
725.658
 20
85.7991
 30
0.000000
  70
    32
  0
VERTEX
  8
0
  5
C9D
 10
726.380
 20
85.6267
 30
0.000000
  70
    32
  0
VERTEX
  8
0
  5
C9E
 10
727.103
 20
85.4563
 30
0.000000
  70
    32
  0
VERTEX
  8
0
  5
C9F
 10
727.826
 20
85.2879
 30
0.000000
  70
    32
  0
VERTEX
  8
0
  5
CA0
 10
728.549
 20
85.1215
 30
0.000000
  70
    32
  0
VERTEX
  8
0
  5
CA1
 10
729.273
 20
84.9571
 30
0.000000
  70
    32
  0
VERTEX
  8
0
  5
CA2
 10
729.997
 20
84.7946
 30
0.000000
  70
    32
  0
VERTEX
  8
0
  5
CA3
 10
730.722
 20
84.6342
 30
0.000000
  70
    32
  0
VERTEX
  8
0
  5
CA4
 10
731.447
 20
84.4756
 30
0.000000
  70
    32
  0
VERTEX
  8
0
  5
CA5
 10
732.173
 20
84.3191
 30
0.000000
  70
    32
  0
VERTEX
  8
0
  5
CA6
 10
732.899
 20
84.1645
 30
0.000000
  70
    32
  0
VERTEX
  8
0
  5
CA7
 10
733.625
 20
84.0119
 30
0.000000
  70
    32
  0
VERTEX
  8
0
  5
CA8
 10
734.352
 20
83.8612
 30
0.000000
  70
    32
  0
VERTEX
  8
0
  5
CA9
 10
735.079
 20
83.7125
 30
0.000000
  70
    32
  0
VERTEX
  8
0
  5
CAA
 10
735.807
 20
83.5656
 30
0.000000
  70
    32
  0
VERTEX
  8
0
  5
CAB
 10
736.535
 20
83.4207
 30
0.000000
  70
    32
  0
VERTEX
  8
0
  5
CAC
 10
737.264
 20
83.2777
 30
0.000000
  70
    32
  0
VERTEX
  8
0
  5
CAD
 10
737.992
 20
83.1367
 30
0.000000
  70
    32
  0
VERTEX
  8
0
  5
CAE
 10
738.722
 20
82.9975
 30
0.000000
  70
    32
  0
VERTEX
  8
0
  5
CAF
 10
739.451
 20
82.8602
 30
0.000000
  70
    32
  0
VERTEX
  8
0
  5
CB0
 10
740.181
 20
82.7249
 30
0.000000
  70
    32
  0
VERTEX
  8
0
  5
CB1
 10
740.911
 20
82.5914
 30
0.000000
  70
    32
  0
VERTEX
  8
0
  5
CB2
 10
741.642
 20
82.4598
 30
0.000000
  70
    32
  0
VERTEX
  8
0
  5
CB3
 10
742.373
 20
82.3300
 30
0.000000
  70
    32
  0
VERTEX
  8
0
  5
CB4
 10
743.104
 20
82.2022
 30
0.000000
  70
    32
  0
VERTEX
  8
0
  5
CB5
 10
743.836
 20
82.0762
 30
0.000000
  70
    32
  0
VERTEX
  8
0
  5
CB6
 10
744.568
 20
81.9520
 30
0.000000
  70
    32
  0
VERTEX
  8
0
  5
CB7
 10
745.300
 20
81.8297
 30
0.000000
  70
    32
  0
VERTEX
  8
0
  5
CB8
 10
746.032
 20
81.7092
 30
0.000000
  70
    32
  0
VERTEX
  8
0
  5
CB9
 10
746.765
 20
81.5906
 30
0.000000
  70
    32
  0
VERTEX
  8
0
  5
CBA
 10
747.499
 20
81.4738
 30
0.000000
  70
    32
  0
VERTEX
  8
0
  5
CBB
 10
748.232
 20
81.3588
 30
0.000000
  70
    32
  0
VERTEX
  8
0
  5
CBC
 10
748.966
 20
81.2456
 30
0.000000
  70
    32
  0
VERTEX
  8
0
  5
CBD
 10
749.700
 20
81.1343
 30
0.000000
  70
    32
  0
VERTEX
  8
0
  5
CBE
 10
750.434
 20
81.0247
 30
0.000000
  70
    32
  0
VERTEX
  8
0
  5
CBF
 10
751.169
 20
80.9170
 30
0.000000
  70
    32
  0
VERTEX
  8
0
  5
CC0
 10
751.904
 20
80.8110
 30
0.000000
  70
    32
  0
VERTEX
  8
0
  5
CC1
 10
752.639
 20
80.7068
 30
0.000000
  70
    32
  0
VERTEX
  8
0
  5
CC2
 10
753.374
 20
80.6044
 30
0.000000
  70
    32
  0
VERTEX
  8
0
  5
CC3
 10
754.110
 20
80.5038
 30
0.000000
  70
    32
  0
VERTEX
  8
0
  5
CC4
 10
754.845
 20
80.4049
 30
0.000000
  70
    32
  0
VERTEX
  8
0
  5
CC5
 10
755.582
 20
80.3078
 30
0.000000
  70
    32
  0
VERTEX
  8
0
  5
CC6
 10
756.318
 20
80.2125
 30
0.000000
  70
    32
  0
VERTEX
  8
0
  5
CC7
 10
757.054
 20
80.1189
 30
0.000000
  70
    32
  0
VERTEX
  8
0
  5
CC8
 10
757.791
 20
80.0270
 30
0.000000
  70
    32
  0
VERTEX
  8
0
  5
CC9
 10
758.528
 20
79.9369
 30
0.000000
  70
    32
  0
VERTEX
  8
0
  5
CCA
 10
759.265
 20
79.8484
 30
0.000000
  70
    32
  0
VERTEX
  8
0
  5
CCB
 10
760.003
 20
79.7618
 30
0.000000
  70
    32
  0
VERTEX
  8
0
  5
CCC
 10
760.740
 20
79.6768
 30
0.000000
  70
    32
  0
VERTEX
  8
0
  5
CCD
 10
761.478
 20
79.5935
 30
0.000000
  70
    32
  0
VERTEX
  8
0
  5
CCE
 10
762.216
 20
79.5120
 30
0.000000
  70
    32
  0
VERTEX
  8
0
  5
CCF
 10
762.954
 20
79.4321
 30
0.000000
  70
    32
  0
VERTEX
  8
0
  5
CD0
 10
763.692
 20
79.3540
 30
0.000000
  70
    32
  0
VERTEX
  8
0
  5
CD1
 10
764.431
 20
79.2776
 30
0.000000
  70
    32
  0
VERTEX
  8
0
  5
CD2
 10
765.169
 20
79.2028
 30
0.000000
  70
    32
  0
VERTEX
  8
0
  5
CD3
 10
765.908
 20
79.1297
 30
0.000000
  70
    32
  0
VERTEX
  8
0
  5
CD4
 10
766.647
 20
79.0583
 30
0.000000
  70
    32
  0
VERTEX
  8
0
  5
CD5
 10
767.386
 20
78.9886
 30
0.000000
  70
    32
  0
VERTEX
  8
0
  5
CD6
 10
768.126
 20
78.9206
 30
0.000000
  70
    32
  0
VERTEX
  8
0
  5
CD7
 10
768.865
 20
78.8542
 30
0.000000
  70
    32
  0
VERTEX
  8
0
  5
CD8
 10
769.605
 20
78.7895
 30
0.000000
  70
    32
  0
VERTEX
  8
0
  5
CD9
 10
770.345
 20
78.7264
 30
0.000000
  70
    32
  0
VERTEX
  8
0
  5
CDA
 10
771.084
 20
78.6650
 30
0.000000
  70
    32
  0
VERTEX
  8
0
  5
CDB
 10
771.824
 20
78.6052
 30
0.000000
  70
    32
  0
VERTEX
  8
0
  5
CDC
 10
772.565
 20
78.5471
 30
0.000000
  70
    32
  0
VERTEX
  8
0
  5
CDD
 10
773.305
 20
78.4906
 30
0.000000
  70
    32
  0
VERTEX
  8
0
  5
CDE
 10
774.045
 20
78.4358
 30
0.000000
  70
    32
  0
VERTEX
  8
0
  5
CDF
 10
774.786
 20
78.3825
 30
0.000000
  70
    32
  0
VERTEX
  8
0
  5
CE0
 10
775.526
 20
78.3309
 30
0.000000
  70
    32
  0
VERTEX
  8
0
  5
CE1
 10
776.267
 20
78.2809
 30
0.000000
  70
    32
  0
VERTEX
  8
0
  5
CE2
 10
777.008
 20
78.2326
 30
0.000000
  70
    32
  0
VERTEX
  8
0
  5
CE3
 10
777.749
 20
78.1858
 30
0.000000
  70
    32
  0
VERTEX
  8
0
  5
CE4
 10
778.490
 20
78.1406
 30
0.000000
  70
    32
  0
VERTEX
  8
0
  5
CE5
 10
779.231
 20
78.0971
 30
0.000000
  70
    32
  0
VERTEX
  8
0
  5
CE6
 10
779.972
 20
78.0551
 30
0.000000
  70
    32
  0
VERTEX
  8
0
  5
CE7
 10
780.713
 20
78.0147
 30
0.000000
  70
    32
  0
VERTEX
  8
0
  5
CE8
 10
781.454
 20
77.9759
 30
0.000000
  70
    32
  0
VERTEX
  8
0
  5
CE9
 10
782.196
 20
77.9387
 30
0.000000
  70
    32
  0
VERTEX
  8
0
  5
CEA
 10
782.937
 20
77.9031
 30
0.000000
  70
    32
  0
VERTEX
  8
0
  5
CEB
 10
783.679
 20
77.8690
 30
0.000000
  70
    32
  0
VERTEX
  8
0
  5
CEC
 10
784.420
 20
77.8365
 30
0.000000
  70
    32
  0
VERTEX
  8
0
  5
CED
 10
785.162
 20
77.8056
 30
0.000000
  70
    32
  0
VERTEX
  8
0
  5
CEE
 10
785.904
 20
77.7762
 30
0.000000
  70
    32
  0
VERTEX
  8
0
  5
CEF
 10
786.646
 20
77.7483
 30
0.000000
  70
    32
  0
VERTEX
  8
0
  5
CF0
 10
787.387
 20
77.7220
 30
0.000000
  70
    32
  0
VERTEX
  8
0
  5
CF1
 10
788.129
 20
77.6973
 30
0.000000
  70
    32
  0
VERTEX
  8
0
  5
CF2
 10
788.871
 20
77.6741
 30
0.000000
  70
    32
  0
VERTEX
  8
0
  5
CF3
 10
789.613
 20
77.6524
 30
0.000000
  70
    32
  0
VERTEX
  8
0
  5
CF4
 10
790.355
 20
77.6323
 30
0.000000
  70
    32
  0
VERTEX
  8
0
  5
CF5
 10
791.097
 20
77.6136
 30
0.000000
  70
    32
  0
VERTEX
  8
0
  5
CF6
 10
791.839
 20
77.5965
 30
0.000000
  70
    32
  0
VERTEX
  8
0
  5
CF7
 10
792.581
 20
77.5809
 30
0.000000
  70
    32
  0
VERTEX
  8
0
  5
CF8
 10
793.323
 20
77.5668
 30
0.000000
  70
    32
  0
VERTEX
  8
0
  5
CF9
 10
794.065
 20
77.5542
 30
0.000000
  70
    32
  0
VERTEX
  8
0
  5
CFA
 10
794.807
 20
77.5432
 30
0.000000
  70
    32
  0
VERTEX
  8
0
  5
CFB
 10
795.549
 20
77.5336
 30
0.000000
  70
    32
  0
VERTEX
  8
0
  5
CFC
 10
796.291
 20
77.5255
 30
0.000000
  70
    32
  0
VERTEX
  8
0
  5
CFD
 10
797.032
 20
77.5188
 30
0.000000
  70
    32
  0
VERTEX
  8
0
  5
CFE
 10
797.774
 20
77.5137
 30
0.000000
  70
    32
  0
VERTEX
  8
0
  5
CFF
 10
798.516
 20
77.5100
 30
0.000000
  70
    32
  0
VERTEX
  8
0
  5
D00
 10
799.258
 20
77.5078
 30
0.000000
  70
    32
  0
VERTEX
  8
0
  5
D01
 10
800.000
 20
77.5071
 30
0.000000
  70
    32
  0
SEQEND
  8
0
  5
D02
  0
POLYLINE
  8
0
  5
D03
  66
     1
 10
0.000000
 20
0.000000
 30
0.000000
  70
     8
  0
VERTEX
  8
0
  5
D04
 10
800.000
 20
77.5071
 30
0.000000
  70
    32
  0
VERTEX
  8
0
  5
D05
 10
800.742
 20
77.5078
 30
0.000000
  70
    32
  0
VERTEX
  8
0
  5
D06
 10
801.484
 20
77.5100
 30
0.000000
  70
    32
  0
VERTEX
  8
0
  5
D07
 10
802.226
 20
77.5137
 30
0.000000
  70
    32
  0
VERTEX
  8
0
  5
D08
 10
802.968
 20
77.5188
 30
0.000000
  70
    32
  0
VERTEX
  8
0
  5
D09
 10
803.710
 20
77.5255
 30
0.000000
  70
    32
  0
VERTEX
  8
0
  5
D0A
 10
804.451
 20
77.5336
 30
0.000000
  70
    32
  0
VERTEX
  8
0
  5
D0B
 10
805.193
 20
77.5432
 30
0.000000
  70
    32
  0
VERTEX
  8
0
  5
D0C
 10
805.935
 20
77.5542
 30
0.000000
  70
    32
  0
VERTEX
  8
0
  5
D0D
 10
806.677
 20
77.5668
 30
0.000000
  70
    32
  0
VERTEX
  8
0
  5
D0E
 10
807.419
 20
77.5809
 30
0.000000
  70
    32
  0
VERTEX
  8
0
  5
D0F
 10
808.161
 20
77.5965
 30
0.000000
  70
    32
  0
VERTEX
  8
0
  5
D10
 10
808.903
 20
77.6136
 30
0.000000
  70
    32
  0
VERTEX
  8
0
  5
D11
 10
809.645
 20
77.6323
 30
0.000000
  70
    32
  0
VERTEX
  8
0
  5
D12
 10
810.387
 20
77.6524
 30
0.000000
  70
    32
  0
VERTEX
  8
0
  5
D13
 10
811.129
 20
77.6741
 30
0.000000
  70
    32
  0
VERTEX
  8
0
  5
D14
 10
811.871
 20
77.6973
 30
0.000000
  70
    32
  0
VERTEX
  8
0
  5
D15
 10
812.613
 20
77.7220
 30
0.000000
  70
    32
  0
VERTEX
  8
0
  5
D16
 10
813.354
 20
77.7483
 30
0.000000
  70
    32
  0
VERTEX
  8
0
  5
D17
 10
814.096
 20
77.7762
 30
0.000000
  70
    32
  0
VERTEX
  8
0
  5
D18
 10
814.838
 20
77.8056
 30
0.000000
  70
    32
  0
VERTEX
  8
0
  5
D19
 10
815.580
 20
77.8365
 30
0.000000
  70
    32
  0
VERTEX
  8
0
  5
D1A
 10
816.321
 20
77.8690
 30
0.000000
  70
    32
  0
VERTEX
  8
0
  5
D1B
 10
817.063
 20
77.9031
 30
0.000000
  70
    32
  0
VERTEX
  8
0
  5
D1C
 10
817.804
 20
77.9387
 30
0.000000
  70
    32
  0
VERTEX
  8
0
  5
D1D
 10
818.546
 20
77.9759
 30
0.000000
  70
    32
  0
VERTEX
  8
0
  5
D1E
 10
819.287
 20
78.0147
 30
0.000000
  70
    32
  0
VERTEX
  8
0
  5
D1F
 10
820.028
 20
78.0551
 30
0.000000
  70
    32
  0
VERTEX
  8
0
  5
D20
 10
820.769
 20
78.0971
 30
0.000000
  70
    32
  0
VERTEX
  8
0
  5
D21
 10
821.510
 20
78.1406
 30
0.000000
  70
    32
  0
VERTEX
  8
0
  5
D22
 10
822.251
 20
78.1858
 30
0.000000
  70
    32
  0
VERTEX
  8
0
  5
D23
 10
822.992
 20
78.2326
 30
0.000000
  70
    32
  0
VERTEX
  8
0
  5
D24
 10
823.733
 20
78.2809
 30
0.000000
  70
    32
  0
VERTEX
  8
0
  5
D25
 10
824.474
 20
78.3309
 30
0.000000
  70
    32
  0
VERTEX
  8
0
  5
D26
 10
825.214
 20
78.3825
 30
0.000000
  70
    32
  0
VERTEX
  8
0
  5
D27
 10
825.955
 20
78.4358
 30
0.000000
  70
    32
  0
VERTEX
  8
0
  5
D28
 10
826.695
 20
78.4906
 30
0.000000
  70
    32
  0
VERTEX
  8
0
  5
D29
 10
827.436
 20
78.5471
 30
0.000000
  70
    32
  0
VERTEX
  8
0
  5
D2A
 10
828.176
 20
78.6052
 30
0.000000
  70
    32
  0
VERTEX
  8
0
  5
D2B
 10
828.916
 20
78.6650
 30
0.000000
  70
    32
  0
VERTEX
  8
0
  5
D2C
 10
829.655
 20
78.7264
 30
0.000000
  70
    32
  0
VERTEX
  8
0
  5
D2D
 10
830.395
 20
78.7895
 30
0.000000
  70
    32
  0
VERTEX
  8
0
  5
D2E
 10
831.135
 20
78.8542
 30
0.000000
  70
    32
  0
VERTEX
  8
0
  5
D2F
 10
831.874
 20
78.9206
 30
0.000000
  70
    32
  0
VERTEX
  8
0
  5
D30
 10
832.614
 20
78.9886
 30
0.000000
  70
    32
  0
VERTEX
  8
0
  5
D31
 10
833.353
 20
79.0583
 30
0.000000
  70
    32
  0
VERTEX
  8
0
  5
D32
 10
834.092
 20
79.1297
 30
0.000000
  70
    32
  0
VERTEX
  8
0
  5
D33
 10
834.831
 20
79.2028
 30
0.000000
  70
    32
  0
VERTEX
  8
0
  5
D34
 10
835.569
 20
79.2776
 30
0.000000
  70
    32
  0
VERTEX
  8
0
  5
D35
 10
836.308
 20
79.3540
 30
0.000000
  70
    32
  0
VERTEX
  8
0
  5
D36
 10
837.046
 20
79.4321
 30
0.000000
  70
    32
  0
VERTEX
  8
0
  5
D37
 10
837.784
 20
79.5120
 30
0.000000
  70
    32
  0
VERTEX
  8
0
  5
D38
 10
838.522
 20
79.5935
 30
0.000000
  70
    32
  0
VERTEX
  8
0
  5
D39
 10
839.260
 20
79.6768
 30
0.000000
  70
    32
  0
VERTEX
  8
0
  5
D3A
 10
839.997
 20
79.7618
 30
0.000000
  70
    32
  0
VERTEX
  8
0
  5
D3B
 10
840.735
 20
79.8484
 30
0.000000
  70
    32
  0
VERTEX
  8
0
  5
D3C
 10
841.472
 20
79.9369
 30
0.000000
  70
    32
  0
VERTEX
  8
0
  5
D3D
 10
842.209
 20
80.0270
 30
0.000000
  70
    32
  0
VERTEX
  8
0
  5
D3E
 10
842.946
 20
80.1189
 30
0.000000
  70
    32
  0
VERTEX
  8
0
  5
D3F
 10
843.682
 20
80.2125
 30
0.000000
  70
    32
  0
VERTEX
  8
0
  5
D40
 10
844.418
 20
80.3078
 30
0.000000
  70
    32
  0
VERTEX
  8
0
  5
D41
 10
845.155
 20
80.4049
 30
0.000000
  70
    32
  0
VERTEX
  8
0
  5
D42
 10
845.890
 20
80.5038
 30
0.000000
  70
    32
  0
VERTEX
  8
0
  5
D43
 10
846.626
 20
80.6044
 30
0.000000
  70
    32
  0
VERTEX
  8
0
  5
D44
 10
847.361
 20
80.7068
 30
0.000000
  70
    32
  0
VERTEX
  8
0
  5
D45
 10
848.096
 20
80.8110
 30
0.000000
  70
    32
  0
VERTEX
  8
0
  5
D46
 10
848.831
 20
80.9170
 30
0.000000
  70
    32
  0
VERTEX
  8
0
  5
D47
 10
849.566
 20
81.0247
 30
0.000000
  70
    32
  0
VERTEX
  8
0
  5
D48
 10
850.300
 20
81.1343
 30
0.000000
  70
    32
  0
VERTEX
  8
0
  5
D49
 10
851.034
 20
81.2456
 30
0.000000
  70
    32
  0
VERTEX
  8
0
  5
D4A
 10
851.768
 20
81.3588
 30
0.000000
  70
    32
  0
VERTEX
  8
0
  5
D4B
 10
852.502
 20
81.4738
 30
0.000000
  70
    32
  0
VERTEX
  8
0
  5
D4C
 10
853.235
 20
81.5906
 30
0.000000
  70
    32
  0
VERTEX
  8
0
  5
D4D
 10
853.968
 20
81.7092
 30
0.000000
  70
    32
  0
VERTEX
  8
0
  5
D4E
 10
854.700
 20
81.8297
 30
0.000000
  70
    32
  0
VERTEX
  8
0
  5
D4F
 10
855.432
 20
81.9520
 30
0.000000
  70
    32
  0
VERTEX
  8
0
  5
D50
 10
856.164
 20
82.0762
 30
0.000000
  70
    32
  0
VERTEX
  8
0
  5
D51
 10
856.896
 20
82.2022
 30
0.000000
  70
    32
  0
VERTEX
  8
0
  5
D52
 10
857.627
 20
82.3300
 30
0.000000
  70
    32
  0
VERTEX
  8
0
  5
D53
 10
858.358
 20
82.4598
 30
0.000000
  70
    32
  0
VERTEX
  8
0
  5
D54
 10
859.089
 20
82.5914
 30
0.000000
  70
    32
  0
VERTEX
  8
0
  5
D55
 10
859.819
 20
82.7249
 30
0.000000
  70
    32
  0
VERTEX
  8
0
  5
D56
 10
860.549
 20
82.8602
 30
0.000000
  70
    32
  0
VERTEX
  8
0
  5
D57
 10
861.278
 20
82.9975
 30
0.000000
  70
    32
  0
VERTEX
  8
0
  5
D58
 10
862.008
 20
83.1367
 30
0.000000
  70
    32
  0
VERTEX
  8
0
  5
D59
 10
862.736
 20
83.2777
 30
0.000000
  70
    32
  0
VERTEX
  8
0
  5
D5A
 10
863.465
 20
83.4207
 30
0.000000
  70
    32
  0
VERTEX
  8
0
  5
D5B
 10
864.193
 20
83.5656
 30
0.000000
  70
    32
  0
VERTEX
  8
0
  5
D5C
 10
864.921
 20
83.7125
 30
0.000000
  70
    32
  0
VERTEX
  8
0
  5
D5D
 10
865.648
 20
83.8612
 30
0.000000
  70
    32
  0
VERTEX
  8
0
  5
D5E
 10
866.375
 20
84.0119
 30
0.000000
  70
    32
  0
VERTEX
  8
0
  5
D5F
 10
867.101
 20
84.1645
 30
0.000000
  70
    32
  0
VERTEX
  8
0
  5
D60
 10
867.827
 20
84.3191
 30
0.000000
  70
    32
  0
VERTEX
  8
0
  5
D61
 10
868.553
 20
84.4756
 30
0.000000
  70
    32
  0
VERTEX
  8
0
  5
D62
 10
869.278
 20
84.6342
 30
0.000000
  70
    32
  0
VERTEX
  8
0
  5
D63
 10
870.003
 20
84.7946
 30
0.000000
  70
    32
  0
VERTEX
  8
0
  5
D64
 10
870.727
 20
84.9571
 30
0.000000
  70
    32
  0
VERTEX
  8
0
  5
D65
 10
871.451
 20
85.1215
 30
0.000000
  70
    32
  0
VERTEX
  8
0
  5
D66
 10
872.174
 20
85.2879
 30
0.000000
  70
    32
  0
VERTEX
  8
0
  5
D67
 10
872.897
 20
85.4563
 30
0.000000
  70
    32
  0
VERTEX
  8
0
  5
D68
 10
873.620
 20
85.6267
 30
0.000000
  70
    32
  0
VERTEX
  8
0
  5
D69
 10
874.342
 20
85.7991
 30
0.000000
  70
    32
  0
VERTEX
  8
0
  5
D6A
 10
875.063
 20
85.9736
 30
0.000000
  70
    32
  0
VERTEX
  8
0
  5
D6B
 10
875.784
 20
86.1500
 30
0.000000
  70
    32
  0
VERTEX
  8
0
  5
D6C
 10
876.505
 20
86.3285
 30
0.000000
  70
    32
  0
VERTEX
  8
0
  5
D6D
 10
877.225
 20
86.5090
 30
0.000000
  70
    32
  0
VERTEX
  8
0
  5
D6E
 10
877.945
 20
86.6915
 30
0.000000
  70
    32
  0
VERTEX
  8
0
  5
D6F
 10
878.664
 20
86.8761
 30
0.000000
  70
    32
  0
VERTEX
  8
0
  5
D70
 10
879.382
 20
87.0627
 30
0.000000
  70
    32
  0
VERTEX
  8
0
  5
D71
 10
880.101
 20
87.2514
 30
0.000000
  70
    32
  0
VERTEX
  8
0
  5
D72
 10
880.818
 20
87.4422
 30
0.000000
  70
    32
  0
VERTEX
  8
0
  5
D73
 10
881.535
 20
87.6350
 30
0.000000
  70
    32
  0
VERTEX
  8
0
  5
D74
 10
882.252
 20
87.8299
 30
0.000000
  70
    32
  0
VERTEX
  8
0
  5
D75
 10
882.967
 20
88.0269
 30
0.000000
  70
    32
  0
VERTEX
  8
0
  5
D76
 10
883.683
 20
88.2260
 30
0.000000
  70
    32
  0
VERTEX
  8
0
  5
D77
 10
884.397
 20
88.4272
 30
0.000000
  70
    32
  0
VERTEX
  8
0
  5
D78
 10
885.112
 20
88.6305
 30
0.000000
  70
    32
  0
VERTEX
  8
0
  5
D79
 10
885.825
 20
88.8360
 30
0.000000
  70
    32
  0
VERTEX
  8
0
  5
D7A
 10
886.538
 20
89.0435
 30
0.000000
  70
    32
  0
VERTEX
  8
0
  5
D7B
 10
887.250
 20
89.2532
 30
0.000000
  70
    32
  0
VERTEX
  8
0
  5
D7C
 10
887.962
 20
89.4650
 30
0.000000
  70
    32
  0
VERTEX
  8
0
  5
D7D
 10
888.673
 20
89.6790
 30
0.000000
  70
    32
  0
VERTEX
  8
0
  5
D7E
 10
889.384
 20
89.8951
 30
0.000000
  70
    32
  0
VERTEX
  8
0
  5
D7F
 10
890.093
 20
90.1134
 30
0.000000
  70
    32
  0
VERTEX
  8
0
  5
D80
 10
890.802
 20
90.3339
 30
0.000000
  70
    32
  0
VERTEX
  8
0
  5
D81
 10
891.511
 20
90.5565
 30
0.000000
  70
    32
  0
VERTEX
  8
0
  5
D82
 10
892.219
 20
90.7813
 30
0.000000
  70
    32
  0
VERTEX
  8
0
  5
D83
 10
892.925
 20
91.0084
 30
0.000000
  70
    32
  0
VERTEX
  8
0
  5
D84
 10
893.632
 20
91.2376
 30
0.000000
  70
    32
  0
VERTEX
  8
0
  5
D85
 10
894.337
 20
91.4690
 30
0.000000
  70
    32
  0
VERTEX
  8
0
  5
D86
 10
895.042
 20
91.7026
 30
0.000000
  70
    32
  0
VERTEX
  8
0
  5
D87
 10
895.746
 20
91.9385
 30
0.000000
  70
    32
  0
VERTEX
  8
0
  5
D88
 10
896.450
 20
92.1766
 30
0.000000
  70
    32
  0
VERTEX
  8
0
  5
D89
 10
897.152
 20
92.4169
 30
0.000000
  70
    32
  0
VERTEX
  8
0
  5
D8A
 10
897.854
 20
92.6595
 30
0.000000
  70
    32
  0
VERTEX
  8
0
  5
D8B
 10
898.555
 20
92.9043
 30
0.000000
  70
    32
  0
VERTEX
  8
0
  5
D8C
 10
899.255
 20
93.1514
 30
0.000000
  70
    32
  0
VERTEX
  8
0
  5
D8D
 10
899.954
 20
93.4007
 30
0.000000
  70
    32
  0
VERTEX
  8
0
  5
D8E
 10
900.653
 20
93.6524
 30
0.000000
  70
    32
  0
VERTEX
  8
0
  5
D8F
 10
901.351
 20
93.9063
 30
0.000000
  70
    32
  0
VERTEX
  8
0
  5
D90
 10
902.048
 20
94.1625
 30
0.000000
  70
    32
  0
VERTEX
  8
0
  5
D91
 10
902.744
 20
94.4210
 30
0.000000
  70
    32
  0
VERTEX
  8
0
  5
D92
 10
903.439
 20
94.6818
 30
0.000000
  70
    32
  0
VERTEX
  8
0
  5
D93
 10
904.133
 20
94.9449
 30
0.000000
  70
    32
  0
VERTEX
  8
0
  5
D94
 10
904.827
 20
95.2103
 30
0.000000
  70
    32
  0
VERTEX
  8
0
  5
D95
 10
905.519
 20
95.4781
 30
0.000000
  70
    32
  0
VERTEX
  8
0
  5
D96
 10
906.211
 20
95.7482
 30
0.000000
  70
    32
  0
VERTEX
  8
0
  5
D97
 10
906.901
 20
96.0206
 30
0.000000
  70
    32
  0
VERTEX
  8
0
  5
D98
 10
907.591
 20
96.2954
 30
0.000000
  70
    32
  0
VERTEX
  8
0
  5
D99
 10
908.280
 20
96.5726
 30
0.000000
  70
    32
  0
VERTEX
  8
0
  5
D9A
 10
908.968
 20
96.8521
 30
0.000000
  70
    32
  0
VERTEX
  8
0
  5
D9B
 10
909.655
 20
97.1340
 30
0.000000
  70
    32
  0
VERTEX
  8
0
  5
D9C
 10
910.341
 20
97.4183
 30
0.000000
  70
    32
  0
VERTEX
  8
0
  5
D9D
 10
911.026
 20
97.7049
 30
0.000000
  70
    32
  0
VERTEX
  8
0
  5
D9E
 10
911.710
 20
97.9940
 30
0.000000
  70
    32
  0
VERTEX
  8
0
  5
D9F
 10
912.393
 20
98.2854
 30
0.000000
  70
    32
  0
VERTEX
  8
0
  5
DA0
 10
913.075
 20
98.5793
 30
0.000000
  70
    32
  0
VERTEX
  8
0
  5
DA1
 10
913.756
 20
98.8756
 30
0.000000
  70
    32
  0
VERTEX
  8
0
  5
DA2
 10
914.436
 20
99.1743
 30
0.000000
  70
    32
  0
VERTEX
  8
0
  5
DA3
 10
915.115
 20
99.4754
 30
0.000000
  70
    32
  0
VERTEX
  8
0
  5
DA4
 10
915.793
 20
99.7790
 30
0.000000
  70
    32
  0
VERTEX
  8
0
  5
DA5
 10
916.470
 20
100.085
 30
0.000000
  70
    32
  0
VERTEX
  8
0
  5
DA6
 10
917.146
 20
100.393
 30
0.000000
  70
    32
  0
VERTEX
  8
0
  5
DA7
 10
917.820
 20
100.704
 30
0.000000
  70
    32
  0
VERTEX
  8
0
  5
DA8
 10
918.494
 20
101.018
 30
0.000000
  70
    32
  0
VERTEX
  8
0
  5
DA9
 10
919.166
 20
101.334
 30
0.000000
  70
    32
  0
VERTEX
  8
0
  5
DAA
 10
919.837
 20
101.652
 30
0.000000
  70
    32
  0
VERTEX
  8
0
  5
DAB
 10
920.507
 20
101.973
 30
0.000000
  70
    32
  0
VERTEX
  8
0
  5
DAC
 10
921.176
 20
102.296
 30
0.000000
  70
    32
  0
VERTEX
  8
0
  5
DAD
 10
921.843
 20
102.622
 30
0.000000
  70
    32
  0
VERTEX
  8
0
  5
DAE
 10
922.509
 20
102.950
 30
0.000000
  70
    32
  0
VERTEX
  8
0
  5
DAF
 10
923.174
 20
103.281
 30
0.000000
  70
    32
  0
VERTEX
  8
0
  5
DB0
 10
923.838
 20
103.614
 30
0.000000
  70
    32
  0
VERTEX
  8
0
  5
DB1
 10
924.501
 20
103.950
 30
0.000000
  70
    32
  0
VERTEX
  8
0
  5
DB2
 10
925.162
 20
104.289
 30
0.000000
  70
    32
  0
VERTEX
  8
0
  5
DB3
 10
925.822
 20
104.630
 30
0.000000
  70
    32
  0
VERTEX
  8
0
  5
DB4
 10
926.480
 20
104.973
 30
0.000000
  70
    32
  0
VERTEX
  8
0
  5
DB5
 10
927.138
 20
105.319
 30
0.000000
  70
    32
  0
VERTEX
  8
0
  5
DB6
 10
927.793
 20
105.668
 30
0.000000
  70
    32
  0
VERTEX
  8
0
  5
DB7
 10
928.448
 20
106.019
 30
0.000000
  70
    32
  0
VERTEX
  8
0
  5
DB8
 10
929.101
 20
106.373
 30
0.000000
  70
    32
  0
VERTEX
  8
0
  5
DB9
 10
929.753
 20
106.729
 30
0.000000
  70
    32
  0
VERTEX
  8
0
  5
DBA
 10
930.403
 20
107.088
 30
0.000000
  70
    32
  0
VERTEX
  8
0
  5
DBB
 10
931.052
 20
107.450
 30
0.000000
  70
    32
  0
VERTEX
  8
0
  5
DBC
 10
931.699
 20
107.814
 30
0.000000
  70
    32
  0
VERTEX
  8
0
  5
DBD
 10
932.345
 20
108.180
 30
0.000000
  70
    32
  0
VERTEX
  8
0
  5
DBE
 10
932.989
 20
108.550
 30
0.000000
  70
    32
  0
VERTEX
  8
0
  5
DBF
 10
933.632
 20
108.922
 30
0.000000
  70
    32
  0
VERTEX
  8
0
  5
DC0
 10
934.273
 20
109.296
 30
0.000000
  70
    32
  0
VERTEX
  8
0
  5
DC1
 10
934.913
 20
109.673
 30
0.000000
  70
    32
  0
VERTEX
  8
0
  5
DC2
 10
935.551
 20
110.053
 30
0.000000
  70
    32
  0
VERTEX
  8
0
  5
DC3
 10
936.188
 20
110.436
 30
0.000000
  70
    32
  0
VERTEX
  8
0
  5
DC4
 10
936.823
 20
110.821
 30
0.000000
  70
    32
  0
VERTEX
  8
0
  5
DC5
 10
937.457
 20
111.209
 30
0.000000
  70
    32
  0
VERTEX
  8
0
  5
DC6
 10
938.088
 20
111.599
 30
0.000000
  70
    32
  0
VERTEX
  8
0
  5
DC7
 10
938.719
 20
111.992
 30
0.000000
  70
    32
  0
VERTEX
  8
0
  5
DC8
 10
939.347
 20
112.388
 30
0.000000
  70
    32
  0
VERTEX
  8
0
  5
DC9
 10
939.974
 20
112.787
 30
0.000000
  70
    32
  0
VERTEX
  8
0
  5
DCA
 10
940.599
 20
113.188
 30
0.000000
  70
    32
  0
VERTEX
  8
0
  5
DCB
 10
941.223
 20
113.592
 30
0.000000
  70
    32
  0
VERTEX
  8
0
  5
DCC
 10
941.845
 20
113.999
 30
0.000000
  70
    32
  0
VERTEX
  8
0
  5
DCD
 10
942.465
 20
114.408
 30
0.000000
  70
    32
  0
VERTEX
  8
0
  5
DCE
 10
943.083
 20
114.820
 30
0.000000
  70
    32
  0
VERTEX
  8
0
  5
DCF
 10
943.699
 20
115.235
 30
0.000000
  70
    32
  0
VERTEX
  8
0
  5
DD0
 10
944.314
 20
115.652
 30
0.000000
  70
    32
  0
VERTEX
  8
0
  5
DD1
 10
944.927
 20
116.073
 30
0.000000
  70
    32
  0
VERTEX
  8
0
  5
DD2
 10
945.538
 20
116.496
 30
0.000000
  70
    32
  0
VERTEX
  8
0
  5
DD3
 10
946.147
 20
116.921
 30
0.000000
  70
    32
  0
VERTEX
  8
0
  5
DD4
 10
946.754
 20
117.350
 30
0.000000
  70
    32
  0
VERTEX
  8
0
  5
DD5
 10
947.360
 20
117.781
 30
0.000000
  70
    32
  0
VERTEX
  8
0
  5
DD6
 10
947.963
 20
118.215
 30
0.000000
  70
    32
  0
VERTEX
  8
0
  5
DD7
 10
948.564
 20
118.651
 30
0.000000
  70
    32
  0
VERTEX
  8
0
  5
DD8
 10
949.164
 20
119.090
 30
0.000000
  70
    32
  0
VERTEX
  8
0
  5
DD9
 10
949.761
 20
119.532
 30
0.000000
  70
    32
  0
VERTEX
  8
0
  5
DDA
 10
950.356
 20
119.977
 30
0.000000
  70
    32
  0
VERTEX
  8
0
  5
DDB
 10
950.950
 20
120.425
 30
0.000000
  70
    32
  0
VERTEX
  8
0
  5
DDC
 10
951.541
 20
120.875
 30
0.000000
  70
    32
  0
VERTEX
  8
0
  5
DDD
 10
952.130
 20
121.328
 30
0.000000
  70
    32
  0
VERTEX
  8
0
  5
DDE
 10
952.717
 20
121.783
 30
0.000000
  70
    32
  0
VERTEX
  8
0
  5
DDF
 10
953.302
 20
122.242
 30
0.000000
  70
    32
  0
VERTEX
  8
0
  5
DE0
 10
953.885
 20
122.703
 30
0.000000
  70
    32
  0
VERTEX
  8
0
  5
DE1
 10
954.465
 20
123.167
 30
0.000000
  70
    32
  0
VERTEX
  8
0
  5
DE2
 10
955.044
 20
123.634
 30
0.000000
  70
    32
  0
VERTEX
  8
0
  5
DE3
 10
955.620
 20
124.103
 30
0.000000
  70
    32
  0
VERTEX
  8
0
  5
DE4
 10
956.194
 20
124.575
 30
0.000000
  70
    32
  0
VERTEX
  8
0
  5
DE5
 10
956.765
 20
125.050
 30
0.000000
  70
    32
  0
VERTEX
  8
0
  5
DE6
 10
957.334
 20
125.527
 30
0.000000
  70
    32
  0
VERTEX
  8
0
  5
DE7
 10
957.901
 20
126.008
 30
0.000000
  70
    32
  0
VERTEX
  8
0
  5
DE8
 10
958.466
 20
126.491
 30
0.000000
  70
    32
  0
VERTEX
  8
0
  5
DE9
 10
959.028
 20
126.977
 30
0.000000
  70
    32
  0
VERTEX
  8
0
  5
DEA
 10
959.588
 20
127.465
 30
0.000000
  70
    32
  0
VERTEX
  8
0
  5
DEB
 10
960.145
 20
127.957
 30
0.000000
  70
    32
  0
VERTEX
  8
0
  5
DEC
 10
960.700
 20
128.451
 30
0.000000
  70
    32
  0
VERTEX
  8
0
  5
DED
 10
961.253
 20
128.947
 30
0.000000
  70
    32
  0
VERTEX
  8
0
  5
DEE
 10
961.803
 20
129.447
 30
0.000000
  70
    32
  0
VERTEX
  8
0
  5
DEF
 10
962.350
 20
129.949
 30
0.000000
  70
    32
  0
VERTEX
  8
0
  5
DF0
 10
962.895
 20
130.455
 30
0.000000
  70
    32
  0
VERTEX
  8
0
  5
DF1
 10
963.438
 20
130.962
 30
0.000000
  70
    32
  0
VERTEX
  8
0
  5
DF2
 10
963.978
 20
131.473
 30
0.000000
  70
    32
  0
VERTEX
  8
0
  5
DF3
 10
964.515
 20
131.986
 30
0.000000
  70
    32
  0
VERTEX
  8
0
  5
DF4
 10
965.050
 20
132.502
 30
0.000000
  70
    32
  0
VERTEX
  8
0
  5
DF5
 10
965.582
 20
133.021
 30
0.000000
  70
    32
  0
VERTEX
  8
0
  5
DF6
 10
966.111
 20
133.543
 30
0.000000
  70
    32
  0
VERTEX
  8
0
  5
DF7
 10
966.638
 20
134.067
 30
0.000000
  70
    32
  0
VERTEX
  8
0
  5
DF8
 10
967.162
 20
134.595
 30
0.000000
  70
    32
  0
VERTEX
  8
0
  5
DF9
 10
967.683
 20
135.125
 30
0.000000
  70
    32
  0
VERTEX
  8
0
  5
DFA
 10
968.201
 20
135.657
 30
0.000000
  70
    32
  0
VERTEX
  8
0
  5
DFB
 10
968.717
 20
136.193
 30
0.000000
  70
    32
  0
VERTEX
  8
0
  5
DFC
 10
969.230
 20
136.731
 30
0.000000
  70
    32
  0
VERTEX
  8
0
  5
DFD
 10
969.740
 20
137.272
 30
0.000000
  70
    32
  0
VERTEX
  8
0
  5
DFE
 10
970.247
 20
137.815
 30
0.000000
  70
    32
  0
VERTEX
  8
0
  5
DFF
 10
970.752
 20
138.361
 30
0.000000
  70
    32
  0
VERTEX
  8
0
  5
E00
 10
971.253
 20
138.910
 30
0.000000
  70
    32
  0
VERTEX
  8
0
  5
E01
 10
971.752
 20
139.462
 30
0.000000
  70
    32
  0
VERTEX
  8
0
  5
E02
 10
972.247
 20
140.016
 30
0.000000
  70
    32
  0
VERTEX
  8
0
  5
E03
 10
972.740
 20
140.573
 30
0.000000
  70
    32
  0
VERTEX
  8
0
  5
E04
 10
973.230
 20
141.132
 30
0.000000
  70
    32
  0
VERTEX
  8
0
  5
E05
 10
973.716
 20
141.694
 30
0.000000
  70
    32
  0
VERTEX
  8
0
  5
E06
 10
974.200
 20
142.259
 30
0.000000
  70
    32
  0
VERTEX
  8
0
  5
E07
 10
974.681
 20
142.826
 30
0.000000
  70
    32
  0
VERTEX
  8
0
  5
E08
 10
975.158
 20
143.396
 30
0.000000
  70
    32
  0
VERTEX
  8
0
  5
E09
 10
975.633
 20
143.969
 30
0.000000
  70
    32
  0
VERTEX
  8
0
  5
E0A
 10
976.104
 20
144.544
 30
0.000000
  70
    32
  0
VERTEX
  8
0
  5
E0B
 10
976.572
 20
145.122
 30
0.000000
  70
    32
  0
VERTEX
  8
0
  5
E0C
 10
977.037
 20
145.702
 30
0.000000
  70
    32
  0
VERTEX
  8
0
  5
E0D
 10
977.499
 20
146.285
 30
0.000000
  70
    32
  0
VERTEX
  8
0
  5
E0E
 10
977.957
 20
146.870
 30
0.000000
  70
    32
  0
VERTEX
  8
0
  5
E0F
 10
978.412
 20
147.458
 30
0.000000
  70
    32
  0
VERTEX
  8
0
  5
E10
 10
978.864
 20
148.048
 30
0.000000
  70
    32
  0
VERTEX
  8
0
  5
E11
 10
979.313
 20
148.641
 30
0.000000
  70
    32
  0
VERTEX
  8
0
  5
E12
 10
979.758
 20
149.236
 30
0.000000
  70
    32
  0
VERTEX
  8
0
  5
E13
 10
980.200
 20
149.834
 30
0.000000
  70
    32
  0
VERTEX
  8
0
  5
E14
 10
980.639
 20
150.435
 30
0.000000
  70
    32
  0
VERTEX
  8
0
  5
E15
 10
981.074
 20
151.037
 30
0.000000
  70
    32
  0
VERTEX
  8
0
  5
E16
 10
981.506
 20
151.643
 30
0.000000
  70
    32
  0
VERTEX
  8
0
  5
E17
 10
981.935
 20
152.250
 30
0.000000
  70
    32
  0
VERTEX
  8
0
  5
E18
 10
982.359
 20
152.861
 30
0.000000
  70
    32
  0
VERTEX
  8
0
  5
E19
 10
982.781
 20
153.473
 30
0.000000
  70
    32
  0
VERTEX
  8
0
  5
E1A
 10
983.199
 20
154.088
 30
0.000000
  70
    32
  0
VERTEX
  8
0
  5
E1B
 10
983.613
 20
154.706
 30
0.000000
  70
    32
  0
VERTEX
  8
0
  5
E1C
 10
984.024
 20
155.326
 30
0.000000
  70
    32
  0
VERTEX
  8
0
  5
E1D
 10
984.432
 20
155.948
 30
0.000000
  70
    32
  0
VERTEX
  8
0
  5
E1E
 10
984.835
 20
156.573
 30
0.000000
  70
    32
  0
VERTEX
  8
0
  5
E1F
 10
985.235
 20
157.200
 30
0.000000
  70
    32
  0
VERTEX
  8
0
  5
E20
 10
985.632
 20
157.829
 30
0.000000
  70
    32
  0
VERTEX
  8
0
  5
E21
 10
986.025
 20
158.461
 30
0.000000
  70
    32
  0
VERTEX
  8
0
  5
E22
 10
986.414
 20
159.095
 30
0.000000
  70
    32
  0
VERTEX
  8
0
  5
E23
 10
986.799
 20
159.731
 30
0.000000
  70
    32
  0
VERTEX
  8
0
  5
E24
 10
987.181
 20
160.370
 30
0.000000
  70
    32
  0
VERTEX
  8
0
  5
E25
 10
987.559
 20
161.011
 30
0.000000
  70
    32
  0
VERTEX
  8
0
  5
E26
 10
987.933
 20
161.654
 30
0.000000
  70
    32
  0
VERTEX
  8
0
  5
E27
 10
988.303
 20
162.299
 30
0.000000
  70
    32
  0
VERTEX
  8
0
  5
E28
 10
988.670
 20
162.947
 30
0.000000
  70
    32
  0
VERTEX
  8
0
  5
E29
 10
989.033
 20
163.597
 30
0.000000
  70
    32
  0
VERTEX
  8
0
  5
E2A
 10
989.392
 20
164.248
 30
0.000000
  70
    32
  0
VERTEX
  8
0
  5
E2B
 10
989.747
 20
164.902
 30
0.000000
  70
    32
  0
VERTEX
  8
0
  5
E2C
 10
990.099
 20
165.558
 30
0.000000
  70
    32
  0
VERTEX
  8
0
  5
E2D
 10
990.447
 20
166.217
 30
0.000000
  70
    32
  0
VERTEX
  8
0
  5
E2E
 10
990.791
 20
166.877
 30
0.000000
  70
    32
  0
VERTEX
  8
0
  5
E2F
 10
991.131
 20
167.539
 30
0.000000
  70
    32
  0
VERTEX
  8
0
  5
E30
 10
991.467
 20
168.203
 30
0.000000
  70
    32
  0
VERTEX
  8
0
  5
E31
 10
991.799
 20
168.869
 30
0.000000
  70
    32
  0
VERTEX
  8
0
  5
E32
 10
992.127
 20
169.537
 30
0.000000
  70
    32
  0
VERTEX
  8
0
  5
E33
 10
992.452
 20
170.207
 30
0.000000
  70
    32
  0
VERTEX
  8
0
  5
E34
 10
992.773
 20
170.878
 30
0.000000
  70
    32
  0
VERTEX
  8
0
  5
E35
 10
993.089
 20
171.552
 30
0.000000
  70
    32
  0
VERTEX
  8
0
  5
E36
 10
993.402
 20
172.227
 30
0.000000
  70
    32
  0
VERTEX
  8
0
  5
E37
 10
993.711
 20
172.905
 30
0.000000
  70
    32
  0
VERTEX
  8
0
  5
E38
 10
994.016
 20
173.584
 30
0.000000
  70
    32
  0
VERTEX
  8
0
  5
E39
 10
994.317
 20
174.264
 30
0.000000
  70
    32
  0
VERTEX
  8
0
  5
E3A
 10
994.614
 20
174.947
 30
0.000000
  70
    32
  0
VERTEX
  8
0
  5
E3B
 10
994.907
 20
175.631
 30
0.000000
  70
    32
  0
VERTEX
  8
0
  5
E3C
 10
995.196
 20
176.316
 30
0.000000
  70
    32
  0
VERTEX
  8
0
  5
E3D
 10
995.481
 20
177.004
 30
0.000000
  70
    32
  0
VERTEX
  8
0
  5
E3E
 10
995.762
 20
177.693
 30
0.000000
  70
    32
  0
VERTEX
  8
0
  5
E3F
 10
996.039
 20
178.383
 30
0.000000
  70
    32
  0
VERTEX
  8
0
  5
E40
 10
996.312
 20
179.076
 30
0.000000
  70
    32
  0
VERTEX
  8
0
  5
E41
 10
996.580
 20
179.769
 30
0.000000
  70
    32
  0
VERTEX
  8
0
  5
E42
 10
996.845
 20
180.464
 30
0.000000
  70
    32
  0
VERTEX
  8
0
  5
E43
 10
997.106
 20
181.161
 30
0.000000
  70
    32
  0
VERTEX
  8
0
  5
E44
 10
997.362
 20
181.859
 30
0.000000
  70
    32
  0
VERTEX
  8
0
  5
E45
 10
997.615
 20
182.559
 30
0.000000
  70
    32
  0
VERTEX
  8
0
  5
E46
 10
997.863
 20
183.260
 30
0.000000
  70
    32
  0
VERTEX
  8
0
  5
E47
 10
998.107
 20
183.962
 30
0.000000
  70
    32
  0
VERTEX
  8
0
  5
E48
 10
998.348
 20
184.666
 30
0.000000
  70
    32
  0
VERTEX
  8
0
  5
E49
 10
998.584
 20
185.371
 30
0.000000
  70
    32
  0
VERTEX
  8
0
  5
E4A
 10
998.815
 20
186.077
 30
0.000000
  70
    32
  0
VERTEX
  8
0
  5
E4B
 10
999.043
 20
186.784
 30
0.000000
  70
    32
  0
VERTEX
  8
0
  5
E4C
 10
999.266
 20
187.493
 30
0.000000
  70
    32
  0
VERTEX
  8
0
  5
E4D
 10
999.486
 20
188.203
 30
0.000000
  70
    32
  0
VERTEX
  8
0
  5
E4E
 10
999.701
 20
188.914
 30
0.000000
  70
    32
  0
VERTEX
  8
0
  5
E4F
 10
999.911
 20
189.627
 30
0.000000
  70
    32
  0
VERTEX
  8
0
  5
E50
 10
1000.12
 20
190.340
 30
0.000000
  70
    32
  0
VERTEX
  8
0
  5
E51
 10
1000.32
 20
191.055
 30
0.000000
  70
    32
  0
VERTEX
  8
0
  5
E52
 10
1000.52
 20
191.771
 30
0.000000
  70
    32
  0
VERTEX
  8
0
  5
E53
 10
1000.71
 20
192.487
 30
0.000000
  70
    32
  0
VERTEX
  8
0
  5
E54
 10
1000.90
 20
193.205
 30
0.000000
  70
    32
  0
VERTEX
  8
0
  5
E55
 10
1001.09
 20
193.924
 30
0.000000
  70
    32
  0
VERTEX
  8
0
  5
E56
 10
1001.27
 20
194.644
 30
0.000000
  70
    32
  0
VERTEX
  8
0
  5
E57
 10
1001.45
 20
195.365
 30
0.000000
  70
    32
  0
VERTEX
  8
0
  5
E58
 10
1001.62
 20
196.087
 30
0.000000
  70
    32
  0
VERTEX
  8
0
  5
E59
 10
1001.79
 20
196.810
 30
0.000000
  70
    32
  0
VERTEX
  8
0
  5
E5A
 10
1001.95
 20
197.534
 30
0.000000
  70
    32
  0
VERTEX
  8
0
  5
E5B
 10
1002.11
 20
198.259
 30
0.000000
  70
    32
  0
VERTEX
  8
0
  5
E5C
 10
1002.27
 20
198.984
 30
0.000000
  70
    32
  0
VERTEX
  8
0
  5
E5D
 10
1002.42
 20
199.711
 30
0.000000
  70
    32
  0
VERTEX
  8
0
  5
E5E
 10
1002.57
 20
200.438
 30
0.000000
  70
    32
  0
VERTEX
  8
0
  5
E5F
 10
1002.72
 20
201.166
 30
0.000000
  70
    32
  0
VERTEX
  8
0
  5
E60
 10
1002.86
 20
201.895
 30
0.000000
  70
    32
  0
VERTEX
  8
0
  5
E61
 10
1002.99
 20
202.625
 30
0.000000
  70
    32
  0
VERTEX
  8
0
  5
E62
 10
1003.12
 20
203.355
 30
0.000000
  70
    32
  0
VERTEX
  8
0
  5
E63
 10
1003.25
 20
204.087
 30
0.000000
  70
    32
  0
VERTEX
  8
0
  5
E64
 10
1003.38
 20
204.819
 30
0.000000
  70
    32
  0
VERTEX
  8
0
  5
E65
 10
1003.49
 20
205.551
 30
0.000000
  70
    32
  0
VERTEX
  8
0
  5
E66
 10
1003.61
 20
206.285
 30
0.000000
  70
    32
  0
VERTEX
  8
0
  5
E67
 10
1003.72
 20
207.019
 30
0.000000
  70
    32
  0
VERTEX
  8
0
  5
E68
 10
1003.83
 20
207.754
 30
0.000000
  70
    32
  0
VERTEX
  8
0
  5
E69
 10
1003.93
 20
208.489
 30
0.000000
  70
    32
  0
VERTEX
  8
0
  5
E6A
 10
1004.03
 20
209.225
 30
0.000000
  70
    32
  0
VERTEX
  8
0
  5
E6B
 10
1004.13
 20
209.961
 30
0.000000
  70
    32
  0
VERTEX
  8
0
  5
E6C
 10
1004.22
 20
210.698
 30
0.000000
  70
    32
  0
VERTEX
  8
0
  5
E6D
 10
1004.31
 20
211.436
 30
0.000000
  70
    32
  0
VERTEX
  8
0
  5
E6E
 10
1004.39
 20
212.174
 30
0.000000
  70
    32
  0
VERTEX
  8
0
  5
E6F
 10
1004.47
 20
212.912
 30
0.000000
  70
    32
  0
VERTEX
  8
0
  5
E70
 10
1004.54
 20
213.651
 30
0.000000
  70
    32
  0
VERTEX
  8
0
  5
E71
 10
1004.62
 20
214.390
 30
0.000000
  70
    32
  0
VERTEX
  8
0
  5
E72
 10
1004.68
 20
215.130
 30
0.000000
  70
    32
  0
VERTEX
  8
0
  5
E73
 10
1004.75
 20
215.870
 30
0.000000
  70
    32
  0
VERTEX
  8
0
  5
E74
 10
1004.81
 20
216.610
 30
0.000000
  70
    32
  0
VERTEX
  8
0
  5
E75
 10
1004.86
 20
217.351
 30
0.000000
  70
    32
  0
VERTEX
  8
0
  5
E76
 10
1004.91
 20
218.092
 30
0.000000
  70
    32
  0
VERTEX
  8
0
  5
E77
 10
1004.96
 20
218.833
 30
0.000000
  70
    32
  0
VERTEX
  8
0
  5
E78
 10
1005.01
 20
219.574
 30
0.000000
  70
    32
  0
VERTEX
  8
0
  5
E79
 10
1005.05
 20
220.316
 30
0.000000
  70
    32
  0
VERTEX
  8
0
  5
E7A
 10
1005.08
 20
221.057
 30
0.000000
  70
    32
  0
VERTEX
  8
0
  5
E7B
 10
1005.12
 20
221.799
 30
0.000000
  70
    32
  0
VERTEX
  8
0
  5
E7C
 10
1005.14
 20
222.541
 30
0.000000
  70
    32
  0
VERTEX
  8
0
  5
E7D
 10
1005.17
 20
223.283
 30
0.000000
  70
    32
  0
VERTEX
  8
0
  5
E7E
 10
1005.19
 20
224.025
 30
0.000000
  70
    32
  0
VERTEX
  8
0
  5
E7F
 10
1005.21
 20
224.767
 30
0.000000
  70
    32
  0
VERTEX
  8
0
  5
E80
 10
1005.22
 20
225.509
 30
0.000000
  70
    32
  0
VERTEX
  8
0
  5
E81
 10
1005.23
 20
226.251
 30
0.000000
  70
    32
  0
VERTEX
  8
0
  5
E82
 10
1005.23
 20
226.993
 30
0.000000
  70
    32
  0
VERTEX
  8
0
  5
E83
 10
1005.24
 20
227.735
 30
0.000000
  70
    32
  0
SEQEND
  8
0
  5
E84
  0
POLYLINE
  8
0
  5
E85
  66
     1
 10
0.000000
 20
0.000000
 30
0.000000
  70
     8
  0
VERTEX
  8
0
  5
E86
 10
275.128
 20
326.024
 30
0.000000
  70
    32
  0
VERTEX
  8
0
  5
E87
 10
275.244
 20
326.127
 30
0.000000
  70
    32
  0
VERTEX
  8
0
  5
E88
 10
275.361
 20
326.229
 30
0.000000
  70
    32
  0
VERTEX
  8
0
  5
E89
 10
275.478
 20
326.330
 30
0.000000
  70
    32
  0
VERTEX
  8
0
  5
E8A
 10
275.595
 20
326.431
 30
0.000000
  70
    32
  0
VERTEX
  8
0
  5
E8B
 10
275.713
 20
326.531
 30
0.000000
  70
    32
  0
VERTEX
  8
0
  5
E8C
 10
275.832
 20
326.632
 30
0.000000
  70
    32
  0
VERTEX
  8
0
  5
E8D
 10
275.951
 20
326.731
 30
0.000000
  70
    32
  0
VERTEX
  8
0
  5
E8E
 10
276.070
 20
326.830
 30
0.000000
  70
    32
  0
VERTEX
  8
0
  5
E8F
 10
276.190
 20
326.929
 30
0.000000
  70
    32
  0
VERTEX
  8
0
  5
E90
 10
276.310
 20
327.027
 30
0.000000
  70
    32
  0
VERTEX
  8
0
  5
E91
 10
276.430
 20
327.124
 30
0.000000
  70
    32
  0
VERTEX
  8
0
  5
E92
 10
276.551
 20
327.222
 30
0.000000
  70
    32
  0
VERTEX
  8
0
  5
E93
 10
276.672
 20
327.318
 30
0.000000
  70
    32
  0
VERTEX
  8
0
  5
E94
 10
276.794
 20
327.414
 30
0.000000
  70
    32
  0
VERTEX
  8
0
  5
E95
 10
276.916
 20
327.510
 30
0.000000
  70
    32
  0
VERTEX
  8
0
  5
E96
 10
277.039
 20
327.605
 30
0.000000
  70
    32
  0
VERTEX
  8
0
  5
E97
 10
277.162
 20
327.700
 30
0.000000
  70
    32
  0
VERTEX
  8
0
  5
E98
 10
277.285
 20
327.794
 30
0.000000
  70
    32
  0
VERTEX
  8
0
  5
E99
 10
277.409
 20
327.888
 30
0.000000
  70
    32
  0
VERTEX
  8
0
  5
E9A
 10
277.533
 20
327.981
 30
0.000000
  70
    32
  0
VERTEX
  8
0
  5
E9B
 10
277.658
 20
328.074
 30
0.000000
  70
    32
  0
VERTEX
  8
0
  5
E9C
 10
277.783
 20
328.166
 30
0.000000
  70
    32
  0
VERTEX
  8
0
  5
E9D
 10
277.908
 20
328.258
 30
0.000000
  70
    32
  0
VERTEX
  8
0
  5
E9E
 10
278.034
 20
328.349
 30
0.000000
  70
    32
  0
VERTEX
  8
0
  5
E9F
 10
278.160
 20
328.440
 30
0.000000
  70
    32
  0
VERTEX
  8
0
  5
EA0
 10
278.287
 20
328.530
 30
0.000000
  70
    32
  0
VERTEX
  8
0
  5
EA1
 10
278.414
 20
328.620
 30
0.000000
  70
    32
  0
VERTEX
  8
0
  5
EA2
 10
278.541
 20
328.709
 30
0.000000
  70
    32
  0
VERTEX
  8
0
  5
EA3
 10
278.669
 20
328.798
 30
0.000000
  70
    32
  0
VERTEX
  8
0
  5
EA4
 10
278.797
 20
328.886
 30
0.000000
  70
    32
  0
VERTEX
  8
0
  5
EA5
 10
278.925
 20
328.974
 30
0.000000
  70
    32
  0
VERTEX
  8
0
  5
EA6
 10
279.054
 20
329.061
 30
0.000000
  70
    32
  0
VERTEX
  8
0
  5
EA7
 10
279.183
 20
329.148
 30
0.000000
  70
    32
  0
VERTEX
  8
0
  5
EA8
 10
279.312
 20
329.234
 30
0.000000
  70
    32
  0
VERTEX
  8
0
  5
EA9
 10
279.442
 20
329.319
 30
0.000000
  70
    32
  0
VERTEX
  8
0
  5
EAA
 10
279.573
 20
329.404
 30
0.000000
  70
    32
  0
VERTEX
  8
0
  5
EAB
 10
279.703
 20
329.489
 30
0.000000
  70
    32
  0
VERTEX
  8
0
  5
EAC
 10
279.834
 20
329.573
 30
0.000000
  70
    32
  0
VERTEX
  8
0
  5
EAD
 10
279.966
 20
329.656
 30
0.000000
  70
    32
  0
VERTEX
  8
0
  5
EAE
 10
280.097
 20
329.739
 30
0.000000
  70
    32
  0
VERTEX
  8
0
  5
EAF
 10
280.229
 20
329.822
 30
0.000000
  70
    32
  0
VERTEX
  8
0
  5
EB0
 10
280.362
 20
329.904
 30
0.000000
  70
    32
  0
VERTEX
  8
0
  5
EB1
 10
280.494
 20
329.985
 30
0.000000
  70
    32
  0
VERTEX
  8
0
  5
EB2
 10
280.627
 20
330.066
 30
0.000000
  70
    32
  0
VERTEX
  8
0
  5
EB3
 10
280.761
 20
330.146
 30
0.000000
  70
    32
  0
VERTEX
  8
0
  5
EB4
 10
280.894
 20
330.226
 30
0.000000
  70
    32
  0
VERTEX
  8
0
  5
EB5
 10
281.029
 20
330.305
 30
0.000000
  70
    32
  0
VERTEX
  8
0
  5
EB6
 10
281.163
 20
330.384
 30
0.000000
  70
    32
  0
VERTEX
  8
0
  5
EB7
 10
281.298
 20
330.462
 30
0.000000
  70
    32
  0
VERTEX
  8
0
  5
EB8
 10
281.433
 20
330.539
 30
0.000000
  70
    32
  0
VERTEX
  8
0
  5
EB9
 10
281.568
 20
330.616
 30
0.000000
  70
    32
  0
VERTEX
  8
0
  5
EBA
 10
281.704
 20
330.692
 30
0.000000
  70
    32
  0
VERTEX
  8
0
  5
EBB
 10
281.840
 20
330.768
 30
0.000000
  70
    32
  0
VERTEX
  8
0
  5
EBC
 10
281.976
 20
330.844
 30
0.000000
  70
    32
  0
VERTEX
  8
0
  5
EBD
 10
282.113
 20
330.918
 30
0.000000
  70
    32
  0
VERTEX
  8
0
  5
EBE
 10
282.250
 20
330.992
 30
0.000000
  70
    32
  0
VERTEX
  8
0
  5
EBF
 10
282.387
 20
331.066
 30
0.000000
  70
    32
  0
VERTEX
  8
0
  5
EC0
 10
282.525
 20
331.139
 30
0.000000
  70
    32
  0
VERTEX
  8
0
  5
EC1
 10
282.663
 20
331.212
 30
0.000000
  70
    32
  0
VERTEX
  8
0
  5
EC2
 10
282.801
 20
331.283
 30
0.000000
  70
    32
  0
VERTEX
  8
0
  5
EC3
 10
282.939
 20
331.355
 30
0.000000
  70
    32
  0
VERTEX
  8
0
  5
EC4
 10
283.078
 20
331.425
 30
0.000000
  70
    32
  0
VERTEX
  8
0
  5
EC5
 10
283.217
 20
331.496
 30
0.000000
  70
    32
  0
VERTEX
  8
0
  5
EC6
 10
283.357
 20
331.565
 30
0.000000
  70
    32
  0
VERTEX
  8
0
  5
EC7
 10
283.496
 20
331.634
 30
0.000000
  70
    32
  0
VERTEX
  8
0
  5
EC8
 10
283.636
 20
331.703
 30
0.000000
  70
    32
  0
VERTEX
  8
0
  5
EC9
 10
283.776
 20
331.770
 30
0.000000
  70
    32
  0
VERTEX
  8
0
  5
ECA
 10
283.917
 20
331.838
 30
0.000000
  70
    32
  0
VERTEX
  8
0
  5
ECB
 10
284.058
 20
331.904
 30
0.000000
  70
    32
  0
VERTEX
  8
0
  5
ECC
 10
284.199
 20
331.970
 30
0.000000
  70
    32
  0
VERTEX
  8
0
  5
ECD
 10
284.340
 20
332.036
 30
0.000000
  70
    32
  0
VERTEX
  8
0
  5
ECE
 10
284.482
 20
332.101
 30
0.000000
  70
    32
  0
VERTEX
  8
0
  5
ECF
 10
284.624
 20
332.165
 30
0.000000
  70
    32
  0
VERTEX
  8
0
  5
ED0
 10
284.766
 20
332.229
 30
0.000000
  70
    32
  0
VERTEX
  8
0
  5
ED1
 10
284.909
 20
332.292
 30
0.000000
  70
    32
  0
VERTEX
  8
0
  5
ED2
 10
285.051
 20
332.354
 30
0.000000
  70
    32
  0
VERTEX
  8
0
  5
ED3
 10
285.194
 20
332.416
 30
0.000000
  70
    32
  0
VERTEX
  8
0
  5
ED4
 10
285.338
 20
332.477
 30
0.000000
  70
    32
  0
VERTEX
  8
0
  5
ED5
 10
285.481
 20
332.538
 30
0.000000
  70
    32
  0
VERTEX
  8
0
  5
ED6
 10
285.625
 20
332.598
 30
0.000000
  70
    32
  0
VERTEX
  8
0
  5
ED7
 10
285.769
 20
332.657
 30
0.000000
  70
    32
  0
VERTEX
  8
0
  5
ED8
 10
285.913
 20
332.716
 30
0.000000
  70
    32
  0
VERTEX
  8
0
  5
ED9
 10
286.058
 20
332.774
 30
0.000000
  70
    32
  0
VERTEX
  8
0
  5
EDA
 10
286.202
 20
332.832
 30
0.000000
  70
    32
  0
VERTEX
  8
0
  5
EDB
 10
286.347
 20
332.889
 30
0.000000
  70
    32
  0
VERTEX
  8
0
  5
EDC
 10
286.493
 20
332.945
 30
0.000000
  70
    32
  0
VERTEX
  8
0
  5
EDD
 10
286.638
 20
333.001
 30
0.000000
  70
    32
  0
VERTEX
  8
0
  5
EDE
 10
286.784
 20
333.056
 30
0.000000
  70
    32
  0
VERTEX
  8
0
  5
EDF
 10
286.930
 20
333.111
 30
0.000000
  70
    32
  0
VERTEX
  8
0
  5
EE0
 10
287.076
 20
333.165
 30
0.000000
  70
    32
  0
VERTEX
  8
0
  5
EE1
 10
287.222
 20
333.218
 30
0.000000
  70
    32
  0
VERTEX
  8
0
  5
EE2
 10
287.369
 20
333.271
 30
0.000000
  70
    32
  0
VERTEX
  8
0
  5
EE3
 10
287.516
 20
333.323
 30
0.000000
  70
    32
  0
VERTEX
  8
0
  5
EE4
 10
287.663
 20
333.374
 30
0.000000
  70
    32
  0
VERTEX
  8
0
  5
EE5
 10
287.810
 20
333.425
 30
0.000000
  70
    32
  0
VERTEX
  8
0
  5
EE6
 10
287.958
 20
333.475
 30
0.000000
  70
    32
  0
VERTEX
  8
0
  5
EE7
 10
288.105
 20
333.525
 30
0.000000
  70
    32
  0
VERTEX
  8
0
  5
EE8
 10
288.253
 20
333.574
 30
0.000000
  70
    32
  0
VERTEX
  8
0
  5
EE9
 10
288.401
 20
333.622
 30
0.000000
  70
    32
  0
VERTEX
  8
0
  5
EEA
 10
288.550
 20
333.670
 30
0.000000
  70
    32
  0
VERTEX
  8
0
  5
EEB
 10
288.698
 20
333.717
 30
0.000000
  70
    32
  0
VERTEX
  8
0
  5
EEC
 10
288.847
 20
333.764
 30
0.000000
  70
    32
  0
VERTEX
  8
0
  5
EED
 10
288.995
 20
333.810
 30
0.000000
  70
    32
  0
VERTEX
  8
0
  5
EEE
 10
289.144
 20
333.855
 30
0.000000
  70
    32
  0
VERTEX
  8
0
  5
EEF
 10
289.294
 20
333.899
 30
0.000000
  70
    32
  0
VERTEX
  8
0
  5
EF0
 10
289.443
 20
333.944
 30
0.000000
  70
    32
  0
VERTEX
  8
0
  5
EF1
 10
289.593
 20
333.987
 30
0.000000
  70
    32
  0
VERTEX
  8
0
  5
EF2
 10
289.742
 20
334.030
 30
0.000000
  70
    32
  0
VERTEX
  8
0
  5
EF3
 10
289.892
 20
334.072
 30
0.000000
  70
    32
  0
VERTEX
  8
0
  5
EF4
 10
290.042
 20
334.113
 30
0.000000
  70
    32
  0
VERTEX
  8
0
  5
EF5
 10
290.192
 20
334.154
 30
0.000000
  70
    32
  0
VERTEX
  8
0
  5
EF6
 10
290.343
 20
334.195
 30
0.000000
  70
    32
  0
VERTEX
  8
0
  5
EF7
 10
290.493
 20
334.234
 30
0.000000
  70
    32
  0
VERTEX
  8
0
  5
EF8
 10
290.644
 20
334.273
 30
0.000000
  70
    32
  0
VERTEX
  8
0
  5
EF9
 10
290.795
 20
334.312
 30
0.000000
  70
    32
  0
VERTEX
  8
0
  5
EFA
 10
290.946
 20
334.350
 30
0.000000
  70
    32
  0
VERTEX
  8
0
  5
EFB
 10
291.097
 20
334.387
 30
0.000000
  70
    32
  0
VERTEX
  8
0
  5
EFC
 10
291.248
 20
334.423
 30
0.000000
  70
    32
  0
VERTEX
  8
0
  5
EFD
 10
291.400
 20
334.459
 30
0.000000
  70
    32
  0
VERTEX
  8
0
  5
EFE
 10
291.551
 20
334.495
 30
0.000000
  70
    32
  0
VERTEX
  8
0
  5
EFF
 10
291.703
 20
334.529
 30
0.000000
  70
    32
  0
VERTEX
  8
0
  5
F00
 10
291.855
 20
334.563
 30
0.000000
  70
    32
  0
VERTEX
  8
0
  5
F01
 10
292.007
 20
334.597
 30
0.000000
  70
    32
  0
VERTEX
  8
0
  5
F02
 10
292.159
 20
334.630
 30
0.000000
  70
    32
  0
VERTEX
  8
0
  5
F03
 10
292.311
 20
334.662
 30
0.000000
  70
    32
  0
VERTEX
  8
0
  5
F04
 10
292.463
 20
334.693
 30
0.000000
  70
    32
  0
VERTEX
  8
0
  5
F05
 10
292.616
 20
334.724
 30
0.000000
  70
    32
  0
VERTEX
  8
0
  5
F06
 10
292.768
 20
334.755
 30
0.000000
  70
    32
  0
VERTEX
  8
0
  5
F07
 10
292.921
 20
334.784
 30
0.000000
  70
    32
  0
VERTEX
  8
0
  5
F08
 10
293.074
 20
334.813
 30
0.000000
  70
    32
  0
VERTEX
  8
0
  5
F09
 10
293.226
 20
334.842
 30
0.000000
  70
    32
  0
VERTEX
  8
0
  5
F0A
 10
293.379
 20
334.869
 30
0.000000
  70
    32
  0
VERTEX
  8
0
  5
F0B
 10
293.532
 20
334.897
 30
0.000000
  70
    32
  0
VERTEX
  8
0
  5
F0C
 10
293.685
 20
334.923
 30
0.000000
  70
    32
  0
VERTEX
  8
0
  5
F0D
 10
293.839
 20
334.949
 30
0.000000
  70
    32
  0
VERTEX
  8
0
  5
F0E
 10
293.992
 20
334.974
 30
0.000000
  70
    32
  0
VERTEX
  8
0
  5
F0F
 10
294.145
 20
334.999
 30
0.000000
  70
    32
  0
VERTEX
  8
0
  5
F10
 10
294.299
 20
335.023
 30
0.000000
  70
    32
  0
VERTEX
  8
0
  5
F11
 10
294.452
 20
335.046
 30
0.000000
  70
    32
  0
VERTEX
  8
0
  5
F12
 10
294.606
 20
335.069
 30
0.000000
  70
    32
  0
VERTEX
  8
0
  5
F13
 10
294.760
 20
335.091
 30
0.000000
  70
    32
  0
VERTEX
  8
0
  5
F14
 10
294.913
 20
335.113
 30
0.000000
  70
    32
  0
VERTEX
  8
0
  5
F15
 10
295.067
 20
335.133
 30
0.000000
  70
    32
  0
VERTEX
  8
0
  5
F16
 10
295.221
 20
335.154
 30
0.000000
  70
    32
  0
VERTEX
  8
0
  5
F17
 10
295.375
 20
335.173
 30
0.000000
  70
    32
  0
VERTEX
  8
0
  5
F18
 10
295.529
 20
335.192
 30
0.000000
  70
    32
  0
VERTEX
  8
0
  5
F19
 10
295.683
 20
335.210
 30
0.000000
  70
    32
  0
VERTEX
  8
0
  5
F1A
 10
295.837
 20
335.228
 30
0.000000
  70
    32
  0
VERTEX
  8
0
  5
F1B
 10
295.991
 20
335.245
 30
0.000000
  70
    32
  0
VERTEX
  8
0
  5
F1C
 10
296.146
 20
335.261
 30
0.000000
  70
    32
  0
VERTEX
  8
0
  5
F1D
 10
296.300
 20
335.277
 30
0.000000
  70
    32
  0
VERTEX
  8
0
  5
F1E
 10
296.454
 20
335.292
 30
0.000000
  70
    32
  0
VERTEX
  8
0
  5
F1F
 10
296.608
 20
335.307
 30
0.000000
  70
    32
  0
VERTEX
  8
0
  5
F20
 10
296.763
 20
335.321
 30
0.000000
  70
    32
  0
VERTEX
  8
0
  5
F21
 10
296.917
 20
335.334
 30
0.000000
  70
    32
  0
VERTEX
  8
0
  5
F22
 10
297.072
 20
335.346
 30
0.000000
  70
    32
  0
VERTEX
  8
0
  5
F23
 10
297.226
 20
335.358
 30
0.000000
  70
    32
  0
VERTEX
  8
0
  5
F24
 10
297.381
 20
335.369
 30
0.000000
  70
    32
  0
VERTEX
  8
0
  5
F25
 10
297.535
 20
335.380
 30
0.000000
  70
    32
  0
SEQEND
  8
0
  5
F26
  0
POLYLINE
  8
0
  5
F27
  66
     1
 10
0.000000
 20
0.000000
 30
0.000000
  70
     8
  0
VERTEX
  8
0
  5
F28
 10
824.872
 20
326.024
 30
0.000000
  70
    32
  0
VERTEX
  8
0
  5
F29
 10
824.756
 20
326.127
 30
0.000000
  70
    32
  0
VERTEX
  8
0
  5
F2A
 10
824.639
 20
326.229
 30
0.000000
  70
    32
  0
VERTEX
  8
0
  5
F2B
 10
824.522
 20
326.330
 30
0.000000
  70
    32
  0
VERTEX
  8
0
  5
F2C
 10
824.405
 20
326.431
 30
0.000000
  70
    32
  0
VERTEX
  8
0
  5
F2D
 10
824.287
 20
326.531
 30
0.000000
  70
    32
  0
VERTEX
  8
0
  5
F2E
 10
824.168
 20
326.632
 30
0.000000
  70
    32
  0
VERTEX
  8
0
  5
F2F
 10
824.049
 20
326.731
 30
0.000000
  70
    32
  0
VERTEX
  8
0
  5
F30
 10
823.930
 20
326.830
 30
0.000000
  70
    32
  0
VERTEX
  8
0
  5
F31
 10
823.810
 20
326.929
 30
0.000000
  70
    32
  0
VERTEX
  8
0
  5
F32
 10
823.690
 20
327.027
 30
0.000000
  70
    32
  0
VERTEX
  8
0
  5
F33
 10
823.570
 20
327.124
 30
0.000000
  70
    32
  0
VERTEX
  8
0
  5
F34
 10
823.449
 20
327.222
 30
0.000000
  70
    32
  0
VERTEX
  8
0
  5
F35
 10
823.328
 20
327.318
 30
0.000000
  70
    32
  0
VERTEX
  8
0
  5
F36
 10
823.206
 20
327.414
 30
0.000000
  70
    32
  0
VERTEX
  8
0
  5
F37
 10
823.084
 20
327.510
 30
0.000000
  70
    32
  0
VERTEX
  8
0
  5
F38
 10
822.961
 20
327.605
 30
0.000000
  70
    32
  0
VERTEX
  8
0
  5
F39
 10
822.838
 20
327.700
 30
0.000000
  70
    32
  0
VERTEX
  8
0
  5
F3A
 10
822.715
 20
327.794
 30
0.000000
  70
    32
  0
VERTEX
  8
0
  5
F3B
 10
822.591
 20
327.888
 30
0.000000
  70
    32
  0
VERTEX
  8
0
  5
F3C
 10
822.467
 20
327.981
 30
0.000000
  70
    32
  0
VERTEX
  8
0
  5
F3D
 10
822.342
 20
328.074
 30
0.000000
  70
    32
  0
VERTEX
  8
0
  5
F3E
 10
822.217
 20
328.166
 30
0.000000
  70
    32
  0
VERTEX
  8
0
  5
F3F
 10
822.092
 20
328.258
 30
0.000000
  70
    32
  0
VERTEX
  8
0
  5
F40
 10
821.966
 20
328.349
 30
0.000000
  70
    32
  0
VERTEX
  8
0
  5
F41
 10
821.840
 20
328.440
 30
0.000000
  70
    32
  0
VERTEX
  8
0
  5
F42
 10
821.713
 20
328.530
 30
0.000000
  70
    32
  0
VERTEX
  8
0
  5
F43
 10
821.586
 20
328.620
 30
0.000000
  70
    32
  0
VERTEX
  8
0
  5
F44
 10
821.459
 20
328.709
 30
0.000000
  70
    32
  0
VERTEX
  8
0
  5
F45
 10
821.331
 20
328.798
 30
0.000000
  70
    32
  0
VERTEX
  8
0
  5
F46
 10
821.203
 20
328.886
 30
0.000000
  70
    32
  0
VERTEX
  8
0
  5
F47
 10
821.075
 20
328.974
 30
0.000000
  70
    32
  0
VERTEX
  8
0
  5
F48
 10
820.946
 20
329.061
 30
0.000000
  70
    32
  0
VERTEX
  8
0
  5
F49
 10
820.817
 20
329.148
 30
0.000000
  70
    32
  0
VERTEX
  8
0
  5
F4A
 10
820.688
 20
329.234
 30
0.000000
  70
    32
  0
VERTEX
  8
0
  5
F4B
 10
820.558
 20
329.319
 30
0.000000
  70
    32
  0
VERTEX
  8
0
  5
F4C
 10
820.427
 20
329.404
 30
0.000000
  70
    32
  0
VERTEX
  8
0
  5
F4D
 10
820.297
 20
329.489
 30
0.000000
  70
    32
  0
VERTEX
  8
0
  5
F4E
 10
820.166
 20
329.573
 30
0.000000
  70
    32
  0
VERTEX
  8
0
  5
F4F
 10
820.034
 20
329.656
 30
0.000000
  70
    32
  0
VERTEX
  8
0
  5
F50
 10
819.903
 20
329.739
 30
0.000000
  70
    32
  0
VERTEX
  8
0
  5
F51
 10
819.771
 20
329.822
 30
0.000000
  70
    32
  0
VERTEX
  8
0
  5
F52
 10
819.638
 20
329.904
 30
0.000000
  70
    32
  0
VERTEX
  8
0
  5
F53
 10
819.506
 20
329.985
 30
0.000000
  70
    32
  0
VERTEX
  8
0
  5
F54
 10
819.373
 20
330.066
 30
0.000000
  70
    32
  0
VERTEX
  8
0
  5
F55
 10
819.239
 20
330.146
 30
0.000000
  70
    32
  0
VERTEX
  8
0
  5
F56
 10
819.106
 20
330.226
 30
0.000000
  70
    32
  0
VERTEX
  8
0
  5
F57
 10
818.971
 20
330.305
 30
0.000000
  70
    32
  0
VERTEX
  8
0
  5
F58
 10
818.837
 20
330.384
 30
0.000000
  70
    32
  0
VERTEX
  8
0
  5
F59
 10
818.702
 20
330.462
 30
0.000000
  70
    32
  0
VERTEX
  8
0
  5
F5A
 10
818.567
 20
330.539
 30
0.000000
  70
    32
  0
VERTEX
  8
0
  5
F5B
 10
818.432
 20
330.616
 30
0.000000
  70
    32
  0
VERTEX
  8
0
  5
F5C
 10
818.296
 20
330.692
 30
0.000000
  70
    32
  0
VERTEX
  8
0
  5
F5D
 10
818.160
 20
330.768
 30
0.000000
  70
    32
  0
VERTEX
  8
0
  5
F5E
 10
818.024
 20
330.844
 30
0.000000
  70
    32
  0
VERTEX
  8
0
  5
F5F
 10
817.887
 20
330.918
 30
0.000000
  70
    32
  0
VERTEX
  8
0
  5
F60
 10
817.750
 20
330.992
 30
0.000000
  70
    32
  0
VERTEX
  8
0
  5
F61
 10
817.613
 20
331.066
 30
0.000000
  70
    32
  0
VERTEX
  8
0
  5
F62
 10
817.475
 20
331.139
 30
0.000000
  70
    32
  0
VERTEX
  8
0
  5
F63
 10
817.337
 20
331.212
 30
0.000000
  70
    32
  0
VERTEX
  8
0
  5
F64
 10
817.199
 20
331.283
 30
0.000000
  70
    32
  0
VERTEX
  8
0
  5
F65
 10
817.061
 20
331.355
 30
0.000000
  70
    32
  0
VERTEX
  8
0
  5
F66
 10
816.922
 20
331.425
 30
0.000000
  70
    32
  0
VERTEX
  8
0
  5
F67
 10
816.783
 20
331.496
 30
0.000000
  70
    32
  0
VERTEX
  8
0
  5
F68
 10
816.643
 20
331.565
 30
0.000000
  70
    32
  0
VERTEX
  8
0
  5
F69
 10
816.504
 20
331.634
 30
0.000000
  70
    32
  0
VERTEX
  8
0
  5
F6A
 10
816.364
 20
331.703
 30
0.000000
  70
    32
  0
VERTEX
  8
0
  5
F6B
 10
816.224
 20
331.770
 30
0.000000
  70
    32
  0
VERTEX
  8
0
  5
F6C
 10
816.083
 20
331.838
 30
0.000000
  70
    32
  0
VERTEX
  8
0
  5
F6D
 10
815.942
 20
331.904
 30
0.000000
  70
    32
  0
VERTEX
  8
0
  5
F6E
 10
815.801
 20
331.970
 30
0.000000
  70
    32
  0
VERTEX
  8
0
  5
F6F
 10
815.660
 20
332.036
 30
0.000000
  70
    32
  0
VERTEX
  8
0
  5
F70
 10
815.518
 20
332.101
 30
0.000000
  70
    32
  0
VERTEX
  8
0
  5
F71
 10
815.376
 20
332.165
 30
0.000000
  70
    32
  0
VERTEX
  8
0
  5
F72
 10
815.234
 20
332.229
 30
0.000000
  70
    32
  0
VERTEX
  8
0
  5
F73
 10
815.091
 20
332.292
 30
0.000000
  70
    32
  0
VERTEX
  8
0
  5
F74
 10
814.949
 20
332.354
 30
0.000000
  70
    32
  0
VERTEX
  8
0
  5
F75
 10
814.806
 20
332.416
 30
0.000000
  70
    32
  0
VERTEX
  8
0
  5
F76
 10
814.662
 20
332.477
 30
0.000000
  70
    32
  0
VERTEX
  8
0
  5
F77
 10
814.519
 20
332.538
 30
0.000000
  70
    32
  0
VERTEX
  8
0
  5
F78
 10
814.375
 20
332.598
 30
0.000000
  70
    32
  0
VERTEX
  8
0
  5
F79
 10
814.231
 20
332.657
 30
0.000000
  70
    32
  0
VERTEX
  8
0
  5
F7A
 10
814.087
 20
332.716
 30
0.000000
  70
    32
  0
VERTEX
  8
0
  5
F7B
 10
813.942
 20
332.774
 30
0.000000
  70
    32
  0
VERTEX
  8
0
  5
F7C
 10
813.798
 20
332.832
 30
0.000000
  70
    32
  0
VERTEX
  8
0
  5
F7D
 10
813.653
 20
332.889
 30
0.000000
  70
    32
  0
VERTEX
  8
0
  5
F7E
 10
813.507
 20
332.945
 30
0.000000
  70
    32
  0
VERTEX
  8
0
  5
F7F
 10
813.362
 20
333.001
 30
0.000000
  70
    32
  0
VERTEX
  8
0
  5
F80
 10
813.216
 20
333.056
 30
0.000000
  70
    32
  0
VERTEX
  8
0
  5
F81
 10
813.070
 20
333.111
 30
0.000000
  70
    32
  0
VERTEX
  8
0
  5
F82
 10
812.924
 20
333.165
 30
0.000000
  70
    32
  0
VERTEX
  8
0
  5
F83
 10
812.778
 20
333.218
 30
0.000000
  70
    32
  0
VERTEX
  8
0
  5
F84
 10
812.631
 20
333.271
 30
0.000000
  70
    32
  0
VERTEX
  8
0
  5
F85
 10
812.484
 20
333.323
 30
0.000000
  70
    32
  0
VERTEX
  8
0
  5
F86
 10
812.337
 20
333.374
 30
0.000000
  70
    32
  0
VERTEX
  8
0
  5
F87
 10
812.190
 20
333.425
 30
0.000000
  70
    32
  0
VERTEX
  8
0
  5
F88
 10
812.042
 20
333.475
 30
0.000000
  70
    32
  0
VERTEX
  8
0
  5
F89
 10
811.895
 20
333.525
 30
0.000000
  70
    32
  0
VERTEX
  8
0
  5
F8A
 10
811.747
 20
333.574
 30
0.000000
  70
    32
  0
VERTEX
  8
0
  5
F8B
 10
811.599
 20
333.622
 30
0.000000
  70
    32
  0
VERTEX
  8
0
  5
F8C
 10
811.450
 20
333.670
 30
0.000000
  70
    32
  0
VERTEX
  8
0
  5
F8D
 10
811.302
 20
333.717
 30
0.000000
  70
    32
  0
VERTEX
  8
0
  5
F8E
 10
811.153
 20
333.764
 30
0.000000
  70
    32
  0
VERTEX
  8
0
  5
F8F
 10
811.005
 20
333.810
 30
0.000000
  70
    32
  0
VERTEX
  8
0
  5
F90
 10
810.856
 20
333.855
 30
0.000000
  70
    32
  0
VERTEX
  8
0
  5
F91
 10
810.706
 20
333.899
 30
0.000000
  70
    32
  0
VERTEX
  8
0
  5
F92
 10
810.557
 20
333.944
 30
0.000000
  70
    32
  0
VERTEX
  8
0
  5
F93
 10
810.407
 20
333.987
 30
0.000000
  70
    32
  0
VERTEX
  8
0
  5
F94
 10
810.258
 20
334.030
 30
0.000000
  70
    32
  0
VERTEX
  8
0
  5
F95
 10
810.108
 20
334.072
 30
0.000000
  70
    32
  0
VERTEX
  8
0
  5
F96
 10
809.958
 20
334.113
 30
0.000000
  70
    32
  0
VERTEX
  8
0
  5
F97
 10
809.808
 20
334.154
 30
0.000000
  70
    32
  0
VERTEX
  8
0
  5
F98
 10
809.657
 20
334.195
 30
0.000000
  70
    32
  0
VERTEX
  8
0
  5
F99
 10
809.507
 20
334.234
 30
0.000000
  70
    32
  0
VERTEX
  8
0
  5
F9A
 10
809.356
 20
334.273
 30
0.000000
  70
    32
  0
VERTEX
  8
0
  5
F9B
 10
809.205
 20
334.312
 30
0.000000
  70
    32
  0
VERTEX
  8
0
  5
F9C
 10
809.054
 20
334.350
 30
0.000000
  70
    32
  0
VERTEX
  8
0
  5
F9D
 10
808.903
 20
334.387
 30
0.000000
  70
    32
  0
VERTEX
  8
0
  5
F9E
 10
808.752
 20
334.423
 30
0.000000
  70
    32
  0
VERTEX
  8
0
  5
F9F
 10
808.600
 20
334.459
 30
0.000000
  70
    32
  0
VERTEX
  8
0
  5
FA0
 10
808.449
 20
334.495
 30
0.000000
  70
    32
  0
VERTEX
  8
0
  5
FA1
 10
808.297
 20
334.529
 30
0.000000
  70
    32
  0
VERTEX
  8
0
  5
FA2
 10
808.145
 20
334.563
 30
0.000000
  70
    32
  0
VERTEX
  8
0
  5
FA3
 10
807.993
 20
334.597
 30
0.000000
  70
    32
  0
VERTEX
  8
0
  5
FA4
 10
807.841
 20
334.630
 30
0.000000
  70
    32
  0
VERTEX
  8
0
  5
FA5
 10
807.689
 20
334.662
 30
0.000000
  70
    32
  0
VERTEX
  8
0
  5
FA6
 10
807.537
 20
334.693
 30
0.000000
  70
    32
  0
VERTEX
  8
0
  5
FA7
 10
807.384
 20
334.724
 30
0.000000
  70
    32
  0
VERTEX
  8
0
  5
FA8
 10
807.232
 20
334.755
 30
0.000000
  70
    32
  0
VERTEX
  8
0
  5
FA9
 10
807.079
 20
334.784
 30
0.000000
  70
    32
  0
VERTEX
  8
0
  5
FAA
 10
806.926
 20
334.813
 30
0.000000
  70
    32
  0
VERTEX
  8
0
  5
FAB
 10
806.774
 20
334.842
 30
0.000000
  70
    32
  0
VERTEX
  8
0
  5
FAC
 10
806.621
 20
334.869
 30
0.000000
  70
    32
  0
VERTEX
  8
0
  5
FAD
 10
806.468
 20
334.897
 30
0.000000
  70
    32
  0
VERTEX
  8
0
  5
FAE
 10
806.315
 20
334.923
 30
0.000000
  70
    32
  0
VERTEX
  8
0
  5
FAF
 10
806.161
 20
334.949
 30
0.000000
  70
    32
  0
VERTEX
  8
0
  5
FB0
 10
806.008
 20
334.974
 30
0.000000
  70
    32
  0
VERTEX
  8
0
  5
FB1
 10
805.855
 20
334.999
 30
0.000000
  70
    32
  0
VERTEX
  8
0
  5
FB2
 10
805.701
 20
335.023
 30
0.000000
  70
    32
  0
VERTEX
  8
0
  5
FB3
 10
805.548
 20
335.046
 30
0.000000
  70
    32
  0
VERTEX
  8
0
  5
FB4
 10
805.394
 20
335.069
 30
0.000000
  70
    32
  0
VERTEX
  8
0
  5
FB5
 10
805.240
 20
335.091
 30
0.000000
  70
    32
  0
VERTEX
  8
0
  5
FB6
 10
805.087
 20
335.113
 30
0.000000
  70
    32
  0
VERTEX
  8
0
  5
FB7
 10
804.933
 20
335.133
 30
0.000000
  70
    32
  0
VERTEX
  8
0
  5
FB8
 10
804.779
 20
335.154
 30
0.000000
  70
    32
  0
VERTEX
  8
0
  5
FB9
 10
804.625
 20
335.173
 30
0.000000
  70
    32
  0
VERTEX
  8
0
  5
FBA
 10
804.471
 20
335.192
 30
0.000000
  70
    32
  0
VERTEX
  8
0
  5
FBB
 10
804.317
 20
335.210
 30
0.000000
  70
    32
  0
VERTEX
  8
0
  5
FBC
 10
804.163
 20
335.228
 30
0.000000
  70
    32
  0
VERTEX
  8
0
  5
FBD
 10
804.009
 20
335.245
 30
0.000000
  70
    32
  0
VERTEX
  8
0
  5
FBE
 10
803.854
 20
335.261
 30
0.000000
  70
    32
  0
VERTEX
  8
0
  5
FBF
 10
803.700
 20
335.277
 30
0.000000
  70
    32
  0
VERTEX
  8
0
  5
FC0
 10
803.546
 20
335.292
 30
0.000000
  70
    32
  0
VERTEX
  8
0
  5
FC1
 10
803.392
 20
335.307
 30
0.000000
  70
    32
  0
VERTEX
  8
0
  5
FC2
 10
803.237
 20
335.321
 30
0.000000
  70
    32
  0
VERTEX
  8
0
  5
FC3
 10
803.083
 20
335.334
 30
0.000000
  70
    32
  0
VERTEX
  8
0
  5
FC4
 10
802.928
 20
335.346
 30
0.000000
  70
    32
  0
VERTEX
  8
0
  5
FC5
 10
802.774
 20
335.358
 30
0.000000
  70
    32
  0
VERTEX
  8
0
  5
FC6
 10
802.619
 20
335.369
 30
0.000000
  70
    32
  0
VERTEX
  8
0
  5
FC7
 10
802.465
 20
335.380
 30
0.000000
  70
    32
  0
SEQEND
  8
0
  5
FC8
  0
ENDBLK
  5
225
  8
0
  0
ENDSEC
  0
SECTION
  2
ENTITIES
  0
INSERT
  5
226
  8
0
  2
A$C0B8E0D6A
 10
3136.0779023367581
 20
2477.4956278807081
 30
0.0
 41
0.0999999999985448
 42
0.1000000000021828
 43
0.1
  0
ENDSEC
  0
EOF
